  0
SECTION
  2
HEADER
  9
$ACADVER
  1
AC1009
  9
$INSBASE
 10
350.3294674145922727
 20
21.7068119884649988
 30
0.0
  9
$EXTMIN
 10
335.3403415340421816
 20
13.5941041552075603
 30
-0.0000000349181948
  9
$EXTMAX
 10
398.6694948842168742
 20
36.596246274338462
 30
0.0000000814935746
  9
$LIMMIN
 10
0.0
 20
0.0
  9
$LIMMAX
 10
11.6929133858000007
 20
8.2677165353999982
  9
$ORTHOMODE
 70
     0
  9
$REGENMODE
 70
     1
  9
$FILLMODE
 70
     1
  9
$QTEXTMODE
 70
     0
  9
$MIRRTEXT
 70
     0
  9
$DRAGMODE
 70
     2
  9
$LTSCALE
 40
0.6431102362
  9
$OSMODE
 70
  4095
  9
$ATTMODE
 70
     1
  9
$TEXTSIZE
 40
0.2
  9
$TRACEWID
 40
0.05
  9
$TEXTSTYLE
  7
STANDARD
  9
$CLAYER
  8
0
  9
$CELTYPE
  6
BYLAYER
  9
$CECOLOR
 62
   256
  9
$DIMSCALE
 40
1.0
  9
$DIMASZ
 40
0.1875
  9
$DIMEXO
 40
0.0625
  9
$DIMDLI
 40
0.4443307087
  9
$DIMRND
 40
0.0
  9
$DIMDLE
 40
0.0
  9
$DIMEXE
 40
0.125
  9
$DIMTP
 40
0.01
  9
$DIMTM
 40
0.01
  9
$DIMTXT
 40
0.15625
  9
$DIMCEN
 40
0.1052362205
  9
$DIMTSZ
 40
0.0
  9
$DIMTOL
 70
     1
  9
$DIMLIM
 70
     0
  9
$DIMTIH
 70
     1
  9
$DIMTOH
 70
     1
  9
$DIMSE1
 70
     0
  9
$DIMSE2
 70
     0
  9
$DIMTAD
 70
     0
  9
$DIMZIN
 70
     0
  9
$DIMBLK
  1

  9
$DIMASO
 70
     1
  9
$DIMSHO
 70
     1
  9
$DIMPOST
  1
\X
  9
$DIMAPOST
  1

  9
$DIMALT
 70
     1
  9
$DIMALTD
 70
     2
  9
$DIMALTF
 40
25.3999999999999986
  9
$DIMLFAC
 40
1.0
  9
$DIMTOFL
 70
     0
  9
$DIMTVP
 40
0.0
  9
$DIMTIX
 70
     0
  9
$DIMSOXD
 70
     0
  9
$DIMSAH
 70
     0
  9
$DIMBLK1
  1

  9
$DIMBLK2
  1

  9
$DIMSTYLE
  2
STANDARD
  9
$DIMCLRD
 70
     0
  9
$DIMCLRE
 70
     0
  9
$DIMCLRT
 70
     0
  9
$DIMTFAC
 40
1.0
  9
$DIMGAP
 40
0.09
  9
$LUNITS
 70
     2
  9
$LUPREC
 70
     4
  9
$SKETCHINC
 40
0.1
  9
$FILLETRAD
 40
0.0
  9
$AUNITS
 70
     0
  9
$AUPREC
 70
     0
  9
$MENU
  1
.
  9
$ELEVATION
 40
0.0
  9
$PELEVATION
 40
0.0
  9
$THICKNESS
 40
0.0
  9
$LIMCHECK
 70
     0
  9
$BLIPMODE
 70
     0
  9
$CHAMFERA
 40
0.0
  9
$CHAMFERB
 40
0.0
  9
$SKPOLY
 70
     0
  9
$TDCREATE
 40
2458018.639108797069639
  9
$TDUPDATE
 40
2460171.6016087960451841
  9
$TDINDWG
 40
0.335300463
  9
$TDUSRTIMER
 40
0.335300463
  9
$USRTIMER
 70
     1
  9
$ANGBASE
 50
0.0
  9
$ANGDIR
 70
     0
  9
$PDMODE
 70
     0
  9
$PDSIZE
 40
0.3125
  9
$PLINEWID
 40
0.0
  9
$COORDS
 70
     1
  9
$SPLFRAME
 70
     0
  9
$SPLINETYPE
 70
     6
  9
$SPLINESEGS
 70
     8
  9
$ATTDIA
 70
     1
  9
$ATTREQ
 70
     1
  9
$HANDLING
 70
     1
  9
$HANDSEED
  5
AEC7
  9
$SURFTAB1
 70
     6
  9
$SURFTAB2
 70
     6
  9
$SURFTYPE
 70
     6
  9
$SURFU
 70
     6
  9
$SURFV
 70
     6
  9
$UCSNAME
  2

  9
$UCSORG
 10
0.0
 20
0.0
 30
0.0
  9
$UCSXDIR
 10
1.0
 20
0.0
 30
0.0
  9
$UCSYDIR
 10
0.0
 20
1.0
 30
0.0
  9
$PUCSNAME
  2

  9
$PUCSORG
 10
0.0
 20
0.0
 30
0.0
  9
$PUCSXDIR
 10
1.0
 20
0.0
 30
0.0
  9
$PUCSYDIR
 10
0.0
 20
1.0
 30
0.0
  9
$USERI1
 70
     0
  9
$USERI2
 70
     0
  9
$USERI3
 70
     0
  9
$USERI4
 70
     0
  9
$USERI5
 70
     0
  9
$USERR1
 40
0.0
  9
$USERR2
 40
0.0
  9
$USERR3
 40
0.0
  9
$USERR4
 40
0.0
  9
$USERR5
 40
0.0
  9
$WORLDVIEW
 70
     1
  9
$SHADEDGE
 70
     3
  9
$SHADEDIF
 70
    70
  9
$TILEMODE
 70
     1
  9
$MAXACTVP
 70
    64
  9
$PLIMCHECK
 70
     0
  9
$PEXTMIN
 10
1.0000000000000000E+20
 20
1.0000000000000000E+20
 30
1.0000000000000000E+20
  9
$PEXTMAX
 10
-1.0000000000000000E+20
 20
-1.0000000000000000E+20
 30
-1.0000000000000000E+20
  9
$PLIMMIN
 10
0.0
 20
0.0
  9
$PLIMMAX
 10
12.0
 20
9.0
  9
$UNITMODE
 70
     0
  9
$VISRETAIN
 70
     1
  9
$PLINEGEN
 70
     0
  9
$PSLTSCALE
 70
     1
  0
ENDSEC
  0
SECTION
  2
TABLES
  0
TABLE
  2
VPORT
 70
     1
  0
VPORT
  2
*ACTIVE
 70
     0
 10
0.0
 20
0.0
 11
1.0
 21
1.0
 12
271.6806572113918037
 22
18.0588432035501683
 13
0.0
 23
0.0
 14
1.0
 24
1.0
 15
0.0
 25
0.0
 16
-0.0000000000000142
 26
0.0
 36
39.3282560748450578
 17
95.3242609977377526
 27
7.0363320112228394
 37
0.0
 40
44.4999761995143999
 41
1.4307692307692299
 42
50.0
 43
0.0
 44
0.0
 50
0.0
 51
0.0
 71
     0
 72
   100
 73
     1
 74
     1
 75
     0
 76
     0
 77
     0
 78
     0
  0
ENDTAB
  0
TABLE
  2
LTYPE
 70
     2
  0
LTYPE
  2
CONTINUOUS
 70
     0
  3
Solid line
 72
    65
 73
     0
 40
0.0
  0
LTYPE
  2
PHANTOM2
 70
     0
  3
___ _ _ ___ _ _ ___ _ _ ___ _ _
 72
    65
 73
     6
 40
1.25
 49
0.625
 49
-0.125
 49
0.125
 49
-0.125
 49
0.125
 49
-0.125
  0
ENDTAB
  0
TABLE
  2
LAYER
 70
     2
  0
LAYER
  2
0
 70
     0
 62
   255
  6
CONTINUOUS
  0
LAYER
  2
DEFPOINTS
 70
     0
 62
     7
  6
CONTINUOUS
  0
ENDTAB
  0
TABLE
  2
STYLE
 70
     1
  0
STYLE
  2
STANDARD
 70
     0
 40
0.0
 41
0.8
 50
0.0
 71
     0
 42
0.2
  3
txt
  4

  0
ENDTAB
  0
TABLE
  2
VIEW
 70
     0
  0
ENDTAB
  0
TABLE
  2
UCS
 70
     0
  0
ENDTAB
  0
TABLE
  2
APPID
 70
    10
  0
APPID
  2
ACAD
 70
     0
  0
APPID
  2
ACAD_MLEADERVER
 70
     0
  0
APPID
  2
ACAD_DSTYLE_DIMJAG
 70
     0
  0
APPID
  2
ACAD_DSTYLE_DIMTALN
 70
     0
  0
APPID
  2
ACAD_NAV_VCDISPLAY
 70
     0
  0
APPID
  2
ACAD_EXEMPT_FROM_CAD_STANDARDS
 70
     0
  0
APPID
  2
ACAECLAYERSTANDARD
 70
     0
  0
APPID
  2
ACCMTRANSPARENCY
 70
     0
  0
APPID
  2
DCO15
 70
     0
  0
APPID
  2
ACDBATTR
 70
     0
  0
ENDTAB
  0
TABLE
  2
DIMSTYLE
 70
     1
  0
DIMSTYLE
  2
STANDARD
 70
     0
  3

  4

  5

  6

  7

 40
1.0
 41
0.1875
 42
0.0625
 43
0.38
 44
0.125
 45
0.0
 46
0.0
 47
0.01
 48
0.01
140
0.15625
141
0.09
142
0.0
143
25.3999999999999986
144
1.0
145
0.0
146
1.0
147
0.09
 71
     1
 72
     0
 73
     1
 74
     1
 75
     0
 76
     0
 77
     0
 78
     4
170
     0
171
     2
172
     0
173
     0
174
     0
175
     0
176
     0
177
     0
178
     0
  0
ENDTAB
  0
ENDSEC
  0
SECTION
  2
BLOCKS
  0
BLOCK
  8
0
  2
$MODEL_SPACE
 70
     0
 10
0.0
 20
0.0
 30
0.0
  3
$MODEL_SPACE
  1

  0
ENDBLK
  5
21
  8
0
  0
BLOCK
 67
     1
  8
0
  2
$PAPER_SPACE
 70
     0
 10
0.0
 20
0.0
 30
0.0
  3
$PAPER_SPACE
  1

  0
ENDBLK
  5
1D
 67
     1
  8
0
  0
ENDSEC
  0
SECTION
  2
ENTITIES
  0
ATTDEF
  5
7A6E
  8
DEFPOINTS
 10
350.3261457387732776
 20
21.71064172105919
 30
0.0
 40
0.001
  1
K-28409T-2HD
  3

  2
MODELNUMBER
 70
     0
1001
ACDBATTR
1070
     0
1070
     1
  0
ATTDEF
  5
7A6F
  8
DEFPOINTS
 10
350.3261457387732776
 20
21.7089750543925284
 30
0.0
 40
0.001
  1
ALEO
  3

  2
TRADENAME
 70
     0
1001
ACDBATTR
1070
     0
1070
     1
  0
ATTDEF
  5
7A70
  8
DEFPOINTS
 10
350.3261457387732776
 20
21.7073083877258597
 30
0.0
 40
0.001
  1
KITCHEN SINK
  3

  2
PRODUCT
 70
     0
1001
ACDBATTR
1070
     0
1070
     1
  0
LINE
  5
AA0F
  8
0
 10
349.5224247204423023
 20
24.10856125972321
 30
0.0
 11
349.2467940117422245
 21
24.10856125972321
 31
0.0
  0
LINE
  5
AA10
  8
0
 10
349.1168727519421964
 20
24.10856125972321
 30
0.0
 11
347.7900908621422218
 21
24.10856125972321
 31
0.0
  0
ARC
  5
AA11
  8
0
 10
347.7900908621422218
 20
24.2266612597232083
 30
0.0
 40
0.1181
 50
180.0
 51
270.0
  0
LINE
  5
AA12
  8
0
 10
350.1916459802421855
 20
22.4550179526232085
 30
0.0
 11
350.0101916717679273
 21
22.4550179526232085
 31
0.0
  0
LINE
  5
AA13
  8
0
 10
349.7174419912063854
 20
22.4550179526232085
 30
0.0
 11
349.5190552106421933
 21
22.4550179526232085
 31
0.0
  0
LINE
  5
AA14
  8
0
 10
349.1168727519421964
 20
22.4550179526232085
 30
0.0
 11
347.7900908621422218
 21
22.4550179526232085
 31
0.0
  0
ARC
  5
AA15
  8
0
 10
347.7900908621422218
 20
22.3369179526232209
 30
0.0
 40
0.1181
 50
90.0
 51
180.0
  0
LINE
  5
AA16
  8
0
 10
350.231045980242186
 20
25.9195597041051506
 30
0.0
 11
350.231045980242186
 21
22.4944179526232091
 31
0.0
  0
LINE
  5
AA17
  8
0
 10
349.2467940117422245
 20
24.10856125972321
 30
0.0
 11
349.2467940117422245
 21
23.2030494486232115
 31
0.0
  0
LINE
  5
AA18
  8
0
 10
349.1365577912421827
 20
24.0888612597232203
 30
0.0
 11
349.1365577912421827
 21
22.4747179526232088
 31
0.0
  0
LINE
  5
AA19
  8
0
 10
349.1601798385423194
 20
24.0810022045232195
 30
0.0
 11
349.1601798385423194
 21
22.4825770077232114
 31
0.0
  0
ARC
  5
AA1A
  8
0
 10
349.1168577815320191
 20
22.474717956645339
 30
0.0
 40
0.0197000097102804
 50
270.0435401515956073
 51
359.9999883019837057
  0
LINE
  5
AA1B
  8
0
 10
349.1601798385423194
 20
22.4825770077232114
 30
0.0
 11
349.148368814842172
 21
22.4825770077232114
 31
0.0
  0
LINE
  5
AA1C
  8
0
 10
349.1601798385423194
 20
24.0810022045232088
 30
0.0
 11
349.148368814842172
 21
24.0810022045232088
 31
0.0
  0
ARC
  5
AA1D
  8
0
 10
349.1168577815320191
 20
24.0888612557010795
 30
0.0
 40
0.0197000097102804
 50
0.0000116980188482
 51
89.956459848407718
  0
LINE
  5
AA1E
  8
0
 10
349.1601798385423194
 20
24.0810022045232088
 30
0.0
 11
349.2467940117422245
 21
24.0192513940232111
 31
0.0
  0
LINE
  5
AA1F
  8
0
 10
349.1601798385423194
 20
22.4825770077232114
 30
0.0
 11
349.3693543186506076
 21
22.6317061076578803
 31
0.0
  0
LINE
  5
AA20
  8
0
 10
349.6011247204422716
 20
25.919545511623209
 30
0.0
 11
349.6011247204422716
 21
24.1872612597232113
 31
0.0
  0
ARC
  5
AA21
  8
0
 10
349.9161247204422125
 20
25.919545511623209
 30
0.0
 40
0.315
 50
90.0
 51
180.0
  0
ARC
  5
AA22
  8
0
 10
349.5224247204423023
 20
24.1872612597232184
 30
0.0
 40
0.0787
 50
270.0
 51
359.9999999999996021
  0
LINE
  5
AA23
  8
0
 10
349.2467940117422245
 20
23.2030494486232115
 30
0.0
 11
349.5190552106421933
 21
22.4550179526232085
 31
0.0
  0
ARC
  5
AA24
  8
0
 10
349.3624539110471119
 20
22.6413520534023895
 30
0.0
 40
0.0118600124114653
 50
305.5787439984546268
 51
347.9383489077874856
  0
LINE
  5
AA25
  8
0
 10
349.3740520937428755
 20
22.6388737369263815
 30
0.0
 11
349.4030898659423201
 21
22.7736301186232204
 31
0.0
  0
ARC
  5
AA26
  8
0
 10
349.8638168314870995
 20
21.7336854329581115
 30
0.0
 40
0.7360341009719712
 50
78.5291332709730909
 51
101.4708667290236974
  0
ARC
  5
AA27
  8
0
 10
350.1916459802421855
 20
22.4944179526232091
 30
0.0
 40
0.0394
 50
270.0000000000032969
 51
359.9999999999988063
  0
ARC
  5
AA28
  8
0
 10
349.916045963754982
 20
25.9195455046613787
 30
0.0
 40
0.3150000168072565
 50
0.00000132450266
 51
89.9856748393882384
  0
LINE
  5
AA29
  8
0
 10
345.9003373188422756
 20
25.1006833070232211
 30
0.0
 11
345.9003373188422756
 21
21.7068119884649988
 31
0.0
  0
LINE
  5
AA2A
  8
0
 10
345.9318373188422129
 20
25.1321833070232188
 30
0.0
 11
347.6404908621423147
 21
25.1321833070231513
 31
0.0
  0
LINE
  5
AA2B
  8
0
 10
346.2290774763422974
 20
25.171553385723211
 30
0.0
 11
347.3432507046421733
 21
25.171553385723211
 31
0.0
  0
LINE
  5
AA2C
  8
0
 10
346.2290774763422974
 20
25.171553385723211
 30
0.0
 11
346.2290774763422974
 21
25.1321833070232117
 31
0.0
  0
LINE
  5
AA2D
  8
0
 10
346.2349830848423267
 20
32.3423741326310932
 30
0.0
 11
346.2349830848423267
 21
36.0432662823418823
 31
0.0
  0
ARC
  5
AA2E
  8
0
 10
345.9318373188422129
 20
25.1006833070232211
 30
0.0
 40
0.0315
 50
89.9999999999967457
 51
180.0000000000046896
  0
LINE
  5
AA2F
  8
0
 10
347.6719908621423087
 20
25.1006833070232211
 30
0.0
 11
347.6719908621423087
 21
24.2266612597232083
 31
0.0
  0
LINE
  5
AA30
  8
0
 10
347.6719908621423087
 20
22.3369179526232209
 30
0.0
 11
347.6719908621423087
 21
21.7068119884649988
 31
0.0
  0
LINE
  5
AA31
  8
0
 10
347.3432507046421733
 20
25.171553385723211
 30
0.0
 11
347.3432507046421733
 21
25.1321833070232117
 31
0.0
  0
LINE
  5
AA32
  8
0
 10
347.3373450961422009
 20
32.3423741326310932
 30
0.0
 11
347.3373450961422009
 21
36.0432662823418823
 31
0.0
  0
ARC
  5
AA33
  8
0
 10
346.7861640904922069
 20
36.0432662823418823
 30
0.0
 40
0.5511810056500002
 50
0.0
 51
180.0
  0
ARC
  5
AA34
  8
0
 10
347.6404908621423147
 20
25.1006833070232211
 30
0.0
 40
0.0315
 50
359.9999999999951115
 51
90.0000000000032543
  0
ARC
  5
AA35
  8
0
 10
346.7861472519981021
 20
32.7740612035247025
 30
0.0
 40
3.6123919148360351
 50
267.2512021652187855
 51
270.0002670736383834
  0
ARC
  5
AA36
  8
0
 10
346.7555725184254243
 20
32.1355430009683829
 30
0.0
 40
2.973142119243942
 50
260.9851614674763027
 51
267.2496224630078245
  0
ARC
  5
AA37
  8
0
 10
346.4784881291524812
 20
30.3890285795001098
 30
0.0
 40
1.2047845809685509
 50
249.366330213731402
 51
260.9851614674763027
  0
ARC
  5
AA38
  8
0
 10
346.1444487284088041
 20
29.50191438070404
 30
0.0
 40
0.2568637388330812
 50
226.4062928831999955
 51
249.366330213731402
  0
ARC
  5
AA39
  8
0
 10
346.0230657217314842
 20
29.3744216307408514
 30
0.0
 40
0.0808289820286622
 50
176.2565825566560989
 51
226.4062928831999955
  0
ARC
  5
AA3A
  8
0
 10
346.7855590375783095
 20
26.3504467070584916
 30
0.0
 40
3.163432061154881
 50
89.9890413393131041
 51
94.455706905765183
  0
ARC
  5
AA3B
  8
0
 10
346.6999212825302266
 20
27.4494387898441587
 30
0.0
 40
2.0611084139825651
 50
94.455706905765183
 51
103.5663502459947978
  0
ARC
  5
AA3C
  8
0
 10
346.3222909995704981
 20
29.0143961703320308
 30
0.0
 40
0.451233812235074
 50
103.5663502459947978
 51
121.8537534898443937
  0
ARC
  5
AA3D
  8
0
 10
346.1265666239124243
 20
29.3294069986146795
 30
0.0
 40
0.0803701537808212
 50
121.8537534898443937
 51
152.9386048493323074
  0
ARC
  5
AA3E
  8
0
 10
346.0900641926958201
 20
29.348055211961789
 30
0.0
 40
0.039380114188756
 50
152.9386048493329042
 51
218.8903967052650898
  0
ARC
  5
AA3F
  8
0
 10
346.2034188780997965
 20
29.45347550873187
 30
0.0
 40
0.1941013543468164
 50
222.1054513230606062
 51
248.0614430152240004
  0
ARC
  5
AA40
  8
0
 10
346.4665702732863224
 20
30.1071811137185108
 30
0.0
 40
0.8987854472035699
 50
248.0701773786252033
 51
262.9795563657530124
  0
ARC
  5
AA41
  8
0
 10
346.4318684630533767
 20
29.9878081557373086
 30
0.0
 40
0.7603410648086955
 50
247.2979447060046994
 51
254.0866557485429951
  0
ARC
  5
AA42
  8
0
 10
346.4318684630533767
 20
29.9878081557373086
 30
0.0
 40
0.7603410648086955
 50
254.8907719057937129
 51
260.6901009703340151
  0
ARC
  5
AA43
  8
0
 10
346.2221573594828783
 20
29.4865281349019916
 30
0.0
 40
0.2169623697447235
 50
228.644828896912486
 51
247.2979447060046994
  0
ARC
  5
AA44
  8
0
 10
346.1152057424811801
 20
29.3650238263423304
 30
0.0
 40
0.0550922200016556
 50
191.7030332546582088
 51
228.6448288969120881
  0
ARC
  5
AA45
  8
0
 10
346.1004979911734836
 20
29.361977185436519
 30
0.0
 40
0.040072234337882
 50
150.0622324379963004
 51
191.7030332546580951
  0
ARC
  5
AA46
  8
0
 10
346.3737461419968895
 20
29.7826500025892393
 30
0.0
 40
0.5474607620913888
 50
241.7835098419903943
 51
250.3005756635712089
  0
ARC
  5
AA47
  8
0
 10
346.1720607643806034
 20
29.4029536492200982
 30
0.0
 40
0.1175408141687266
 50
209.9479503987271869
 51
240.9043412395556913
  0
ARC
  5
AA48
  8
0
 10
346.1049246272165192
 20
29.3580333405161689
 30
0.0
 40
0.0373375582564505
 50
151.436929179315598
 51
201.6210105462014894
  0
ARC
  5
AA49
  8
0
 10
346.215313495599105
 20
29.2676198469543287
 30
0.0
 40
0.1795064023895824
 50
126.7472369563311929
 51
142.9056623951080951
  0
LINE
  5
AA4A
  8
0
 10
346.0675870689601084
 20
29.3580333405161689
 30
0.0
 11
346.0675870689601084
 21
29.3840034611042888
 31
0.0
  0
ARC
  5
AA4B
  8
0
 10
346.8017049821817182
 20
29.7397419711016795
 30
0.0
 40
2.7266640049058459
 50
90.3265647410655248
 51
94.6264079404965344
  0
ARC
  5
AA4C
  8
0
 10
346.7153262042426718
 20
30.9330200467289806
 30
0.0
 40
1.530340352847041
 50
95.006443818549414
 51
102.6928227441253938
  0
ARC
  5
AA4D
  8
0
 10
346.4773323568712726
 20
31.9896992038740109
 30
0.0
 40
0.4471912806822646
 50
102.6928227441253938
 51
117.5018372609395954
  0
ARC
  5
AA4E
  8
0
 10
346.3100251049592089
 20
32.3110682836762777
 30
0.0
 40
0.0848795337082898
 50
117.5018372609364974
 51
145.7228703050942045
  0
ARC
  5
AA4F
  8
0
 10
346.2666753587824928
 20
32.3419313473412302
 30
0.0
 40
0.0316953669535387
 50
147.6908500295641886
 51
179.199550090368092
  0
ARC
  5
AA50
  8
0
 10
346.273511435287503
 20
32.3436698210410185
 30
0.0
 40
0.0385501309528969
 50
181.9261014156097076
 51
193.9510481644090873
  0
ARC
  5
AA51
  8
0
 10
346.7866553959751741
 20
30.1621095550698612
 30
0.0
 40
2.2993197426300029
 50
90.0122426343398416
 51
94.9758603165089568
  0
ARC
  5
AA52
  8
0
 10
346.7214735161895192
 20
30.9324265964246088
 30
0.0
 40
1.526253310600171
 50
95.0463609076056599
 51
101.6919556641266951
  0
ARC
  5
AA53
  8
0
 10
346.5290531599376891
 20
31.8622467545319914
 30
0.0
 40
0.5767317890310809
 50
101.6919556641266951
 51
113.628069750831699
  0
ARC
  5
AA54
  8
0
 10
346.3587207691427921
 20
32.2516021383242588
 30
0.0
 40
0.1517485679011427
 50
113.628069750831699
 51
134.4251778682335043
  0
ARC
  5
AA55
  8
0
 10
346.3000646096127753
 20
32.3114472059033702
 30
0.0
 40
0.0679513294958801
 50
134.4251778682335043
 51
173.3141892700828919
  0
ARC
  5
AA56
  8
0
 10
346.3137787741583793
 20
32.3182707934139515
 30
0.0
 40
0.0737806341293537
 50
122.8986779373955045
 51
144.3922849537622142
  0
ARC
  5
AA57
  8
0
 10
346.4171932887297203
 20
32.1584082041767232
 30
0.0
 40
0.2641765617686899
 50
104.0746896902033996
 51
122.8986779373953055
  0
ARC
  5
AA58
  8
0
 10
346.6537398931467919
 20
31.3501756342694513
 30
0.0
 40
1.1061597649705399
 50
95.3699336425829785
 51
105.7787560482386056
  0
ARC
  5
AA59
  8
0
 10
346.7794303569220915
 20
30.2976034321340002
 30
0.0
 40
2.1660390434809642
 50
90.6182024741566039
 51
96.0744426061937844
  0
ARC
  5
AA5A
  8
0
 10
346.786148712343504
 20
30.0704335269668093
 30
0.0
 40
2.3932720167010171
 50
89.9996318416743009
 51
90.720354197820086
  0
LINE
  5
AA5B
  8
0
 10
345.9424091939422965
 20
29.3796988327232214
 30
0.0
 11
346.2325753822818228
 21
32.3193584241731529
 31
0.0
  0
LINE
  5
AA5C
  8
0
 10
346.7454354003609751
 20
29.4118787602626703
 30
0.0
 11
346.7359968272043034
 21
29.4639923948944684
 31
0.0
  0
ARC
  5
AA5D
  8
0
 10
346.7859856276975847
 20
29.5359472737604101
 30
0.0
 40
0.1386400003519032
 50
264.3428846316278964
 51
270.0737533737054719
  0
ARC
  5
AA5E
  8
0
 10
346.7808764154070218
 20
29.4843689690743815
 30
0.0
 40
0.0868092607805264
 50
255.4254053249503045
 51
264.3428846316278964
  0
ARC
  5
AA5F
  8
0
 10
346.7656071966671902
 20
29.4256427975755486
 30
0.0
 40
0.026130497940176
 50
231.5935674420281032
 51
255.4254053249534877
  0
ARC
  5
AA60
  8
0
 10
346.7573391346779204
 20
29.4143516768909485
 30
0.0
 40
0.0121578866311792
 50
191.7358645559754962
 51
229.0696092786240001
  0
ARC
  5
AA61
  8
0
 10
346.7846487615643127
 20
29.2671970572726501
 30
0.0
 40
0.2179445567717036
 50
89.6016296393634661
 51
99.6874292723225182
  0
ARC
  5
AA62
  8
0
 10
346.758593970824279
 20
29.4198254832674699
 30
0.0
 40
0.063108228533919
 50
99.6874292723224755
 51
118.2234873189072033
  0
ARC
  5
AA63
  8
0
 10
346.7307202060143823
 20
29.4717587047345191
 30
0.0
 40
0.0041675273451206
 50
118.2234873189031958
 51
220.657599517383602
  0
ARC
  5
AA64
  8
0
 10
346.7628357861269137
 20
29.5184032184102207
 30
0.0
 40
0.0606701527253331
 50
234.4468552083959025
 51
243.7444859422001002
  0
ARC
  5
AA65
  8
0
 10
346.6388169905940799
 20
29.3280483330661816
 30
0.0
 40
0.1625948505895349
 50
87.9561890665604977
 51
106.3212930684502027
  0
ARC
  5
AA66
  8
0
 10
346.5981004118003739
 20
29.4670963272723085
 30
0.0
 40
0.0177080517381229
 50
106.3212930684501032
 51
137.6486904181471971
  0
ARC
  5
AA67
  8
0
 10
346.587286989792176
 20
29.4769535001161316
 30
0.0
 40
0.0030761020389527
 50
137.6486904181525972
 51
238.0594288498870128
  0
ARC
  5
AA68
  8
0
 10
346.9740889328787716
 20
30.0973970910032911
 30
0.0
 40
0.734216302444111
 50
238.0594288498870128
 51
238.8310826831414886
  0
ARC
  5
AA69
  8
0
 10
346.6469173732020863
 20
29.2948275240049405
 30
0.0
 40
0.1957257585156047
 50
77.4836078412520095
 51
90.6737902729411047
  0
ARC
  5
AA6A
  8
0
 10
346.6817046234289137
 20
29.4515304915769107
 30
0.0
 40
0.035207931392873
 50
53.2246017596481806
 51
77.4836078412519242
  0
ARC
  5
AA6B
  8
0
 10
346.700236875924702
 20
29.4770525462002801
 30
0.0
 40
0.0036959129098331
 50
305.8419260884680284
 51
46.4588757058610966
  0
ARC
  5
AA6C
  8
0
 10
346.5607787394794173
 20
29.7287504363422315
 30
0.0
 40
0.2914204316949667
 50
297.3370106506339994
 51
299.0762000346779814
  0
ARC
  5
AA6D
  8
0
 10
346.6164390953645125
 20
29.42021545323243
 30
0.0
 40
0.0133163503805653
 50
191.7097372137133107
 51
246.0315806139593917
  0
ARC
  5
AA6E
  8
0
 10
346.643374754385718
 20
29.5031173997510905
 30
0.0
 40
0.1004217156720116
 50
251.2104104636401019
 51
291.1224707994766732
  0
ARC
  5
AA6F
  8
0
 10
346.672715801287211
 20
29.4197869866091999
 30
0.0
 40
0.0124050964735796
 50
303.5019919460344795
 51
351.187553473516175
  0
ARC
  5
AA70
  8
0
 10
346.5050912735584916
 20
29.3993429130401402
 30
0.0
 40
0.0128912760114064
 50
191.0953394558054015
 51
242.9172250580579089
  0
ARC
  5
AA71
  8
0
 10
346.5177292714164992
 20
29.4240580456403187
 30
0.0
 40
0.0406501803360668
 50
242.9172250580579089
 51
258.4549717786694032
  0
ARC
  5
AA72
  8
0
 10
346.5321099404014262
 20
29.4944580507493797
 30
0.0
 40
0.1125039510082288
 50
258.4549717786694032
 51
287.4370277532818818
  0
ARC
  5
AA73
  8
0
 10
346.560602830051721
 20
29.3997845562646098
 30
0.0
 40
0.0136943529518704
 50
292.405616460663623
 51
347.6779254681721909
  0
ARC
  5
AA74
  8
0
 10
346.4909871335621006
 20
29.473879177256439
 30
0.0
 40
0.0259855931799542
 50
231.9383796052289881
 51
251.5527959722855087
  0
ARC
  5
AA75
  8
0
 10
346.4773103960649223
 20
29.4564125043467016
 30
0.0
 40
0.003801413882487
 50
148.918330811207511
 51
231.9383796052331093
  0
ARC
  5
AA76
  8
0
 10
346.5346577844857165
 20
29.3045587322890313
 30
0.0
 40
0.1653244658715641
 50
70.1577263957472042
 51
111.5042547582734045
  0
ARC
  5
AA77
  8
0
 10
346.5888667575100044
 20
29.4565136720486613
 30
0.0
 40
0.0040337901648259
 50
330.2224574303085092
 51
61.779462038851058
  0
ARC
  5
AA78
  8
0
 10
346.5736696246333963
 20
29.4729538799825086
 30
0.0
 40
0.0262638553193496
 50
291.5009808350891944
 51
315.3930193108695903
  0
ARC
  5
AA79
  8
0
 10
346.4450185564508047
 20
29.4537885310324796
 30
0.0
 40
0.016268575728054
 50
282.9534329802988282
 51
319.4839198163998049
  0
ARC
  5
AA7A
  8
0
 10
346.4550017539150986
 20
29.4452572281434399
 30
0.0
 40
0.0031366542923002
 50
319.4839198164054892
 51
54.475930822366557
  0
ARC
  5
AA7B
  8
0
 10
346.398220109555723
 20
29.2948620415620411
 30
0.0
 40
0.1637911686565482
 50
69.034964114129977
 51
110.9554393353480037
  0
ARC
  5
AA7C
  8
0
 10
346.3415538970676835
 20
29.4451402905831294
 30
0.0
 40
0.0032919991734659
 50
125.5144726271059028
 51
235.8354422940155928
  0
ARC
  5
AA7D
  8
0
 10
346.3685429242160012
 20
29.4849063288907693
 30
0.0
 40
0.0513518097130274
 50
235.8354422940186055
 51
246.1545524303199954
  0
ARC
  5
AA7E
  8
0
 10
346.3973769972175205
 20
29.4776230947085516
 30
0.0
 40
0.1066007844464822
 50
252.5935273339918865
 51
289.6666508367673032
  0
ARC
  5
AA7F
  8
0
 10
346.3706694142911147
 20
29.3883724714259102
 30
0.0
 40
0.0135024645446218
 50
191.8170790559705949
 51
247.4323657291245979
  0
ARC
  5
AA80
  8
0
 10
346.4266929193379951
 20
29.387869266328611
 30
0.0
 40
0.0124901437068723
 50
301.6841426649963864
 51
351.1368903404542721
  0
ARC
  5
AA81
  8
0
 10
346.3441881241682268
 20
29.27820132722821
 30
0.0
 40
0.1500254961084284
 50
87.9344674646509077
 51
111.0980133458189982
  0
ARC
  5
AA82
  8
0
 10
346.2922485093316141
 20
29.4148070866410301
 30
0.0
 40
0.0039459284491498
 50
121.5424094481877972
 51
235.5600173546918938
  0
ARC
  5
AA83
  8
0
 10
346.3049196113404946
 20
29.4307200109534612
 30
0.0
 40
0.0242790458136671
 50
232.1345808903174088
 51
252.4293764797351116
  0
ARC
  5
AA84
  8
0
 10
346.256174310889719
 20
29.1773832910910116
 30
0.0
 40
0.2260188193168053
 50
79.0327121285792629
 51
95.7077017236069452
  0
ARC
  5
AA85
  8
0
 10
346.2460151753512037
 20
29.2790264530636399
 30
0.0
 40
0.1238692211252968
 50
95.7077017236069452
 51
112.4159495435991971
  0
ARC
  5
AA86
  8
0
 10
346.2006371771648219
 20
29.3897952713966006
 30
0.0
 40
0.0041762948647519
 50
116.3975957277311011
 51
246.6975608795609105
  0
ARC
  5
AA87
  8
0
 10
346.2673582479627044
 20
29.5010401238163311
 30
0.0
 40
0.1338596484968709
 50
239.2840428090090938
 51
242.791228006013597
  0
ARC
  5
AA88
  8
0
 10
346.3210031606507187
 20
29.3579070410641592
 30
0.0
 40
0.0137137318230415
 50
187.288420903021688
 51
252.6208527348761095
  0
ARC
  5
AA89
  8
0
 10
346.346927257113407
 20
29.4407365636098604
 30
0.0
 40
0.1005053707207835
 50
252.6208527348761095
 51
291.2167455385848029
  0
ARC
  5
AA8A
  8
0
 10
346.3763640146867147
 20
29.3576443926001396
 30
0.0
 40
0.0126681410066569
 50
303.1958407066017003
 51
349.8715516707334245
  0
ARC
  5
AA8B
  8
0
 10
346.2296182748041247
 20
29.3336146766901003
 30
0.0
 40
0.014548011161354
 50
193.3861995503172011
 51
255.1198502558470125
  0
ARC
  5
AA8C
  8
0
 10
346.2548825082824919
 20
29.4286972026490901
 30
0.0
 40
0.1129297586351241
 50
255.1198502558470125
 51
288.5809978325985981
  0
ARC
  5
AA8D
  8
0
 10
346.2846392194102805
 20
29.3325498500846606
 30
0.0
 40
0.0125500911057666
 50
299.7511853534815032
 51
351.1556945083056007
  0
ARC
  5
AA8E
  8
0
 10
346.25404877691102
 20
29.3017266534013814
 30
0.0
 40
0.0147486050676438
 50
190.2897678292590911
 51
255.0063987819902138
  0
ARC
  5
AA8F
  8
0
 10
346.2794094016344957
 20
29.3964160917113411
 30
0.0
 40
0.1127753922935184
 50
255.0063987819902138
 51
287.6560641517154977
  0
ARC
  5
AA90
  8
0
 10
346.3074496182081248
 20
29.3014559351269206
 30
0.0
 40
0.0139401263861639
 50
296.2466803262419148
 51
346.9361073210038171
  0
ARC
  5
AA91
  8
0
 10
346.2295638521846968
 20
29.2694326508877687
 30
0.0
 40
0.0142333202426693
 50
189.2265559168677953
 51
254.0012706990567892
  0
ARC
  5
AA92
  8
0
 10
346.2553471876556728
 20
29.3580273767238005
 30
0.0
 40
0.1065035097767668
 50
253.8040700312178046
 51
289.1865760704280888
  0
ARC
  5
AA93
  8
0
 10
346.2841336331622983
 20
29.269021648491691
 30
0.0
 40
0.0131442569007038
 50
298.2203406181474179
 51
348.3317329985491142
  0
ARC
  5
AA94
  8
0
 10
346.2205557266509004
 20
29.2963931877340684
 30
0.0
 40
0.0395547678708713
 50
98.7731113888312962
 51
125.2544387329154034
  0
ARC
  5
AA95
  8
0
 10
346.199665178882924
 20
29.3259477710000809
 30
0.0
 40
0.0033623877601972
 50
125.2544387329110975
 51
234.3310841961967981
  0
ARC
  5
AA96
  8
0
 10
346.2832060354725172
 20
29.4423403740178316
 30
0.0
 40
0.1466324570593458
 50
234.3310841961967981
 51
238.3175008156532044
  0
ARC
  5
AA97
  8
0
 10
346.6441702560921954
 20
29.3695718284574916
 30
0.0
 40
0.0449314987860406
 50
64.0165038003050029
 51
115.9834961996988056
  0
ARC
  5
AA98
  8
0
 10
346.6441702560921954
 20
29.4515028805063217
 30
0.0
 40
0.0459692663571549
 50
244.6452397025283005
 51
295.354760297475309
  0
ARC
  5
AA99
  8
0
 10
346.5332113345921812
 20
29.3483872374417913
 30
0.0
 40
0.0454119616636591
 50
64.664642328385753
 51
115.6884203746731004
  0
ARC
  5
AA9A
  8
0
 10
346.5329606882144731
 20
29.4297378532408906
 30
0.0
 40
0.0448557113382933
 50
244.3250793924889877
 51
296.027983310565503
  0
ARC
  5
AA9B
  8
0
 10
346.3982297205922123
 20
29.3368153020769213
 30
0.0
 40
0.0456653916845846
 50
64.4644338092115134
 51
115.5355661907887992
  0
ARC
  5
AA9C
  8
0
 10
346.3982297205922123
 20
29.4195612183941897
 30
0.0
 40
0.0459692669787691
 50
244.6452400696695122
 51
295.3547599303337279
  0
ARC
  5
AA9D
  8
0
 10
346.3480370653422256
 20
29.3065105059477418
 30
0.0
 40
0.0456117468430057
 50
64.784339617677233
 51
115.5677637312447956
  0
ARC
  5
AA9E
  8
0
 10
346.3477864191698927
 20
29.3880827072735293
 30
0.0
 40
0.0448557124697646
 50
244.3250797253047892
 51
296.0270236236150936
  0
ARC
  5
AA9F
  8
0
 10
346.2564319579940957
 20
29.2832267958674208
 30
0.0
 40
0.0440180874475836
 50
63.7205850048214728
 51
116.8232393017998021
  0
ARC
  5
AAA0
  8
0
 10
346.2560493140792914
 20
29.3638547358695092
 30
0.0
 40
0.045705255220582
 50
244.7726947552945944
 51
295.7711295513253162
  0
ARC
  5
AAA1
  8
0
 10
346.280258578692326
 20
29.2492125390400517
 30
0.0
 40
0.0459692663572135
 50
64.645239702560886
 51
115.3547602974392987
  0
ARC
  5
AAA2
  8
0
 10
346.280258578692326
 20
29.3317898924753315
 30
0.0
 40
0.0455133530071797
 50
244.3729607378585058
 51
295.6270392621415795
  0
ARC
  5
AAA3
  8
0
 10
346.2560357965468256
 20
29.2170977599514785
 30
0.0
 40
0.0462115128739343
 50
64.5129669317108068
 51
115.2094798721989974
  0
ARC
  5
AAA4
  8
0
 10
346.2562358861922007
 20
29.299707291734709
 30
0.0
 40
0.045386320276288
 50
244.0184549650491874
 51
295.7039918388579167
  0
ARC
  5
AAA5
  8
0
 10
346.7386978382672851
 20
30.396549388681251
 30
0.0
 40
1.2255541479905521
 50
259.9379590228807047
 51
265.1078559734464761
  0
ARC
  5
AAA6
  8
0
 10
346.6230751166751247
 20
29.7449470227941504
 30
0.0
 40
0.5637730233140834
 50
247.2123248995206097
 51
259.9379590228807047
  0
ARC
  5
AAA7
  8
0
 10
346.4369423513147126
 20
29.3018879073033105
 30
0.0
 40
0.0832037919225714
 50
216.9762837883828013
 51
247.2123248995206097
  0
ARC
  5
AAA8
  8
0
 10
346.3965270618372188
 20
29.2714590224150193
 30
0.0
 40
0.032614142199564
 50
179.8728533112962964
 51
216.976283788383796
  0
LINE
  5
AAA9
  8
0
 10
346.3639129999422721
 20
29.2715313973232192
 30
0.0
 11
346.3639129999422721
 21
29.3416769144873584
 31
0.0
  0
ARC
  5
AAAA
  8
0
 10
346.7838963013057878
 20
30.5941867585526701
 30
0.0
 40
1.4101787461397111
 50
263.2496185619285143
 51
270.0921406634232085
  0
ARC
  5
AAAB
  8
0
 10
346.7053405288448857
 20
29.9305102414638
 30
0.0
 40
0.7418692903318947
 50
254.8793605727273928
 51
263.2496185619285143
  0
ARC
  5
AAAC
  8
0
 10
346.5630624708684877
 20
29.4039585449428991
 30
0.0
 40
0.1964339276255719
 50
234.2917518235302907
 51
254.8793605727273928
  0
ARC
  5
AAAD
  8
0
 10
346.4609990586287154
 20
29.2619654166489305
 30
0.0
 40
0.0215654381807063
 50
126.1583800508654036
 51
234.2917518235265959
  0
ARC
  5
AAAE
  8
0
 10
346.5639065828996763
 20
29.1211455980267395
 30
0.0
 40
0.1959792560632322
 50
101.5937248638768011
 51
126.1583800508654036
  0
ARC
  5
AAAF
  8
0
 10
346.7057096234337905
 20
28.585764194657969
 30
0.0
 40
0.7495900135600002
 50
96.3320454209609522
 51
103.9879380415572996
  0
ARC
  5
AAB0
  8
0
 10
346.7723387698368924
 20
28.0673459150923286
 30
0.0
 40
1.2722263488697489
 50
93.0092413731080114
 51
96.7394523726098328
  0
ARC
  5
AAB1
  8
0
 10
346.7848605366714878
 20
27.8574660850638907
 30
0.0
 40
1.482474872213023
 50
91.1224711492394448
 51
93.066690148191185
  0
ARC
  5
AAB2
  8
0
 10
346.7861573988237751
 20
27.8040204167709213
 30
0.0
 40
1.5359357098580431
 50
89.9997503773406748
 51
91.1317834439808223
  0
ARC
  5
AAB3
  8
0
 10
346.7855246760396994
 20
30.5461904445586185
 30
0.0
 40
1.331746749235369
 50
266.2603398270284174
 51
270.0275095478352796
  0
ARC
  5
AAB4
  8
0
 10
346.7695971404718875
 20
30.3832408791763307
 30
0.0
 40
1.1727856897735349
 50
262.8214082997232026
 51
266.5183320703698087
  0
ARC
  5
AAB5
  8
0
 10
346.6777233240745772
 20
29.6896353794751313
 30
0.0
 40
0.4683889609070806
 50
249.5407686087033028
 51
265.103802934779992
  0
ARC
  5
AAB6
  8
0
 10
346.5415973724950049
 20
29.3627142706159106
 30
0.0
 40
0.1227479618760865
 50
233.1460088106375963
 51
249.8430011323677036
  0
ARC
  5
AAB7
  8
0
 10
346.5055447858513276
 20
29.2900450156454291
 30
0.0
 40
0.0305647148258691
 50
200.360266457932596
 51
236.7114176189872126
  0
ARC
  5
AAB8
  8
0
 10
346.4959836680974945
 20
29.2844356615393018
 30
0.0
 40
0.0197441142889618
 50
127.7369712888748978
 51
194.7436741353255911
  0
LINE
  5
AAB9
  8
0
 10
346.4762395538085116
 20
29.2844356615393018
 30
0.0
 11
346.4762395538085116
 21
29.2964235510540085
 31
0.0
  0
LINE
  5
AABA
  8
0
 10
346.4679758600423156
 20
29.2644954585232107
 30
0.0
 11
346.4887691510422201
 21
29.2644954585232107
 31
0.0
  0
LINE
  5
AABB
  8
0
 10
346.4992991917421818
 20
29.2474843871232189
 30
0.0
 11
346.5140022687422743
 21
29.2507918598232202
 31
0.0
  0
LINE
  5
AABC
  8
0
 10
346.6230428784422202
 20
29.2196481143232099
 30
0.0
 11
346.6377459553942799
 21
29.2229555870124393
 31
0.0
  0
LINE
  5
AABD
  8
0
 10
346.6983748293163217
 20
29.2126198232700105
 30
0.0
 11
346.6986792694136739
 21
29.2172783784507999
 31
0.0
  0
LINE
  5
AABE
  8
0
 10
346.6230428784422202
 20
29.2196481143232099
 30
0.0
 11
346.6230428784422202
 21
29.2244491075742197
 31
0.0
  0
LINE
  5
AABF
  8
0
 10
346.4679758600423156
 20
29.2644954585232107
 30
0.0
 11
346.4679758600423156
 21
29.2920407858441685
 31
0.0
  0
LINE
  5
AAC0
  8
0
 10
346.6849744571422889
 20
29.4178865195232184
 30
0.0
 11
346.6946058407423266
 21
29.469875611423209
 31
0.0
  0
LINE
  5
AAC1
  8
0
 10
346.603399880427105
 20
29.4175128505475705
 30
0.0
 11
346.5940858125463819
 21
29.4691684643773506
 31
0.0
  0
LINE
  5
AAC2
  8
0
 10
346.5739817120423254
 20
29.3968620882232194
 30
0.0
 11
346.5832957781461232
 21
29.4485176923750913
 31
0.0
  0
LINE
  5
AAC3
  8
0
 10
346.4924409571422075
 20
29.3968620882232194
 30
0.0
 11
346.4827644947422982
 21
29.4492288372232203
 31
0.0
  0
LINE
  5
AAC4
  8
0
 10
346.4390339216421921
 20
29.3859448568232189
 30
0.0
 11
346.4486653051422991
 21
29.4379339487232095
 31
0.0
  0
LINE
  5
AAC5
  8
0
 10
346.3574531157423166
 20
29.3856073310232198
 30
0.0
 11
346.3477828806422281
 21
29.4379379464232187
 31
0.0
  0
LINE
  5
AAC6
  8
0
 10
346.3074002343922757
 20
29.3561672601232218
 30
0.0
 11
346.2975902254423204
 21
29.4075736901232183
 31
0.0
  0
LINE
  5
AAC7
  8
0
 10
346.2970400872421806
 20
29.3306202740232216
 30
0.0
 11
346.3024952299172128
 21
29.3818704751232183
 31
0.0
  0
LINE
  5
AAC8
  8
0
 10
346.215465508817374
 20
29.3302466143874199
 30
0.0
 11
346.2061530531930202
 21
29.3819925298511002
 31
0.0
  0
LINE
  5
AAC9
  8
0
 10
346.215514681842194
 20
29.267150498873221
 30
0.0
 11
346.2061929462421972
 21
29.3175603213232208
 31
0.0
  0
LINE
  5
AACA
  8
0
 10
346.3210289547134835
 20
29.2983049442136902
 30
0.0
 11
346.3289320698352753
 21
29.3418553076583386
 31
0.0
  0
LINE
  5
AACB
  8
0
 10
346.2395373743423193
 20
29.2990921616232214
 30
0.0
 11
346.23643307413721
 21
29.3172846864531813
 31
0.0
  0
LINE
  5
AACC
  8
0
 10
346.2970062636422881
 20
29.2663632892232215
 30
0.0
 11
346.3005458252819722
 21
29.2856391053723293
 31
0.0
  0
LINE
  5
AACD
  8
0
 10
346.3888347352074106
 20
29.3554166299868911
 30
0.0
 11
346.3899437136544748
 21
29.3712817878702488
 31
0.0
  0
ARC
  5
AACE
  8
0
 10
346.7200146000112113
 20
28.2872518594780402
 30
0.0
 40
1.0644160754427481
 50
94.5895570352869015
 51
102.5977766759791052
  0
ARC
  5
AACF
  8
0
 10
346.5724299209231276
 20
28.9476281278691303
 30
0.0
 40
0.387749205147133
 50
102.5977766759791052
 51
115.6733393566308052
  0
ARC
  5
AAD0
  8
0
 10
346.4353475509220175
 20
29.2328037640239984
 30
0.0
 40
0.0713369430246595
 50
115.6733393566308052
 51
143.6583735019447943
  0
ARC
  5
AAD1
  8
0
 10
346.3954357092745227
 20
29.2621665935423607
 30
0.0
 40
0.0217876659258337
 50
143.6583735019459027
 51
206.8200693760636
  0
ARC
  5
AAD2
  8
0
 10
346.4369507370498127
 20
29.2831555985527103
 30
0.0
 40
0.0683068647850223
 50
206.8200693760632021
 51
228.172032103547707
  0
ARC
  5
AAD3
  8
0
 10
346.7860295853532193
 20
30.4145845610421084
 30
0.0
 40
1.1922666204314489
 50
266.0625630221637152
 51
270.0064638032076232
  0
ARC
  5
AAD4
  8
0
 10
346.7621892097564
 20
30.068216619905801
 30
0.0
 40
0.8450791866790064
 50
258.1123502713003859
 51
266.0625630221637152
  0
ARC
  5
AAD5
  8
0
 10
346.6337153734688172
 20
29.457912619994449
 30
0.0
 40
0.2213993818767066
 50
240.0709210472423933
 51
258.1123502713003859
  0
ARC
  5
AAD6
  8
0
 10
346.5357160388134048
 20
29.2876865339302199
 30
0.0
 40
0.0249794491569355
 50
209.981995058747998
 51
240.0709210472419102
  0
ARC
  5
AAD7
  8
0
 10
346.5295295076094249
 20
29.2841173301236317
 30
0.0
 40
0.0178371537170063
 50
137.2098316218090019
 51
209.9819950587487938
  0
ARC
  5
AAD8
  8
0
 10
346.5784850709749207
 20
29.2285343209868707
 30
0.0
 40
0.0918309156537293
 50
108.5662175001449015
 51
132.5044242091545073
  0
ARC
  5
AAD9
  8
0
 10
346.6666896542362224
 20
29.0008149403479401
 30
0.0
 40
0.3359670023108869
 50
106.0974995297070933
 51
110.4609441589006025
  0
ARC
  5
AADA
  8
0
 10
346.7860879649314256
 20
30.4423052560199494
 30
0.0
 40
1.195628058638706
 50
266.1978303625415947
 51
270.0036480185599999
  0
ARC
  5
AADB
  8
0
 10
346.7658744946369893
 20
30.1381510217577997
 30
0.0
 40
0.8908028913691177
 50
259.6094253229875903
 51
266.1978303625415947
  0
ARC
  5
AADC
  8
0
 10
346.6670252364194766
 20
29.5990643226061891
 30
0.0
 40
0.3427284027707691
 50
249.2388929952630008
 51
259.6094253229875903
  0
ARC
  5
AADD
  8
0
 10
346.5787264664506893
 20
29.3661400002502688
 30
0.0
 40
0.0936292001968533
 50
228.2986029164491129
 51
249.2388929952630008
  0
ARC
  5
AADE
  8
0
 10
346.7858320702152923
 20
29.2974153640707904
 30
0.0
 40
0.1277163798000517
 50
260.0420721111786975
 51
270.1489502132826033
  0
ARC
  5
AADF
  8
0
 10
346.7705777906841149
 20
29.2105310231212698
 30
0.0
 40
0.0395031055934529
 50
242.5988086824586105
 51
260.0420721111786975
  0
ARC
  5
AAE0
  8
0
 10
346.7859441208231033
 20
29.2489615384024688
 30
0.0
 40
0.0764401272049495
 50
261.4035141970661016
 51
270.1648787295291072
  0
ARC
  5
AAE1
  8
0
 10
346.7779519074646259
 20
29.1960935592429394
 30
0.0
 40
0.0229714569879062
 50
243.9262119235380055
 51
261.4035141970661016
  0
ARC
  5
AAE2
  8
0
 10
346.7899150021250989
 20
31.1878906937059384
 30
0.0
 40
1.7020350921468981
 50
266.3533280002880019
 51
269.8737325799909854
  0
ARC
  5
AAE3
  8
0
 10
346.6469868994332728
 20
29.2384264735022015
 30
0.0
 40
0.2532600026908274
 50
82.1311626171502951
 51
106.5988315116686067
  0
ARC
  5
AAE4
  8
0
 10
346.3785761002280879
 20
30.3746100909945618
 30
0.0
 40
0.9147361535349546
 50
272.268551294108704
 51
282.3766661285304167
  0
ARC
  5
AAE5
  8
0
 10
346.4436109419536933
 20
28.7329127626893097
 30
0.0
 40
0.7282488276510807
 50
92.268551294108704
 51
96.74414388330527
  0
ARC
  5
AAE6
  8
0
 10
346.3643134028001782
 20
29.4034814662649495
 30
0.0
 40
0.053007770005058
 50
96.74414388330527
 51
119.0323126414305932
  0
ARC
  5
AAE7
  8
0
 10
346.3440676738619004
 20
29.4399571993492088
 30
0.0
 40
0.0112900442247563
 50
119.0323126414345012
 51
148.0520277810817049
  0
ARC
  5
AAE8
  8
0
 10
346.2434103566862973
 20
29.5517254905260209
 30
0.0
 40
0.1395976297706663
 50
284.7059715698222817
 51
310.7249059343403133
  0
ARC
  5
AAE9
  8
0
 10
346.0362976809947781
 20
30.2142787335070402
 30
0.0
 40
0.8336433731647929
 50
281.5345240952491963
 51
286.9149989419299231
  0
ARC
  5
AAEA
  8
0
 10
346.2086949151810131
 20
29.3775481053951211
 30
0.0
 40
0.0207234329491432
 50
105.9744596988274026
 51
133.0858034717942928
  0
ARC
  5
AAEB
  8
0
 10
346.1973494136029785
 20
29.3897553061525691
 30
0.0
 40
0.0040584400464663
 50
133.8294535910129923
 51
238.6910326469779022
  0
ARC
  5
AAEC
  8
0
 10
346.1289075366104271
 20
29.2882002979416001
 30
0.0
 40
0.1184112507155155
 50
48.7276369395685478
 51
55.9310038953925925
  0
ARC
  5
AAED
  8
0
 10
346.6890313538204964
 20
29.0063864808822913
 30
0.0
 40
0.4578652106136127
 50
84.062476582532625
 51
89.4333134402046568
  0
ARC
  5
AAEE
  8
0
 10
346.7255547704589844
 20
25.7698546413481395
 30
0.0
 40
3.678814842492748
 50
89.7940798962768554
 51
90.5436868631059752
  0
ARC
  5
AAEF
  8
0
 10
346.7183417391378839
 20
11.5059145067393693
 30
0.0
 40
17.9309864400497716
 50
89.9278990356653054
 51
90.0953790533434358
  0
ARC
  5
AAF0
  8
0
 10
346.7487338267952737
 20
28.0585866202199696
 30
0.0
 40
1.3950510799571021
 50
96.1883203155366715
 51
96.8467041335445344
  0
ARC
  5
AAF1
  8
0
 10
346.7475521459371066
 20
28.0966610286671994
 30
0.0
 40
1.345135035655711
 50
96.2772516403448151
 51
97.1468802300584287
  0
ARC
  5
AAF2
  8
0
 10
346.4941154515746007
 20
29.7019308048808917
 30
0.0
 40
0.2693231294983749
 50
289.3061448403295799
 51
292.4572822429714165
  0
ARC
  5
AAF3
  8
0
 10
346.6159943089292028
 20
28.8387026779237807
 30
0.0
 40
0.5910229130949441
 50
102.4157210376409068
 51
107.089824420894999
  0
ARC
  5
AAF4
  8
0
 10
346.6176171739447227
 20
28.8132804212372804
 30
0.0
 40
0.6285564577737082
 50
102.0237143271727973
 51
105.948541543310796
  0
ARC
  5
AAF5
  8
0
 10
346.5184960229187823
 20
29.0376370831830393
 30
0.0
 40
0.4048434674045458
 50
94.8483555017785278
 51
99.9743779808244
  0
ARC
  5
AAF6
  8
0
 10
346.3480956240720161
 20
29.0539792095996496
 30
0.0
 40
0.2604510817161097
 50
86.5182448575897638
 51
95.363927842508815
  0
ARC
  5
AAF7
  8
0
 10
346.3559186904967078
 20
28.5967065169961003
 30
0.0
 40
0.7072368350684552
 50
89.3523386746282
 51
92.7567446461422662
  0
ARC
  5
AAF8
  8
0
 10
346.3770227145449212
 20
29.4558407567732701
 30
0.0
 40
0.1409062620127497
 50
248.6816857918703931
 51
264.6615629193054247
  0
ARC
  5
AAF9
  8
0
 10
346.1639436771382066
 20
29.3833185256602683
 30
0.0
 40
0.0620634793120784
 50
300.7428389493070995
 51
321.9275673474650148
  0
ARC
  5
AAFA
  8
0
 10
346.1980489580577114
 20
29.3259763934036286
 30
0.0
 40
0.0046545116523654
 50
120.7428389493179992
 51
225.1450547731641905
  0
ARC
  5
AAFB
  8
0
 10
346.214000825049709
 20
29.34849907833636
 30
0.0
 40
0.0321988242600042
 50
233.3178998985634962
 51
256.0727817094497141
  0
ARC
  5
AAFC
  8
0
 10
346.371803157740203
 20
29.2484239337111411
 30
0.0
 40
0.0190864594197381
 50
279.8610620179231887
 51
319.0947214908741216
  0
ARC
  5
AAFD
  8
0
 10
346.3488629861648747
 20
29.3408330710402083
 30
0.0
 40
0.114260117947747
 50
253.2585340838340926
 51
283.2605337852082812
  0
ARC
  5
AAFE
  8
0
 10
346.3210848769388122
 20
29.2445837378564093
 30
0.0
 40
0.01413358248726
 50
191.4558727486939915
 51
248.6961185450190897
  0
ARC
  5
AAFF
  8
0
 10
346.3720637518226795
 20
29.2147334455626684
 30
0.0
 40
0.0150645229003743
 50
194.1972553524084901
 51
256.740201768455222
  0
ARC
  5
AB00
  8
0
 10
346.3974928412595773
 20
29.3226442073721714
 30
0.0
 40
0.1259309790712916
 50
256.740201768455222
 51
285.1200173341617869
  0
ARC
  5
AB01
  8
0
 10
346.4272157428109153
 20
29.2126390577148811
 30
0.0
 40
0.0119810610030848
 50
285.1200173341617869
 51
356.9866324192091156
  0
ARC
  5
AB02
  8
0
 10
346.3978385000542062
 20
29.2445075748297292
 30
0.0
 40
0.0454497981725439
 50
244.8941683334786887
 51
296.1746767668407756
  0
ARC
  5
AB03
  8
0
 10
346.3986100320984178
 20
29.1617935353509594
 30
0.0
 40
0.0461443095218157
 50
65.307371092064642
 51
115.7614740082544955
  0
ARC
  5
AB04
  8
0
 10
346.3476958728211912
 20
29.1907937676275502
 30
0.0
 40
0.0474872744412276
 50
65.0569090144980748
 51
114.4804272223185961
  0
ARC
  5
AB05
  8
0
 10
346.3480370653422256
 20
29.2752991332498489
 30
0.0
 40
0.045884474332302
 50
244.13239257853661
 51
295.404943658277773
  0
LINE
  5
AB06
  8
0
 10
346.3546195737624203
 20
29.2267180577743488
 30
0.0
 11
346.3574593431422954
 21
29.2110387064232206
 31
0.0
  0
LINE
  5
AB07
  8
0
 10
346.2998958916865035
 20
29.2820996838926995
 30
0.0
 11
346.3072328642422235
 21
29.2417766222232203
 31
0.0
  0
ARC
  5
AB08
  8
0
 10
346.6166947058086976
 20
29.181969606184861
 30
0.0
 40
0.0136203352774403
 50
194.8805888655242882
 51
248.0771084422650006
  0
ARC
  5
AB09
  8
0
 10
346.6443190599413242
 20
29.2871030304656195
 30
0.0
 40
0.1222269106859437
 50
254.4776702132091941
 51
285.1533259505285969
  0
ARC
  5
AB0A
  8
0
 10
346.6709853367914889
 20
29.1825037937369096
 30
0.0
 40
0.0143836263296788
 50
291.5538877214692093
 51
330.6782405074044959
  0
ARC
  5
AB0B
  8
0
 10
346.6441056199557806
 20
29.2127916483087802
 30
0.0
 40
0.0457303595083188
 50
244.5959593078997898
 51
295.5864397325844948
  0
ARC
  5
AB0C
  8
0
 10
346.6442187515486921
 20
29.1417171809351991
 30
0.0
 40
0.0357119475046135
 50
56.6426440253679218
 51
70.8842639745700325
  0
ARC
  5
AB0D
  8
0
 10
346.6442187515486921
 20
29.1417171809351991
 30
0.0
 40
0.0357119475046135
 50
108.5489246493582982
 51
123.5397550151143946
  0
ARC
  5
AB0E
  8
0
 10
346.508119890418925
 20
29.20537499903444
 30
0.0
 40
0.0171598586177599
 50
212.1437744741552933
 51
252.2711534077234035
  0
ARC
  5
AB0F
  8
0
 10
346.532371914007399
 20
29.281234747323829
 30
0.0
 40
0.0968019458497431
 50
252.2711534077234035
 51
279.6974330876457771
  0
ARC
  5
AB10
  8
0
 10
346.5195026287373139
 20
29.197253990977611
 30
0.0
 40
0.0080143340475093
 50
221.7151587613323898
 51
259.5550216736372136
  0
ARC
  5
AB11
  8
0
 10
346.5347678727902121
 20
29.2800615933970114
 30
0.0
 40
0.0922172241074387
 50
259.5550216736372136
 51
270.8382494533182125
  0
ARC
  5
AB12
  8
0
 10
346.6471939445120825
 20
30.9102573443478192
 30
0.0
 40
1.7202452058391371
 50
262.9008574943651979
 51
264.7340272893670772
  0
LINE
  5
AB13
  8
0
 10
346.2349830848423267
 20
29.2091085907148518
 30
0.0
 11
346.2349830848423267
 21
25.171553385723211
 31
0.0
  0
ARC
  5
AB14
  8
0
 10
346.7822436765296743
 20
29.7084165214216185
 30
0.0
 40
0.1973233155085806
 50
260.7067236426394743
 51
266.6399183977023881
  0
ARC
  5
AB15
  8
0
 10
346.7865378651490005
 20
29.7815566387505015
 30
0.0
 40
0.2705893841814647
 50
266.6399183977023881
 51
269.9208552944692769
  0
ARC
  5
AB16
  8
0
 10
346.8035204205630748
 20
25.2772953067371091
 30
0.0
 40
4.25329988381079
 50
90.2338060446103327
 51
92.7912467750801966
  0
ARC
  5
AB17
  8
0
 10
346.742001785672926
 20
26.7757395451994888
 30
0.0
 40
2.7536617481329571
 50
93.0310362306502441
 51
100.9462473888711003
  0
ARC
  5
AB18
  8
0
 10
346.3774055522105186
 20
28.6608650125461004
 30
0.0
 40
0.8336022591863848
 50
100.9462473888711003
 51
112.2773405447966013
  0
ARC
  5
AB19
  8
0
 10
346.1725036795842243
 20
29.1610307390313217
 30
0.0
 40
0.2930927483022318
 50
112.2773405447966013
 51
127.2712154478304001
  0
ARC
  5
AB1A
  8
0
 10
346.0439214843199238
 20
29.3299950225249901
 30
0.0
 40
0.0807667959658957
 50
127.2712154478304001
 51
157.7085004179104999
  0
ARC
  5
AB1B
  8
0
 10
346.0140761802741736
 20
29.3460565119072712
 30
0.0
 40
0.0471925025317951
 50
162.0107269111412904
 51
220.7503593089724063
  0
ARC
  5
AB1C
  8
0
 10
346.175766090802199
 20
29.5130547803289609
 30
0.0
 40
0.2794805117577374
 50
225.0525858022033105
 51
244.1554997295297085
  0
LINE
  5
AB1D
  8
0
 10
346.6341821995774808
 20
29.1754599362142706
 30
0.0
 11
346.9381459814069899
 21
29.1754599362142706
 31
0.0
  0
LINE
  5
AB1E
  8
0
 10
346.6348429570829808
 20
29.3482548627263107
 30
0.0
 11
346.9374852239014899
 21
29.3482548627263107
 31
0.0
  0
ARC
  5
AB1F
  8
0
 10
346.7856759076416893
 20
29.4439287177597286
 30
0.0
 40
0.0438017541625453
 50
244.0066489288761034
 51
270.6385907735764818
  0
ARC
  5
AB20
  8
0
 10
346.7853089142241174
 20
29.3668182306348697
 30
0.0
 40
0.0421762237775413
 50
88.8381760021443654
 51
116.5165839282596068
  0
ARC
  5
AB21
  8
0
 10
346.7861809289864254
 20
32.7740612035261378
 30
0.0
 40
3.6123919148374788
 50
269.9997329263616166
 51
272.7487978347812145
  0
ARC
  5
AB22
  8
0
 10
346.8167556625591033
 20
32.1355430009683829
 30
0.0
 40
2.973142119243942
 50
272.7503775369888785
 51
279.0148385325235836
  0
ARC
  5
AB23
  8
0
 10
347.0938400518318758
 20
30.3890285795001098
 30
0.0
 40
1.2047845809685509
 50
279.0148385325235836
 51
290.6336697862683991
  0
ARC
  5
AB24
  8
0
 10
347.4278794525757235
 20
29.50191438070404
 30
0.0
 40
0.2568637388330812
 50
290.6336697862686265
 51
313.5937071167999761
  0
ARC
  5
AB25
  8
0
 10
347.5492624592528728
 20
29.3744216307408514
 30
0.0
 40
0.0808289820286622
 50
313.5937071167999761
 51
3.7434174433438452
  0
ARC
  5
AB26
  8
0
 10
346.7867691434062181
 20
26.3504467070584916
 30
0.0
 40
3.163432061154881
 50
85.544293094234817
 51
90.0109586606868532
  0
ARC
  5
AB27
  8
0
 10
346.872406898454301
 20
27.4494387898441587
 30
0.0
 40
2.0611084139825651
 50
76.4336497540052022
 51
85.544293094234817
  0
ARC
  5
AB28
  8
0
 10
347.2500371814139726
 20
29.0143961703320308
 30
0.0
 40
0.451233812235074
 50
58.1462465101555921
 51
76.4336497540052022
  0
ARC
  5
AB29
  8
0
 10
347.4457615570721032
 20
29.3294069986146795
 30
0.0
 40
0.0803701537808212
 50
27.0613951506674084
 51
58.1462465101555921
  0
ARC
  5
AB2A
  8
0
 10
347.4822639882887074
 20
29.348055211961789
 30
0.0
 40
0.039380114188756
 50
321.1096032947327217
 51
27.0613951506670496
  0
ARC
  5
AB2B
  8
0
 10
347.3689093028846742
 20
29.45347550873187
 30
0.0
 40
0.1941013543468164
 50
291.938556984776028
 51
317.8945486769395075
  0
ARC
  5
AB2C
  8
0
 10
347.1057579076983188
 20
30.1071811137185108
 30
0.0
 40
0.8987854472035699
 50
277.0204436342468739
 51
291.929822621374683
  0
ARC
  5
AB2D
  8
0
 10
347.140459717931094
 20
29.9878081557373086
 30
0.0
 40
0.7603410648086955
 50
285.9133442514569765
 51
292.7020552939953859
  0
ARC
  5
AB2E
  8
0
 10
347.140459717931094
 20
29.9878081557373086
 30
0.0
 40
0.7603410648086955
 50
279.3098990296659849
 51
285.1092280942062871
  0
ARC
  5
AB2F
  8
0
 10
347.3501708215014787
 20
29.4865281349019916
 30
0.0
 40
0.2169623697447235
 50
292.7020552939953859
 51
311.3551711030850129
  0
ARC
  5
AB30
  8
0
 10
347.4571224385031769
 20
29.3650238263423304
 30
0.0
 40
0.0550922200016556
 50
311.3551711030879119
 51
348.2969667453415923
  0
ARC
  5
AB31
  8
0
 10
347.4718301898111008
 20
29.361977185436519
 30
0.0
 40
0.040072234337882
 50
348.2969667453418197
 51
29.9377675620037209
  0
ARC
  5
AB32
  8
0
 10
347.1985820389875812
 20
29.7826500025892393
 30
0.0
 40
0.5474607620913888
 50
289.6994243364256931
 51
298.216490158009492
  0
ARC
  5
AB33
  8
0
 10
347.4002674166038105
 20
29.4029536492200982
 30
0.0
 40
0.1175408141687266
 50
299.0956587604442234
 51
330.0520496012726994
  0
ARC
  5
AB34
  8
0
 10
347.4674035537680084
 20
29.3580333405161689
 30
0.0
 40
0.0373375582564505
 50
338.3789894537983969
 51
28.5630708206843593
  0
ARC
  5
AB35
  8
0
 10
347.3570146853854226
 20
29.2676198469543287
 30
0.0
 40
0.1795064023895824
 50
37.094337604891841
 51
53.2527630436687076
  0
LINE
  5
AB36
  8
0
 10
347.5047411120244192
 20
29.3580333405161689
 30
0.0
 11
347.5047411120244192
 21
29.3840034611042888
 31
0.0
  0
ARC
  5
AB37
  8
0
 10
346.7706231988028094
 20
29.7397419711016795
 30
0.0
 40
2.7266640049058459
 50
85.3735920595034656
 51
89.6734352589344752
  0
ARC
  5
AB38
  8
0
 10
346.8570019767417989
 20
30.9330200467289806
 30
0.0
 40
1.530340352847041
 50
77.307177255874592
 51
84.993556181450586
  0
ARC
  5
AB39
  8
0
 10
347.0949958241131981
 20
31.9896992038740109
 30
0.0
 40
0.4471912806822646
 50
62.498162739063261
 51
77.307177255874592
  0
ARC
  5
AB3A
  8
0
 10
347.2623030760253187
 20
32.3110682836762777
 30
0.0
 40
0.0848795337082898
 50
34.2771296949057529
 51
62.4981627390634387
  0
ARC
  5
AB3B
  8
0
 10
347.3056528222019779
 20
32.3419313473412302
 30
0.0
 40
0.0316953669535387
 50
0.8004499096318419
 51
32.3091499704357688
  0
ARC
  5
AB3C
  8
0
 10
347.2988167456970245
 20
32.3436698210410185
 30
0.0
 40
0.0385501309528969
 50
346.0489518355906853
 51
358.0738985843901219
  0
ARC
  5
AB3D
  8
0
 10
346.7856727850091829
 20
30.1621095550698612
 30
0.0
 40
2.2993197426300029
 50
85.0241396834910574
 51
89.9877573656601442
  0
ARC
  5
AB3E
  8
0
 10
346.8508546647948947
 20
30.9324265964246088
 30
0.0
 40
1.526253310600171
 50
78.3080443358732765
 51
84.9536390923943259
  0
ARC
  5
AB3F
  8
0
 10
347.0432750210467248
 20
31.8622467545319914
 30
0.0
 40
0.5767317890310809
 50
66.371930249168301
 51
78.3080443358732765
  0
ARC
  5
AB40
  8
0
 10
347.2136074118416786
 20
32.2516021383242588
 30
0.0
 40
0.1517485679011427
 50
45.5748221317664317
 51
66.371930249168301
  0
ARC
  5
AB41
  8
0
 10
347.2722635713716954
 20
32.3114472059033702
 30
0.0
 40
0.0679513294958801
 50
6.685810729917101
 51
45.5748221317663607
  0
ARC
  5
AB42
  8
0
 10
347.2585494068260914
 20
32.3182707934139515
 30
0.0
 40
0.0737806341293537
 50
35.6077150462377929
 51
57.1013220626017173
  0
ARC
  5
AB43
  8
0
 10
347.1551348922548073
 20
32.1584082041767232
 30
0.0
 40
0.2641765617686899
 50
57.1013220626047229
 51
75.9253103097965862
  0
ARC
  5
AB44
  8
0
 10
346.9185882878376219
 20
31.3501756342694513
 30
0.0
 40
1.1061597649705399
 50
74.221243951761366
 51
84.6300663574170358
  0
ARC
  5
AB45
  8
0
 10
346.7928978240623792
 20
30.2976034321340002
 30
0.0
 40
2.1660390434809642
 50
83.9255573938062156
 51
89.3817975258433961
  0
ARC
  5
AB46
  8
0
 10
346.7861794686410235
 20
30.0704335269668093
 30
0.0
 40
2.3932720167010171
 50
89.2796458021799282
 51
90.0003681583256991
  0
LINE
  5
AB47
  8
0
 10
347.6299189870421742
 20
29.3796988327232214
 30
0.0
 11
347.3397527987028184
 21
32.3193584241731529
 31
0.0
  0
LINE
  5
AB48
  8
0
 10
346.8268927806234956
 20
29.4118787602626703
 30
0.0
 11
346.8363313537802242
 21
29.4639923948944684
 31
0.0
  0
ARC
  5
AB49
  8
0
 10
346.786342553286886
 20
29.5359472737604101
 30
0.0
 40
0.1386400003519032
 50
269.9262466262911744
 51
275.6571153683719899
  0
ARC
  5
AB4A
  8
0
 10
346.7914517655775057
 20
29.4843689690743815
 30
0.0
 40
0.0868092607805264
 50
275.6571153683719899
 51
284.5745946750496955
  0
ARC
  5
AB4B
  8
0
 10
346.8067209843173941
 20
29.4256427975755486
 30
0.0
 40
0.026130497940176
 50
284.5745946750465123
 51
308.4064325579693104
  0
ARC
  5
AB4C
  8
0
 10
346.8149890463064935
 20
29.4143516768909485
 30
0.0
 40
0.0121578866311792
 50
310.9303907213758862
 51
348.2641354440243049
  0
ARC
  5
AB4D
  8
0
 10
346.7876794194201011
 20
29.2671970572726501
 30
0.0
 40
0.2179445567717036
 50
80.3125707276774961
 51
90.3983703606365765
  0
ARC
  5
AB4E
  8
0
 10
346.813734210160078
 20
29.4198254832674699
 30
0.0
 40
0.063108228533919
 50
61.776512681092818
 51
80.3125707276775103
  0
ARC
  5
AB4F
  8
0
 10
346.8416079749700884
 20
29.4717587047345191
 30
0.0
 40
0.0041675273451206
 50
319.3424004826164264
 51
61.7765126810967473
  0
ARC
  5
AB50
  8
0
 10
346.8094923948576138
 20
29.5184032184102207
 30
0.0
 40
0.0606701527253331
 50
296.2555140577969723
 51
305.5531447916040975
  0
ARC
  5
AB51
  8
0
 10
346.9335111903903908
 20
29.3280483330661816
 30
0.0
 40
0.1625948505895349
 50
73.6787069315497547
 51
92.0438109334395023
  0
ARC
  5
AB52
  8
0
 10
346.9742277691840968
 20
29.4670963272723085
 30
0.0
 40
0.0177080517381229
 50
42.3513095818528171
 51
73.6787069315498258
  0
ARC
  5
AB53
  8
0
 10
346.985041191192181
 20
29.4769535001161316
 30
0.0
 40
0.0030761020389527
 50
301.9405711501129872
 51
42.3513095818473886
  0
ARC
  5
AB54
  8
0
 10
346.5982392481055854
 20
30.0973970910032911
 30
0.0
 40
0.734216302444111
 50
301.168917316858483
 51
301.9405711501129872
  0
ARC
  5
AB55
  8
0
 10
346.9254108077823844
 20
29.2948275240049405
 30
0.0
 40
0.1957257585156047
 50
89.3262097270621638
 51
102.5163921587480047
  0
ARC
  5
AB56
  8
0
 10
346.8906235575556138
 20
29.4515304915769107
 30
0.0
 40
0.035207931392873
 50
102.5163921587481042
 51
126.7753982403518052
  0
ARC
  5
AB57
  8
0
 10
346.8720913050598256
 20
29.4770525462002801
 30
0.0
 40
0.0036959129098331
 50
133.5411242941389105
 51
234.158073911532
  0
ARC
  5
AB58
  8
0
 10
347.011549441505224
 20
29.7287504363422315
 30
0.0
 40
0.2914204316949667
 50
240.9237999653219902
 51
242.6629893493660006
  0
ARC
  5
AB59
  8
0
 10
346.9558890856200151
 20
29.42021545323243
 30
0.0
 40
0.0133163503805653
 50
293.9684193860405799
 51
348.2902627862864051
  0
ARC
  5
AB5A
  8
0
 10
346.9289534265988095
 20
29.5031173997510905
 30
0.0
 40
0.1004217156720116
 50
248.8775292005232984
 51
288.7895895363599266
  0
ARC
  5
AB5B
  8
0
 10
346.8996123796973734
 20
29.4197869866091999
 30
0.0
 40
0.0124050964735796
 50
188.8124465264835976
 51
236.4980080539625931
  0
ARC
  5
AB5C
  8
0
 10
347.0672369074259791
 20
29.3993429130401402
 30
0.0
 40
0.0128912760114064
 50
297.0827749419419774
 51
348.904660544194428
  0
ARC
  5
AB5D
  8
0
 10
347.0545989095679147
 20
29.4240580456403187
 30
0.0
 40
0.0406501803360668
 50
281.5450282213305968
 51
297.0827749419419774
  0
ARC
  5
AB5E
  8
0
 10
347.0402182405831013
 20
29.4944580507493797
 30
0.0
 40
0.1125039510082288
 50
252.5629722467180898
 51
281.5450282213305968
  0
ARC
  5
AB5F
  8
0
 10
347.0117253509328066
 20
29.3997845562646098
 30
0.0
 40
0.0136943529518704
 50
192.3220745318276101
 51
247.5943835393364054
  0
ARC
  5
AB60
  8
0
 10
347.0813410474224838
 20
29.473879177256439
 30
0.0
 40
0.0259855931799542
 50
288.4472040277145197
 51
308.0616203947710119
  0
ARC
  5
AB61
  8
0
 10
347.0950177849196052
 20
29.4564125043467016
 30
0.0
 40
0.003801413882487
 50
308.0616203947668055
 51
31.0816691887924605
  0
ARC
  5
AB62
  8
0
 10
347.037670396498811
 20
29.3045587322890313
 30
0.0
 40
0.1653244658715641
 50
68.4957452417265671
 51
109.8422736042527958
  0
ARC
  5
AB63
  8
0
 10
346.9834614234745231
 20
29.4565136720486613
 30
0.0
 40
0.0040337901648259
 50
118.2205379611489064
 51
209.7775425696914056
  0
ARC
  5
AB64
  8
0
 10
346.9986585563510744
 20
29.4729538799825086
 30
0.0
 40
0.0262638553193496
 50
224.606980689130495
 51
248.4990191649075939
  0
ARC
  5
AB65
  8
0
 10
347.1273096245337229
 20
29.4537885310324796
 30
0.0
 40
0.016268575728054
 50
220.5160801836001951
 51
257.0465670197011718
  0
ARC
  5
AB66
  8
0
 10
347.1173264270693721
 20
29.4452572281434399
 30
0.0
 40
0.0031366542923002
 50
125.5240691776333932
 51
220.5160801835945108
  0
ARC
  5
AB67
  8
0
 10
347.1741080714288046
 20
29.2948620415620411
 30
0.0
 40
0.1637911686565482
 50
69.0445606646519252
 51
110.9650358858699946
  0
ARC
  5
AB68
  8
0
 10
347.2307742839169009
 20
29.4451402905831294
 30
0.0
 40
0.0032919991734659
 50
304.1645577059817924
 51
54.4855273728940332
  0
ARC
  5
AB69
  8
0
 10
347.2037852567685263
 20
29.4849063288907693
 30
0.0
 40
0.0513518097130274
 50
293.8454475696800046
 51
304.1645577059813945
  0
ARC
  5
AB6A
  8
0
 10
347.1749511837668933
 20
29.4776230947085516
 30
0.0
 40
0.1066007844464822
 50
250.3333491632295988
 51
287.4064726660081988
  0
ARC
  5
AB6B
  8
0
 10
347.2016587666934129
 20
29.3883724714259102
 30
0.0
 40
0.0135024645446218
 50
292.5676342708724178
 51
348.1829209440292061
  0
ARC
  5
AB6C
  8
0
 10
347.1456352616464756
 20
29.387869266328611
 30
0.0
 40
0.0124901437068723
 50
188.8631096595455006
 51
238.3158573350036136
  0
ARC
  5
AB6D
  8
0
 10
347.2281400568161871
 20
29.27820132722821
 30
0.0
 40
0.1500254961084284
 50
68.901986654181016
 51
92.0655325353491065
  0
ARC
  5
AB6E
  8
0
 10
347.2800796716530272
 20
29.4148070866410301
 30
0.0
 40
0.0039459284491498
 50
304.4399826453080777
 51
58.457590551812217
  0
ARC
  5
AB6F
  8
0
 10
347.2674085696439761
 20
29.4307200109534612
 30
0.0
 40
0.0242790458136671
 50
287.5706235202649168
 51
307.8654191096799764
  0
ARC
  5
AB70
  8
0
 10
347.3161538700948086
 20
29.1773832910910116
 30
0.0
 40
0.2260188193168053
 50
84.2922982763962949
 51
100.9672878714206945
  0
ARC
  5
AB71
  8
0
 10
347.3263130056333239
 20
29.2790264530636399
 30
0.0
 40
0.1238692211252968
 50
67.5840504564008029
 51
84.2922982763962949
  0
ARC
  5
AB72
  8
0
 10
347.3716910038197057
 20
29.3897952713966006
 30
0.0
 40
0.0041762948647519
 50
293.3024391204390895
 51
63.6024042722691121
  0
ARC
  5
AB73
  8
0
 10
347.3049699330218232
 20
29.5010401238163311
 30
0.0
 40
0.1338596484968709
 50
297.2087719939863746
 51
300.7159571909908777
  0
ARC
  5
AB74
  8
0
 10
347.2513250203338089
 20
29.3579070410641592
 30
0.0
 40
0.0137137318230415
 50
287.379147265120821
 51
352.7115790969780846
  0
ARC
  5
AB75
  8
0
 10
347.2254009238711205
 20
29.4407365636098604
 30
0.0
 40
0.1005053707207835
 50
248.7832544614151118
 51
287.379147265120821
  0
ARC
  5
AB76
  8
0
 10
347.1959641662976992
 20
29.3576443926001396
 30
0.0
 40
0.0126681410066569
 50
190.1284483292662912
 51
236.8041592933982997
  0
ARC
  5
AB77
  8
0
 10
347.3427099061804029
 20
29.3336146766901003
 30
0.0
 40
0.014548011161354
 50
284.8801497441530159
 51
346.6138004496825147
  0
ARC
  5
AB78
  8
0
 10
347.3174456727019788
 20
29.4286972026490901
 30
0.0
 40
0.1129297586351241
 50
251.4190021674012883
 51
284.8801497441530159
  0
ARC
  5
AB79
  8
0
 10
347.2876889615741902
 20
29.3325498500846606
 30
0.0
 40
0.0125500911057666
 50
188.8443054916942003
 51
240.2488146465184116
  0
ARC
  5
AB7A
  8
0
 10
347.3182794040735075
 20
29.3017266534013814
 30
0.0
 40
0.0147486050676438
 50
284.9936012180098146
 51
349.71023217074071
  0
ARC
  5
AB7B
  8
0
 10
347.2929187793499182
 20
29.3964160917113411
 30
0.0
 40
0.1127753922935184
 50
252.3439358482843886
 51
284.9936012180098146
  0
ARC
  5
AB7C
  8
0
 10
347.2648785627764028
 20
29.3014559351269206
 30
0.0
 40
0.0139401263861639
 50
193.0638926789960124
 51
243.7533196737581136
  0
ARC
  5
AB7D
  8
0
 10
347.3427643287997171
 20
29.2694326508877687
 30
0.0
 40
0.0142333202426693
 50
285.9987293009431824
 51
350.7734440831317784
  0
ARC
  5
AB7E
  8
0
 10
347.3169809933287979
 20
29.3580273767238005
 30
0.0
 40
0.1065035097767668
 50
250.8134239295719965
 51
286.1959299687820817
  0
ARC
  5
AB7F
  8
0
 10
347.2881945478221155
 20
29.269021648491691
 30
0.0
 40
0.0131442569007038
 50
191.6682670014504879
 51
241.7796593818526105
  0
ARC
  5
AB80
  8
0
 10
347.3517724543336271
 20
29.2963931877340684
 30
0.0
 40
0.0395547678708713
 50
54.7455612670846108
 51
81.2268886111687465
  0
ARC
  5
AB81
  8
0
 10
347.3726630021016035
 20
29.3259477710000809
 30
0.0
 40
0.0033623877601972
 50
305.6689158038030882
 51
54.7455612670889167
  0
ARC
  5
AB82
  8
0
 10
347.2891221455120103
 20
29.4423403740178316
 30
0.0
 40
0.1466324570593458
 50
301.6824991843467956
 51
305.6689158038030882
  0
ARC
  5
AB83
  8
0
 10
346.9281579248922185
 20
29.3695718284574916
 30
0.0
 40
0.0449314987860406
 50
64.016503800301237
 51
115.9834961996948977
  0
ARC
  5
AB84
  8
0
 10
346.9281579248922753
 20
29.4515028805063217
 30
0.0
 40
0.0459692663571549
 50
244.6452397025246057
 51
295.3547602974717279
  0
ARC
  5
AB85
  8
0
 10
347.0391168463922895
 20
29.3483872374417913
 30
0.0
 40
0.0454119616636591
 50
64.3115796253268286
 51
115.3353576716142044
  0
ARC
  5
AB86
  8
0
 10
347.0393674927699976
 20
29.4297378532408906
 30
0.0
 40
0.0448557113382933
 50
243.972016689434497
 51
295.6749206075110123
  0
ARC
  5
AB87
  8
0
 10
347.1740984603922016
 20
29.3368153020769213
 30
0.0
 40
0.0456653916845846
 50
64.4644338092112008
 51
115.5355661907885008
  0
ARC
  5
AB88
  8
0
 10
347.1740984603922016
 20
29.4195612183941897
 30
0.0
 40
0.0459692669787691
 50
244.6452400696663005
 51
295.3547599303304878
  0
ARC
  5
AB89
  8
0
 10
347.2242911156421883
 20
29.3065105059477418
 30
0.0
 40
0.0456117468430057
 50
64.4322362687551617
 51
115.2156603823226959
  0
ARC
  5
AB8A
  8
0
 10
347.224541761814578
 20
29.3880827072735293
 30
0.0
 40
0.0448557124697646
 50
243.9729763763820074
 51
295.6749202746951823
  0
ARC
  5
AB8B
  8
0
 10
347.315896222990375
 20
29.2832267958674208
 30
0.0
 40
0.0440180874475836
 50
63.1767606982001695
 51
116.2794149951784988
  0
ARC
  5
AB8C
  8
0
 10
347.3162788669051793
 20
29.3638547358695092
 30
0.0
 40
0.045705255220582
 50
244.2288704486747122
 51
295.2273052447054056
  0
ARC
  5
AB8D
  8
0
 10
347.2920696022923153
 20
29.2492125390400517
 30
0.0
 40
0.0459692663572135
 50
64.6452397025607013
 51
115.3547602974390998
  0
ARC
  5
AB8E
  8
0
 10
347.2920696022923153
 20
29.3317898924753315
 30
0.0
 40
0.0455133530071797
 50
244.3729607378583921
 51
295.6270392621414089
  0
ARC
  5
AB8F
  8
0
 10
347.3162923844375882
 20
29.2170977599514785
 30
0.0
 40
0.0462115128739343
 50
64.7905201278009883
 51
115.4870330682891932
  0
ARC
  5
AB90
  8
0
 10
347.3160922947923268
 20
29.299707291734709
 30
0.0
 40
0.045386320276288
 50
244.296008161141998
 51
295.9815450349507842
  0
ARC
  5
AB91
  8
0
 10
346.8336303427172993
 20
30.396549388681251
 30
0.0
 40
1.2255541479905521
 50
274.8921440265535239
 51
280.062040977119409
  0
ARC
  5
AB92
  8
0
 10
346.9492530643094028
 20
29.7449470227941504
 30
0.0
 40
0.5637730233140834
 50
280.062040977119409
 51
292.7876751004791913
  0
ARC
  5
AB93
  8
0
 10
347.1353858296698149
 20
29.3018879073033105
 30
0.0
 40
0.0832037919225714
 50
292.7876751004791913
 51
323.0237162116169998
  0
ARC
  5
AB94
  8
0
 10
347.1758011191473088
 20
29.2714590224150193
 30
0.0
 40
0.032614142199564
 50
323.0237162116143281
 51
0.1271466887036576
  0
LINE
  5
AB95
  8
0
 10
347.2084151810423123
 20
29.2715313973232192
 30
0.0
 11
347.2084151810423123
 21
29.3416769144873584
 31
0.0
  0
ARC
  5
AB96
  8
0
 10
346.7884318796786829
 20
30.5941867585526701
 30
0.0
 40
1.4101787461397111
 50
269.9078593365767915
 51
276.7503814380681888
  0
ARC
  5
AB97
  8
0
 10
346.8669876521395281
 20
29.9305102414638
 30
0.0
 40
0.7418692903318947
 50
276.7503814380681888
 51
285.120639427272522
  0
ARC
  5
AB98
  8
0
 10
347.009265710115983
 20
29.4039585449428991
 30
0.0
 40
0.1964339276255719
 50
285.120639427272522
 51
305.7082481764696809
  0
ARC
  5
AB99
  8
0
 10
347.1113291223558122
 20
29.2619654166489305
 30
0.0
 40
0.0215654381807063
 50
305.7082481764733757
 51
53.8416199491346035
  0
ARC
  5
AB9A
  8
0
 10
347.0084215980849081
 20
29.1211455980267395
 30
0.0
 40
0.1959792560632322
 50
53.8416199491346035
 51
78.4062751361231847
  0
ARC
  5
AB9B
  8
0
 10
346.8666185575506233
 20
28.585764194657969
 30
0.0
 40
0.7495900135600002
 50
76.012061958442672
 51
83.6679545790390335
  0
ARC
  5
AB9C
  8
0
 10
346.7999894111475783
 20
28.0673459150923286
 30
0.0
 40
1.2722263488697489
 50
83.260547627390153
 51
86.990758626892017
  0
ARC
  5
AB9D
  8
0
 10
346.7874676443129829
 20
27.8574660850638907
 30
0.0
 40
1.482474872213023
 50
86.9333098518088008
 51
88.8775288507605836
  0
ARC
  5
AB9E
  8
0
 10
346.7861707821605819
 20
27.8040204167709213
 30
0.0
 40
1.5359357098580431
 50
88.8682165560159092
 51
90.0002496226593252
  0
ARC
  5
AB9F
  8
0
 10
346.7868035049448281
 20
30.5461904445586185
 30
0.0
 40
1.331746749235369
 50
269.9724904521647204
 51
273.7396601729683994
  0
ARC
  5
ABA0
  8
0
 10
346.8027310405125263
 20
30.3832408791763307
 30
0.0
 40
1.1727856897735349
 50
273.4816679296301913
 51
277.1785917002766837
  0
ARC
  5
ABA1
  8
0
 10
346.8946048569098934
 20
29.6896353794751313
 30
0.0
 40
0.4683889609070806
 50
274.8961970652167111
 51
290.4592313912967825
  0
ARC
  5
ABA2
  8
0
 10
347.0307308084894089
 20
29.3627142706159106
 30
0.0
 40
0.1227479618760865
 50
290.1569988676322964
 51
306.8539911893619774
  0
ARC
  5
ABA3
  8
0
 10
347.0667833951333137
 20
29.2900450156454291
 30
0.0
 40
0.0305647148258691
 50
303.2885823810128159
 51
339.6397335420671766
  0
ARC
  5
ABA4
  8
0
 10
347.0763445128869762
 20
29.2844356615393018
 30
0.0
 40
0.0197441142889618
 50
345.2563258646741815
 51
52.2630287111251093
  0
LINE
  5
ABA5
  8
0
 10
347.096088627176016
 20
29.2844356615393018
 30
0.0
 11
347.096088627176016
 21
29.2964235510540085
 31
0.0
  0
LINE
  5
ABA6
  8
0
 10
347.1043523209422119
 20
29.2644954585232107
 30
0.0
 11
347.0835590299423075
 21
29.2644954585232107
 31
0.0
  0
LINE
  5
ABA7
  8
0
 10
347.0730289892422888
 20
29.2474843871232189
 30
0.0
 11
347.0583259122423101
 21
29.2507918598232202
 31
0.0
  0
LINE
  5
ABA8
  8
0
 10
346.9492853025421937
 20
29.2196481143232099
 30
0.0
 11
346.9345822255900771
 21
29.2229555870124393
 31
0.0
  0
LINE
  5
ABA9
  8
0
 10
346.8739533516682059
 20
29.2126198232700105
 30
0.0
 11
346.8736489115706831
 21
29.2172783784507999
 31
0.0
  0
LINE
  5
ABAA
  8
0
 10
346.9492853025421937
 20
29.2196481143232099
 30
0.0
 11
346.9492853025421937
 21
29.2244491075742197
 31
0.0
  0
LINE
  5
ABAB
  8
0
 10
347.1043523209422119
 20
29.2644954585232107
 30
0.0
 11
347.1043523209422119
 21
29.2920407858441685
 31
0.0
  0
LINE
  5
ABAC
  8
0
 10
346.8873537238421818
 20
29.4178865195232184
 30
0.0
 11
346.8777223402423147
 21
29.469875611423209
 31
0.0
  0
LINE
  5
ABAD
  8
0
 10
346.9689283005574225
 20
29.4175128505475705
 30
0.0
 11
346.9782423684380888
 21
29.4691684643773506
 31
0.0
  0
LINE
  5
ABAE
  8
0
 10
346.9983464689422021
 20
29.3968620882232194
 30
0.0
 11
346.9890324028384043
 21
29.4485176923750913
 31
0.0
  0
LINE
  5
ABAF
  8
0
 10
347.0798872238423201
 20
29.3968620882232194
 30
0.0
 11
347.0895636862421725
 21
29.4492288372232203
 31
0.0
  0
LINE
  5
ABB0
  8
0
 10
347.1332942593422217
 20
29.3859448568232189
 30
0.0
 11
347.1236628758421716
 21
29.4379339487232095
 31
0.0
  0
LINE
  5
ABB1
  8
0
 10
347.2148750652423246
 20
29.3856073310232198
 30
0.0
 11
347.2245453003421858
 21
29.4379379464232187
 31
0.0
  0
LINE
  5
ABB2
  8
0
 10
347.264927946592195
 20
29.3561672601232218
 30
0.0
 11
347.2747379555423208
 21
29.4075736901232183
 31
0.0
  0
LINE
  5
ABB3
  8
0
 10
347.2752880937421764
 20
29.3306202740232216
 30
0.0
 11
347.2698329510673148
 21
29.3818704751232183
 31
0.0
  0
LINE
  5
ABB4
  8
0
 10
347.3568626721672103
 20
29.3302466143874199
 30
0.0
 11
347.3661751277915073
 21
29.3819925298511002
 31
0.0
  0
LINE
  5
ABB5
  8
0
 10
347.3568134991422198
 20
29.267150498873221
 30
0.0
 11
347.3661352347422735
 21
29.3175603213232208
 31
0.0
  0
LINE
  5
ABB6
  8
0
 10
347.2512992262708735
 20
29.2983049442136902
 30
0.0
 11
347.2433961111491953
 21
29.3418553076583386
 31
0.0
  0
LINE
  5
ABB7
  8
0
 10
347.332790806642322
 20
29.2990921616232214
 30
0.0
 11
347.3358951068473175
 21
29.3172846864531813
 31
0.0
  0
LINE
  5
ABB8
  8
0
 10
347.2753219173421826
 20
29.2663632892232215
 30
0.0
 11
347.2717823557024985
 21
29.2856391053723293
 31
0.0
  0
LINE
  5
ABB9
  8
0
 10
347.1834934457771169
 20
29.3554166299868911
 30
0.0
 11
347.1823844673299959
 21
29.3712817878702488
 31
0.0
  0
ARC
  5
ABBA
  8
0
 10
346.8523135809733162
 20
28.2872518594780402
 30
0.0
 40
1.0644160754427481
 50
77.4022233240208948
 51
85.4104429647130985
  0
ARC
  5
ABBB
  8
0
 10
346.9998982600613999
 20
28.9476281278691303
 30
0.0
 40
0.387749205147133
 50
64.3266606433691237
 51
77.4022233240208948
  0
ARC
  5
ABBC
  8
0
 10
347.13698063006251
 20
29.2328037640239984
 30
0.0
 40
0.0713369430246595
 50
36.3416264980551702
 51
64.3266606433691237
  0
ARC
  5
ABBD
  8
0
 10
347.1768924717100049
 20
29.2621665935423607
 30
0.0
 40
0.0217876659258337
 50
333.1799306239361727
 51
36.3416264980541115
  0
ARC
  5
ABBE
  8
0
 10
347.1353774439347717
 20
29.2831555985527103
 30
0.0
 40
0.0683068647850223
 50
311.8279678964522077
 51
333.1799306239366842
  0
ARC
  5
ABBF
  8
0
 10
346.7862985956311945
 20
30.4145845610421084
 30
0.0
 40
1.1922666204314489
 50
269.9935361967923768
 51
273.9374369778363985
  0
ARC
  5
ABC0
  8
0
 10
346.8101389712281843
 20
30.068216619905801
 30
0.0
 40
0.8450791866790064
 50
273.9374369778363985
 51
281.8876497286995004
  0
ARC
  5
ABC1
  8
0
 10
346.9386128075157103
 20
29.457912619994449
 30
0.0
 40
0.2213993818767066
 50
281.8876497286995004
 51
299.9290789527577203
  0
ARC
  5
ABC2
  8
0
 10
347.0366121421711227
 20
29.2876865339302199
 30
0.0
 40
0.0249794491569355
 50
299.9290789527581182
 51
330.0180049412517747
  0
ARC
  5
ABC3
  8
0
 10
347.0427986733751027
 20
29.2841173301236317
 30
0.0
 40
0.0178371537170063
 50
330.0180049412510925
 51
42.7901683781909767
  0
ARC
  5
ABC4
  8
0
 10
346.9938431100096068
 20
29.2285343209868707
 30
0.0
 40
0.0918309156537293
 50
47.495575790845443
 51
71.4337824998550133
  0
ARC
  5
ABC5
  8
0
 10
346.9056385267483051
 20
29.0008149403479401
 30
0.0
 40
0.3359670023108869
 50
69.5390558410963422
 51
73.9025004702928783
  0
ARC
  5
ABC6
  8
0
 10
346.7862402160529882
 20
30.4423052560199494
 30
0.0
 40
1.195628058638706
 50
269.9963519814400001
 51
273.8021696374584053
  0
ARC
  5
ABC7
  8
0
 10
346.8064536863474245
 20
30.1381510217577997
 30
0.0
 40
0.8908028913691177
 50
273.8021696374584053
 51
280.3905746770091127
  0
ARC
  5
ABC8
  8
0
 10
346.905302944564994
 20
29.5990643226061891
 30
0.0
 40
0.3427284027707691
 50
280.3905746770092264
 51
290.7611070047370276
  0
ARC
  5
ABC9
  8
0
 10
346.9936017145337814
 20
29.3661400002502688
 30
0.0
 40
0.0936292001968533
 50
290.7611070047370276
 51
311.7013970835503756
  0
ARC
  5
ABCA
  8
0
 10
346.786496110769292
 20
29.2974153640707904
 30
0.0
 40
0.1277163798000517
 50
269.8510497867173967
 51
279.9579278888213025
  0
ARC
  5
ABCB
  8
0
 10
346.8017503903004126
 20
29.2105310231212698
 30
0.0
 40
0.0395031055934529
 50
279.9579278888213025
 51
297.4011913175385189
  0
ARC
  5
ABCC
  8
0
 10
346.7863840601614243
 20
29.2489615384024688
 30
0.0
 40
0.0764401272049495
 50
269.8351212704707791
 51
278.5964858029338984
  0
ARC
  5
ABCD
  8
0
 10
346.7943762735197879
 20
29.1960935592429394
 30
0.0
 40
0.0229714569879062
 50
278.5964858029338984
 51
296.0737880764619945
  0
ARC
  5
ABCE
  8
0
 10
346.7824131788593149
 20
31.1878906937059384
 30
0.0
 40
1.7020350921468981
 50
270.1262674200090146
 51
273.6466719997121118
  0
ARC
  5
ABCF
  8
0
 10
346.9253412815511979
 20
29.2384264735022015
 30
0.0
 40
0.2532600026908274
 50
73.4011684883313933
 51
97.8688373828497049
  0
ARC
  5
ABD0
  8
0
 10
347.1937520807564965
 20
30.3746100909945618
 30
0.0
 40
0.9147361535349546
 50
257.6233338714695833
 51
267.731448705891296
  0
ARC
  5
ABD1
  8
0
 10
347.1287172390307205
 20
28.7329127626893097
 30
0.0
 40
0.7282488276510807
 50
83.2558561166947584
 51
87.7314487058913102
  0
ARC
  5
ABD2
  8
0
 10
347.2080147781841788
 20
29.4034814662649495
 30
0.0
 40
0.053007770005058
 50
60.9676873585693713
 51
83.2558561166947442
  0
ARC
  5
ABD3
  8
0
 10
347.2282605071226271
 20
29.4399571993492088
 30
0.0
 40
0.0112900442247563
 50
31.9479722189182702
 51
60.967687358565442
  0
ARC
  5
ABD4
  8
0
 10
347.3289178242981734
 20
29.5517254905260209
 30
0.0
 40
0.1395976297706663
 50
229.2750940656596867
 51
255.2940284301776899
  0
ARC
  5
ABD5
  8
0
 10
347.5360304999896925
 20
30.2142787335070402
 30
0.0
 40
0.8336433731647929
 50
253.0850010580701053
 51
258.4654759047509174
  0
ARC
  5
ABD6
  8
0
 10
347.3636332658035144
 20
29.3775481053951211
 30
0.0
 40
0.0207234329491432
 50
46.914196528205693
 51
74.0255403011725974
  0
ARC
  5
ABD7
  8
0
 10
347.3749787673813785
 20
29.3897553061525691
 30
0.0
 40
0.0040584400464663
 50
301.3089673530221262
 51
46.1705464089870077
  0
ARC
  5
ABD8
  8
0
 10
347.4434206443741004
 20
29.2882002979416001
 30
0.0
 40
0.1184112507155155
 50
124.0689961046073932
 51
131.2723630604338894
  0
ARC
  5
ABD9
  8
0
 10
346.8832968271639743
 20
29.0063864808822913
 30
0.0
 40
0.4578652106136127
 50
90.5666865597953432
 51
95.937523417467375
  0
ARC
  5
ABDA
  8
0
 10
346.8467734105254863
 20
25.7698546413481395
 30
0.0
 40
3.678814842492748
 50
89.4563131368940248
 51
90.2059201037231446
  0
ARC
  5
ABDB
  8
0
 10
346.8539864418465868
 20
11.5059145067393693
 30
0.0
 40
17.9309864400497716
 50
89.9046209466565642
 51
90.0721009643347088
  0
ARC
  5
ABDC
  8
0
 10
346.823594354189197
 20
28.0585866202199696
 30
0.0
 40
1.3950510799571021
 50
83.1532958664554656
 51
83.8116796844633143
  0
ARC
  5
ABDD
  8
0
 10
346.8247760350474209
 20
28.0966610286671994
 30
0.0
 40
1.345135035655711
 50
82.8531197699415571
 51
83.7227483596551849
  0
ARC
  5
ABDE
  8
0
 10
347.0782127294099269
 20
29.7019308048808917
 30
0.0
 40
0.2693231294983749
 50
247.5427177570286119
 51
250.6938551596703917
  0
ARC
  5
ABDF
  8
0
 10
346.9563338720553247
 20
28.8387026779237807
 30
0.0
 40
0.5910229130949441
 50
72.9101755791049726
 51
77.5842789623590505
  0
ARC
  5
ABE0
  8
0
 10
346.9547110070398048
 20
28.8132804212372804
 30
0.0
 40
0.6285564577737082
 50
74.0514584566892466
 51
77.9762856728272169
  0
ARC
  5
ABE1
  8
0
 10
347.0538321580656884
 20
29.0376370831830393
 30
0.0
 40
0.4048434674045458
 50
80.0256220191756142
 51
85.151644498221458
  0
ARC
  5
ABE2
  8
0
 10
347.2242325569125114
 20
29.0539792095996496
 30
0.0
 40
0.2604510817161097
 50
84.636072157491185
 51
93.481755142410222
  0
ARC
  5
ABE3
  8
0
 10
347.2164094904878198
 20
28.5967065169961003
 30
0.0
 40
0.7072368350684552
 50
87.2432553538610023
 51
90.6476613253718142
  0
ARC
  5
ABE4
  8
0
 10
347.1953054664396063
 20
29.4558407567732701
 30
0.0
 40
0.1409062620127497
 50
275.3384370806912784
 51
291.3183142081296069
  0
ARC
  5
ABE5
  8
0
 10
347.408384503846321
 20
29.3833185256602683
 30
0.0
 40
0.0620634793120784
 50
218.0724326525350136
 51
239.2571610506929005
  0
ARC
  5
ABE6
  8
0
 10
347.3742792229268161
 20
29.3259763934036286
 30
0.0
 40
0.0046545116523654
 50
314.8549452268356958
 51
59.2571610506822495
  0
ARC
  5
ABE7
  8
0
 10
347.3583273559348186
 20
29.34849907833636
 30
0.0
 40
0.0321988242600042
 50
283.9272182905502859
 51
306.6821001014365038
  0
ARC
  5
ABE8
  8
0
 10
347.2005250232443245
 20
29.2484239337111411
 30
0.0
 40
0.0190864594197381
 50
220.9052785091257931
 51
260.138937982076925
  0
ARC
  5
ABE9
  8
0
 10
347.2234651948194823
 20
29.3408330710402083
 30
0.0
 40
0.114260117947747
 50
256.7394662147917188
 51
286.7414659161659074
  0
ARC
  5
ABEA
  8
0
 10
347.2512433040457154
 20
29.2445837378564093
 30
0.0
 40
0.01413358248726
 50
291.303881454981024
 51
348.5441272513058948
  0
ARC
  5
ABEB
  8
0
 10
347.2002644291616775
 20
29.2147334455626684
 30
0.0
 40
0.0150645229003743
 50
283.2597982315447211
 51
345.8027446475912257
  0
ARC
  5
ABEC
  8
0
 10
347.1748353397248934
 20
29.3226442073721714
 30
0.0
 40
0.1259309790712916
 50
254.8799826658350014
 51
283.2597982315447211
  0
ARC
  5
ABED
  8
0
 10
347.1451124381736122
 20
29.2126390577148811
 30
0.0
 40
0.0119810610030848
 50
183.0133675807907991
 51
254.8799826658350014
  0
ARC
  5
ABEE
  8
0
 10
347.1744896809303214
 20
29.2445075748297292
 30
0.0
 40
0.0454497981725439
 50
243.825323233156297
 51
295.105831666521226
  0
ARC
  5
ABEF
  8
0
 10
347.173718148885996
 20
29.1617935353509594
 30
0.0
 40
0.0461443095218157
 50
64.2385259917454334
 51
114.6926289079353012
  0
ARC
  5
ABF0
  8
0
 10
347.2246323081633932
 20
29.1907937676275502
 30
0.0
 40
0.0474872744412276
 50
65.519572777681347
 51
114.9430909855018967
  0
ARC
  5
ABF1
  8
0
 10
347.2242911156421883
 20
29.2752991332498489
 30
0.0
 40
0.045884474332302
 50
244.5950563417221133
 51
295.86760742146339
  0
LINE
  5
ABF2
  8
0
 10
347.2177086072221073
 20
29.2267180577743488
 30
0.0
 11
347.2148688378421753
 21
29.2110387064232206
 31
0.0
  0
LINE
  5
ABF3
  8
0
 10
347.272432289298024
 20
29.2820996838926995
 30
0.0
 11
347.265095316742304
 21
29.2417766222232203
 31
0.0
  0
ARC
  5
ABF4
  8
0
 10
346.9556334751757731
 20
29.181969606184861
 30
0.0
 40
0.0136203352774403
 50
291.9228915577318162
 51
345.1194111344756834
  0
ARC
  5
ABF5
  8
0
 10
346.9280091210432033
 20
29.2871030304656195
 30
0.0
 40
0.1222269106859437
 50
254.8466740494714031
 51
285.5223297867908059
  0
ARC
  5
ABF6
  8
0
 10
346.9013428441929818
 20
29.1825037937369096
 30
0.0
 40
0.0143836263296788
 50
209.3217594925953904
 51
248.4461122785309044
  0
ARC
  5
ABF7
  8
0
 10
346.9282225610286901
 20
29.2127916483087802
 30
0.0
 40
0.0457303595083188
 50
244.4135602674155052
 51
295.4040406921001818
  0
ARC
  5
ABF8
  8
0
 10
346.9281094294358923
 20
29.1417171809351991
 30
0.0
 40
0.0357119475046135
 50
109.1157360254299959
 51
123.3573559746320996
  0
ARC
  5
ABF9
  8
0
 10
346.9281094294358923
 20
29.1417171809351991
 30
0.0
 40
0.0357119475046135
 50
56.4602449848855699
 51
71.4510753506416592
  0
ARC
  5
ABFA
  8
0
 10
347.0642082905654888
 20
29.20537499903444
 30
0.0
 40
0.0171598586177599
 50
287.728846592276625
 51
327.8562255258444793
  0
ARC
  5
ABFB
  8
0
 10
347.0399562669770717
 20
29.281234747323829
 30
0.0
 40
0.0968019458497431
 50
260.3025669123542229
 51
287.728846592276625
  0
ARC
  5
ABFC
  8
0
 10
347.0528255522472136
 20
29.197253990977611
 30
0.0
 40
0.0080143340475093
 50
280.4449783263596032
 51
318.284841238667525
  0
ARC
  5
ABFD
  8
0
 10
347.0375603081943154
 20
29.2800615933970114
 30
0.0
 40
0.0922172241074387
 50
269.1617505466816738
 51
280.4449783263596032
  0
ARC
  5
ABFE
  8
0
 10
346.9251342364723882
 20
30.9102573443478192
 30
0.0
 40
1.7202452058391371
 50
275.2659727106329228
 51
277.0991425056315052
  0
ARC
  5
ABFF
  8
0
 10
346.7900845044546827
 20
29.7084165214216185
 30
0.0
 40
0.1973233155085806
 50
273.3600816022943718
 51
279.2932763573605257
  0
ARC
  5
AC00
  8
0
 10
346.7857903158355271
 20
29.7815566387505015
 30
0.0
 40
0.2705893841814647
 50
270.0791447055307231
 51
273.3600816022943718
  0
ARC
  5
AC01
  8
0
 10
346.7688077604213959
 20
25.2772953067371091
 30
0.0
 40
4.25329988381079
 50
87.2087532249198034
 51
89.7661939553896815
  0
ARC
  5
AC02
  8
0
 10
346.8303263953116016
 20
26.7757395451994888
 30
0.0
 40
2.7536617481329571
 50
79.0537526111289139
 51
86.9689637693497559
  0
ARC
  5
AC03
  8
0
 10
347.1949226287741226
 20
28.6608650125461004
 30
0.0
 40
0.8336022591863848
 50
67.7226594552033561
 51
79.0537526111289139
  0
ARC
  5
AC04
  8
0
 10
347.3998245014003032
 20
29.1610307390313217
 30
0.0
 40
0.2930927483022318
 50
52.7287845521695715
 51
67.7226594552033561
  0
ARC
  5
AC05
  8
0
 10
347.5284066966647174
 20
29.3299950225249901
 30
0.0
 40
0.0807667959658957
 50
22.2914995820895783
 51
52.7287845521695715
  0
ARC
  5
AC06
  8
0
 10
347.5582520007101834
 20
29.3460565119072712
 30
0.0
 40
0.0471925025317951
 50
319.2496406910254905
 51
17.9892730888587202
  0
ARC
  5
AC07
  8
0
 10
347.3965620901822717
 20
29.5130547803289609
 30
0.0
 40
0.2794805117577374
 50
295.8445002704701778
 51
314.9474141977967179
  0
ARC
  5
AC08
  8
0
 10
346.7866522733427814
 20
29.4439287177597286
 30
0.0
 40
0.0438017541625453
 50
269.3614092264202782
 51
295.9933510711239251
  0
ARC
  5
AC09
  8
0
 10
346.7870192667604101
 20
29.3668182306348697
 30
0.0
 40
0.0421762237775413
 50
63.4834160717402014
 51
91.1618239978556346
  0
LINE
  5
AC0A
  8
0
 10
347.3373450961422009
 20
29.2091085907148518
 30
0.0
 11
347.3373450961422009
 21
25.171553385723211
 31
0.0
  0
ARC
  5
AC0B
  8
0
 10
353.0324378319497782
 20
18.3562149963800003
 30
0.0
 40
7.7827815904886526
 50
132.3441845299558963
 51
137.3040257556791062
  0
ARC
  5
AC0C
  8
0
 10
348.0515850233143169
 20
22.9517793825699492
 30
0.0
 40
1.0057537221578119
 50
137.304596359406986
 51
153.4587114700746042
  0
ARC
  5
AC0D
  8
0
 10
347.432751350648914
 20
23.2764376880571184
 30
0.0
 40
0.3073816126581352
 50
156.054682660044989
 51
179.0023547175892134
  0
ARC
  5
AC0E
  8
0
 10
353.0324269451991199
 20
28.2073532621661087
 30
0.0
 40
7.7827661612779693
 50
222.6959693248450094
 51
227.6558203895187091
  0
ARC
  5
AC0F
  8
0
 10
348.0515850233143169
 20
23.61179982977648
 30
0.0
 40
1.0057537221578119
 50
206.5412885299251968
 51
222.695403640593014
  0
ARC
  5
AC10
  8
0
 10
347.432751350648914
 20
23.2871415242893107
 30
0.0
 40
0.3073816126581352
 50
180.9976452824105877
 51
203.945317339955011
  0
LINE
  5
AC11
  8
0
 10
349.6463945456749798
 20
24.0748581459232192
 30
0.0
 11
350.1910459802422224
 21
24.0748581459232192
 31
0.0
  0
ARC
  5
AC12
  8
0
 10
349.6387279183725809
 20
24.2915081065339287
 30
0.0
 40
0.216785568262331
 50
237.5550126095965027
 51
272.0266893520343956
  0
ARC
  5
AC13
  8
0
 10
350.1910459802422224
 20
24.03485814592322
 30
0.0
 40
0.04
 50
0.0
 51
89.9999999999967457
  0
LINE
  5
AC14
  8
0
 10
349.1483688149422733
 20
22.4825770077232114
 30
0.0
 11
349.1483688149422733
 21
24.0810022045232088
 31
0.0
  0
LINE
  5
AC15
  8
0
 10
349.1483688149422733
 20
22.4904510235232102
 30
0.0
 11
349.1365577912421827
 21
22.4904510235232102
 31
0.0
  0
LINE
  5
AC16
  8
0
 10
349.1483688149422733
 20
24.0534431495232113
 30
0.0
 11
349.1365577912421827
 21
24.0534431495232113
 31
0.0
  0
ARC
  5
AC17
  8
0
 10
349.7207692216036889
 20
22.4601922585965106
 30
0.0
 40
0.018850295672911
 50
195.9319029611361884
 51
251.0425113196891971
  0
ARC
  5
AC18
  8
0
 10
349.8590005415862265
 20
22.8626148708642098
 30
0.0
 40
0.4443521836692675
 50
251.0425113196891971
 51
288.9574886683165005
  0
ARC
  5
AC19
  8
0
 10
349.9970759189395153
 20
22.4606462425589797
 30
0.0
 40
0.0193303160285251
 50
288.9574886683165005
 51
343.0723509609072153
  0
LINE
  5
AC1A
  8
0
 10
349.7146453915423194
 20
22.4423644053232216
 30
0.0
 11
350.0033556915421968
 21
22.4423644052929987
 31
0.0
  0
ARC
  5
AC1B
  8
0
 10
346.5513216804451986
 20
29.2629650024813088
 30
0.0
 40
0.0291307995857158
 50
65.0280334770658754
 51
115.4393347801227065
  0
ARC
  5
AC1C
  8
0
 10
346.5511102813580919
 20
29.3147965427509405
 30
0.0
 40
0.0283350414788759
 50
244.268266936430507
 51
296.1991013207559149
  0
ARC
  5
AC1D
  8
0
 10
346.5427381737579822
 20
29.2699970072032087
 30
0.0
 40
0.0291307995857158
 50
65.0280334770658754
 51
115.4393347801227065
  0
ARC
  5
AC1E
  8
0
 10
346.5425267746709892
 20
29.3218285474728404
 30
0.0
 40
0.0283350414788759
 50
244.268266936430507
 51
296.1991013207559149
  0
ARC
  5
AC1F
  8
0
 10
346.5378911798442232
 20
29.2767094630313913
 30
0.0
 40
0.0291307995857158
 50
65.0280334770658754
 51
115.4393347801227065
  0
ARC
  5
AC20
  8
0
 10
346.5376797807571165
 20
29.3285410033010088
 30
0.0
 40
0.0283350414788759
 50
244.268266936430507
 51
296.1991013207559149
  0
ARC
  5
AC21
  8
0
 10
346.5364713015734992
 20
29.2836125100500304
 30
0.0
 40
0.0291307995857158
 50
65.0280334770658754
 51
80.981016999400552
  0
ARC
  5
AC22
  8
0
 10
346.5362599024862789
 20
29.3354440503196514
 30
0.0
 40
0.0283350414788759
 50
260.5351831956031106
 51
296.1991013207559149
  0
ARC
  5
AC23
  8
0
 10
346.5638749009452226
 20
29.2566544664358084
 30
0.0
 40
0.0291307995857158
 50
65.0280334770658754
 51
115.4393347801227065
  0
ARC
  5
AC24
  8
0
 10
346.563663501858116
 20
29.30848600670544
 30
0.0
 40
0.0283350414788759
 50
244.268266936430507
 51
296.1991013207559149
  0
ARC
  5
AC25
  8
0
 10
346.5801791558948821
 20
29.2501837219048113
 30
0.0
 40
0.0291307995857158
 50
65.0280334770658754
 51
115.4393347801227065
  0
ARC
  5
AC26
  8
0
 10
346.5799677568078891
 20
29.3020152621744394
 30
0.0
 40
0.0283350414788759
 50
244.268266936430507
 51
296.1991013207559149
  0
ARC
  5
AC27
  8
0
 10
346.5998484951854266
 20
29.2437638978215517
 30
0.0
 40
0.0291307995857158
 50
65.0280334770658754
 51
115.4393347801227065
  0
ARC
  5
AC28
  8
0
 10
346.5996370960983199
 20
29.2955954380911798
 30
0.0
 40
0.0283350414788759
 50
244.268266936430507
 51
296.1991013207559149
  0
ARC
  5
AC29
  8
0
 10
346.6227094974217948
 20
29.2388128860097112
 30
0.0
 40
0.0291307995857158
 50
65.0280334770658754
 51
115.4393347801227065
  0
ARC
  5
AC2A
  8
0
 10
346.6224980983346882
 20
29.2906444262793393
 30
0.0
 40
0.0283350414788759
 50
244.268266936430507
 51
296.1991013207559149
  0
ARC
  5
AC2B
  8
0
 10
346.6469137763048138
 20
29.2356725562065307
 30
0.0
 40
0.0291307995857158
 50
65.0280334770658754
 51
115.4393347801227065
  0
ARC
  5
AC2C
  8
0
 10
346.6467023772177072
 20
29.2875040964761588
 30
0.0
 40
0.0283350414788759
 50
244.268266936430507
 51
296.1991013207559149
  0
ARC
  5
AC2D
  8
0
 10
346.6738287639747114
 20
29.2320712893656598
 30
0.0
 40
0.0291307995857158
 50
65.0280334770658754
 51
115.4393347801227065
  0
ARC
  5
AC2E
  8
0
 10
346.6736173648876047
 20
29.2839028296352808
 30
0.0
 40
0.0283350414788759
 50
244.268266936430507
 51
296.1991013207559149
  0
ARC
  5
AC2F
  8
0
 10
346.7029134609500147
 20
29.229155996485531
 30
0.0
 40
0.0291307995857158
 50
65.0280334770658754
 51
115.4393347801227065
  0
ARC
  5
AC30
  8
0
 10
346.7027020618630218
 20
29.2809875367551484
 30
0.0
 40
0.0283350414788759
 50
244.268266936430507
 51
296.1991013207559149
  0
ARC
  5
AC31
  8
0
 10
346.7328373399811881
 20
29.2272578008236188
 30
0.0
 40
0.0291307995857158
 50
65.0280334770658754
 51
115.4393347801227065
  0
ARC
  5
AC32
  8
0
 10
346.7326259408940814
 20
29.2790893410932398
 30
0.0
 40
0.0283350414788759
 50
244.268266936430507
 51
296.1991013207559149
  0
ARC
  5
AC33
  8
0
 10
346.7637258000153793
 20
29.2264365032595386
 30
0.0
 40
0.0291307995857158
 50
65.0280334770658754
 51
115.4393347801227065
  0
ARC
  5
AC34
  8
0
 10
346.7635144009282726
 20
29.2782680435291702
 30
0.0
 40
0.0283350414788759
 50
244.268266936430507
 51
296.1991013207559149
  0
ARC
  5
AC35
  8
0
 10
346.7952103321571826
 20
29.2259541416485114
 30
0.0
 40
0.0291307995857158
 50
65.0280334770658754
 51
115.4393347801227065
  0
ARC
  5
AC36
  8
0
 10
346.7949989330701897
 20
29.2777856819181288
 30
0.0
 40
0.0283350414788759
 50
244.268266936430507
 51
296.1991013207559149
  0
ARC
  5
AC37
  8
0
 10
346.82652402104668
 20
29.2266281554333389
 30
0.0
 40
0.0291307995857158
 50
65.0280334770658754
 51
115.4393347801227065
  0
ARC
  5
AC38
  8
0
 10
346.8263126219595733
 20
29.2784596957029706
 30
0.0
 40
0.0283350414788759
 50
244.268266936430507
 51
296.1991013207559149
  0
ARC
  5
AC39
  8
0
 10
346.8574423786502052
 20
29.2283234139167512
 30
0.0
 40
0.0291307995857158
 50
65.0280334770658754
 51
115.4393347801227065
  0
ARC
  5
AC3A
  8
0
 10
346.8572309795629849
 20
29.2801549541863686
 30
0.0
 40
0.0283350414788759
 50
244.268266936430507
 51
296.1991013207559149
  0
ARC
  5
AC3B
  8
0
 10
346.8868725206817771
 20
29.2306063607217013
 30
0.0
 40
0.0291307995857158
 50
65.0280334770658754
 51
115.4393347801227065
  0
ARC
  5
AC3C
  8
0
 10
346.8866611215947842
 20
29.2824379009913294
 30
0.0
 40
0.0283350414788759
 50
244.268266936430507
 51
296.1991013207559149
  0
ARC
  5
AC3D
  8
0
 10
346.9147044154718174
 20
29.2328230936721809
 30
0.0
 40
0.0291307995857158
 50
65.0280334770658754
 51
115.4393347801227065
  0
ARC
  5
AC3E
  8
0
 10
346.9144930163847107
 20
29.2846546339417984
 30
0.0
 40
0.0283350414788759
 50
244.268266936430507
 51
296.1991013207559149
  0
ARC
  5
AC3F
  8
0
 10
346.9404392265697084
 20
29.2378451607433405
 30
0.0
 40
0.0291307995857158
 50
65.0280334770658754
 51
115.4393347801227065
  0
ARC
  5
AC40
  8
0
 10
346.940227827482488
 20
29.2896767010129686
 30
0.0
 40
0.0283350414788759
 50
244.268266936430507
 51
296.1991013207559149
  0
ARC
  5
AC41
  8
0
 10
346.9638167338553103
 20
29.2426065646483195
 30
0.0
 40
0.0291307995857158
 50
65.0280334770658754
 51
115.4393347801227065
  0
ARC
  5
AC42
  8
0
 10
346.9636053347682036
 20
29.2944381049179512
 30
0.0
 40
0.0283350414788759
 50
244.268266936430507
 51
296.1991013207559149
  0
ARC
  5
AC43
  8
0
 10
346.9841026616454087
 20
29.2480184477984118
 30
0.0
 40
0.0291307995857158
 50
65.0280334770658754
 51
115.4393347801227065
  0
ARC
  5
AC44
  8
0
 10
346.9838912625584157
 20
29.2998499880680292
 30
0.0
 40
0.0283350414788759
 50
244.268266936430507
 51
296.1991013207559149
  0
ARC
  5
AC45
  8
0
 10
347.002087064448915
 20
29.2526726730487105
 30
0.0
 40
0.0291307995857158
 50
65.0280334770658754
 51
115.4393347801227065
  0
ARC
  5
AC46
  8
0
 10
347.0018756653619221
 20
29.3045042133183387
 30
0.0
 40
0.0283350414788759
 50
244.268266936430507
 51
296.1991013207559149
  0
ARC
  5
AC47
  8
0
 10
347.0158222741026179
 20
29.2602831259376615
 30
0.0
 40
0.0291307995857158
 50
65.0280334770658754
 51
115.4393347801227065
  0
ARC
  5
AC48
  8
0
 10
347.0156108750155113
 20
29.3121146662072789
 30
0.0
 40
0.0283350414788759
 50
244.268266936430507
 51
296.1991013207559149
  0
ARC
  5
AC49
  8
0
 10
347.0261283933036793
 20
29.2668035437799396
 30
0.0
 40
0.0291307995857158
 50
65.0280334770658754
 51
115.4393347801227065
  0
ARC
  5
AC4A
  8
0
 10
347.0259169942165727
 20
29.3186350840495606
 30
0.0
 40
0.0283350414788759
 50
244.268266936430507
 51
296.1991013207559149
  0
ARC
  5
AC4B
  8
0
 10
347.0323250489116162
 20
29.2738455796171095
 30
0.0
 40
0.0291307995857158
 50
65.0280334770658754
 51
115.4393347801227065
  0
ARC
  5
AC4C
  8
0
 10
347.0321136498245096
 20
29.3256771198867305
 30
0.0
 40
0.0283350414788759
 50
244.268266936430507
 51
296.1991013207559149
  0
ARC
  5
AC4D
  8
0
 10
347.0356517087222983
 20
29.2809529141566713
 30
0.0
 40
0.0291307995857158
 50
89.1774204149170373
 51
115.4393347801227065
  0
ARC
  5
AC4E
  8
0
 10
347.0354403096353053
 20
29.3327844544262888
 30
0.0
 40
0.0283350414788759
 50
244.268266936430507
 51
286.8866185700213123
  0
ARC
  5
AC4F
  8
0
 10
347.035203245184789
 20
29.2876074981659116
 30
0.0
 40
0.0291307995857158
 50
110.431010421288704
 51
115.4393347801227065
  0
ARC
  5
AC50
  8
0
 10
347.0349918460976824
 20
29.339439038435529
 30
0.0
 40
0.0283350414788759
 50
244.268266936430507
 51
267.986446325499287
  0
ARC
  5
AC51
  8
0
 10
346.9829598911301218
 20
29.2986906266680585
 30
0.0
 40
0.0291307995857158
 50
101.9327633170712062
 51
115.4393347801227065
  0
ARC
  5
AC52
  8
0
 10
346.9827484920430152
 20
29.3505221669376795
 30
0.0
 40
0.0283350414788759
 50
244.268266936430507
 51
293.1581969042529749
  0
ARC
  5
AC53
  8
0
 10
346.9914089441775786
 20
29.2921433948829915
 30
0.0
 40
0.0291307995857158
 50
65.0280334770658754
 51
115.4393347801227065
  0
ARC
  5
AC54
  8
0
 10
346.9911975450905857
 20
29.3439749351526196
 30
0.0
 40
0.0283350414788759
 50
244.268266936430507
 51
296.1991013207559149
  0
ARC
  5
AC55
  8
0
 10
346.9944217649338043
 20
29.2856616547063808
 30
0.0
 40
0.0291307995857158
 50
65.0280334770658754
 51
115.4393347801227065
  0
ARC
  5
AC56
  8
0
 10
346.9942103658466976
 20
29.3374931949759983
 30
0.0
 40
0.0283350414788759
 50
244.268266936430507
 51
296.1991013207559149
  0
ARC
  5
AC57
  8
0
 10
346.9949457411888716
 20
29.2789835361574511
 30
0.0
 40
0.0291307995857158
 50
65.0280334770658754
 51
115.4393347801227065
  0
ARC
  5
AC58
  8
0
 10
346.9947343421018218
 20
29.3308150764270685
 30
0.0
 40
0.0283350414788759
 50
244.268266936430507
 51
296.1991013207559149
  0
ARC
  5
AC59
  8
0
 10
346.9913435112119942
 20
29.2724363043723912
 30
0.0
 40
0.0291307995857158
 50
65.0280334770658754
 51
115.4393347801227065
  0
ARC
  5
AC5A
  8
0
 10
346.9911321121248875
 20
29.3242678446420086
 30
0.0
 40
0.0283350414788759
 50
244.268266936430507
 51
296.1991013207559149
  0
ARC
  5
AC5B
  8
0
 10
346.9830254949389996
 20
29.2662165306296096
 30
0.0
 40
0.0291307995857158
 50
65.0280334770658754
 51
115.4393347801227065
  0
ARC
  5
AC5C
  8
0
 10
346.9828140958520066
 20
29.3180480708992413
 30
0.0
 40
0.0283350414788759
 50
244.268266936430507
 51
296.1991013207559149
  0
ARC
  5
AC5D
  8
0
 10
346.9709086081056739
 20
29.2603240220230596
 30
0.0
 40
0.0291307995857158
 50
65.0280334770658754
 51
115.4393347801227065
  0
ARC
  5
AC5E
  8
0
 10
346.9706972090186241
 20
29.3121555622926913
 30
0.0
 40
0.0283350414788759
 50
244.268266936430507
 51
296.1991013207559149
  0
ARC
  5
AC5F
  8
0
 10
346.9557016793662001
 20
29.2548063298972991
 30
0.0
 40
0.0291307995857158
 50
65.0280334770658754
 51
115.4393347801227065
  0
ARC
  5
AC60
  8
0
 10
346.9554902802790934
 20
29.3066378701669308
 30
0.0
 40
0.0283350414788759
 50
244.268266936430507
 51
296.1991013207559149
  0
ARC
  5
AC61
  8
0
 10
346.9366422352849781
 20
29.2498959060585015
 30
0.0
 40
0.0291307995857158
 50
65.0280334770658754
 51
115.4393347801227065
  0
ARC
  5
AC62
  8
0
 10
346.9364308361979283
 20
29.3017274463281296
 30
0.0
 40
0.0283350414788759
 50
244.268266936430507
 51
296.1991013207559149
  0
ARC
  5
AC63
  8
0
 10
346.915216441314783
 20
29.2451704791343303
 30
0.0
 40
0.0291307995857158
 50
65.0280334770658754
 51
115.4393347801227065
  0
ARC
  5
AC64
  8
0
 10
346.9150050422276763
 20
29.2970020194039513
 30
0.0
 40
0.0283350414788759
 50
244.268266936430507
 51
296.1991013207559149
  0
ARC
  5
AC65
  8
0
 10
346.8927512369970145
 20
29.2417004848694617
 30
0.0
 40
0.0291307995857158
 50
65.0280334770658754
 51
115.4393347801227065
  0
ARC
  5
AC66
  8
0
 10
346.8925398379099079
 20
29.2935320251390792
 30
0.0
 40
0.0283350414788759
 50
244.268266936430507
 51
296.1991013207559149
  0
ARC
  5
AC67
  8
0
 10
346.8648246864295857
 20
29.2388842492527914
 30
0.0
 40
0.0291307995857158
 50
65.0280334770658754
 51
115.4393347801227065
  0
ARC
  5
AC68
  8
0
 10
346.864613287342479
 20
29.2907157895224088
 30
0.0
 40
0.0283350414788759
 50
244.268266936430507
 51
296.1991013207559149
  0
ARC
  5
AC69
  8
0
 10
346.8372328109126101
 20
29.2366379585518708
 30
0.0
 40
0.0291307995857158
 50
65.0280334770658754
 51
115.4393347801227065
  0
ARC
  5
AC6A
  8
0
 10
346.8370214118255035
 20
29.2884694988214989
 30
0.0
 40
0.0283350414788759
 50
244.268266936430507
 51
296.1991013207559149
  0
ARC
  5
AC6B
  8
0
 10
346.8086860556226156
 20
29.2355018706513903
 30
0.0
 40
0.0291307995857158
 50
65.0280334770658754
 51
115.4393347801227065
  0
ARC
  5
AC6C
  8
0
 10
346.808474656535509
 20
29.2873334109210184
 30
0.0
 40
0.0283350414788759
 50
244.268266936430507
 51
296.1991013207559149
  0
ARC
  5
AC6D
  8
0
 10
346.7787811907900277
 20
29.2351483339797689
 30
0.0
 40
0.0291307995857158
 50
65.0280334770658754
 51
115.4393347801227065
  0
ARC
  5
AC6E
  8
0
 10
346.7785697917029779
 20
29.2869798742494005
 30
0.0
 40
0.0283350414788759
 50
244.268266936430507
 51
296.1991013207559149
  0
ARC
  5
AC6F
  8
0
 10
346.7498138631290772
 20
29.2363403969973383
 30
0.0
 40
0.0291307995857158
 50
65.0280334770658754
 51
115.4393347801227065
  0
ARC
  5
AC70
  8
0
 10
346.7496024640420273
 20
29.28817193726697
 30
0.0
 40
0.0283350414788759
 50
244.268266936430507
 51
296.1991013207559149
  0
ARC
  5
AC71
  8
0
 10
346.7222284865367783
 20
29.2374936858961902
 30
0.0
 40
0.0291307995857158
 50
65.0280334770658754
 51
115.4393347801227065
  0
ARC
  5
AC72
  8
0
 10
346.7220170874496716
 20
29.2893252261658183
 30
0.0
 40
0.0283350414788759
 50
244.268266936430507
 51
296.1991013207559149
  0
ARC
  5
AC73
  8
0
 10
346.6947442491500055
 20
29.2403648997408787
 30
0.0
 40
0.0291307995857158
 50
65.0280334770658754
 51
115.4393347801227065
  0
ARC
  5
AC74
  8
0
 10
346.6945328500627852
 20
29.2921964400104997
 30
0.0
 40
0.0283350414788759
 50
244.268266936430507
 51
296.1991013207559149
  0
ARC
  5
AC75
  8
0
 10
346.6697259632682062
 20
29.24307773770769
 30
0.0
 40
0.0291307995857158
 50
65.0280334770658754
 51
115.4393347801227065
  0
ARC
  5
AC76
  8
0
 10
346.6695145641812132
 20
29.294909277977311
 30
0.0
 40
0.0283350414788759
 50
244.268266936430507
 51
296.1991013207559149
  0
ARC
  5
AC77
  8
0
 10
346.6465196409214968
 20
29.2476249194294802
 30
0.0
 40
0.0291307995857158
 50
65.0280334770658754
 51
115.4393347801227065
  0
ARC
  5
AC78
  8
0
 10
346.6463082418343902
 20
29.2994564596991012
 30
0.0
 40
0.0283350414788759
 50
244.268266936430507
 51
296.1991013207559149
  0
ARC
  5
AC79
  8
0
 10
346.6257497141972976
 20
29.2521735479467289
 30
0.0
 40
0.0291307995857158
 50
65.0280334770658754
 51
115.4393347801227065
  0
ARC
  5
AC7A
  8
0
 10
346.625538315110191
 20
29.3040050882163605
 30
0.0
 40
0.0283350414788759
 50
244.268266936430507
 51
296.1991013207559149
  0
ARC
  5
AC7B
  8
0
 10
346.608862371227076
 20
29.257383940713801
 30
0.0
 40
0.0291307995857158
 50
65.0280334770658754
 51
115.4393347801227065
  0
ARC
  5
AC7C
  8
0
 10
346.6086509721400262
 20
29.3092154809834291
 30
0.0
 40
0.0283350414788759
 50
244.268266936430507
 51
296.1991013207559149
  0
ARC
  5
AC7D
  8
0
 10
346.5956770306933095
 20
29.2632492495654404
 30
0.0
 40
0.0291307995857158
 50
65.0280334770658754
 51
115.4393347801227065
  0
ARC
  5
AC7E
  8
0
 10
346.5954656316062028
 20
29.3150807898350685
 30
0.0
 40
0.0283350414788759
 50
244.268266936430507
 51
296.1991013207559149
  0
ARC
  5
AC7F
  8
0
 10
346.5856562197237167
 20
29.2693122871318785
 30
0.0
 40
0.0291307995857158
 50
65.0280334770658754
 51
115.4393347801227065
  0
ARC
  5
AC80
  8
0
 10
346.5854448206366101
 20
29.3211438274014995
 30
0.0
 40
0.0283350414788759
 50
244.268266936430507
 51
296.1991013207559149
  0
ARC
  5
AC81
  8
0
 10
346.5793153724106901
 20
29.2756614043900107
 30
0.0
 40
0.0291307995857158
 50
65.0280334770658754
 51
115.4393347801227065
  0
ARC
  5
AC82
  8
0
 10
346.5791039733235834
 20
29.3274929446596389
 30
0.0
 40
0.0283350414788759
 50
244.268266936430507
 51
296.1991013207559149
  0
ARC
  5
AC83
  8
0
 10
346.5775353565639989
 20
29.2821856803535603
 30
0.0
 40
0.0291307995857158
 50
65.0280334770658754
 51
115.4393347801227065
  0
ARC
  5
AC84
  8
0
 10
346.5773239574768922
 20
29.3340172206231813
 30
0.0
 40
0.0283350414788759
 50
244.268266936430507
 51
296.1991013207559149
  0
ARC
  5
AC85
  8
0
 10
346.5803703294943716
 20
29.2885782014759393
 30
0.0
 40
0.0291307995857158
 50
65.0280334770658754
 51
115.4393347801227065
  0
ARC
  5
AC86
  8
0
 10
346.5801589304073218
 20
29.3404097417455603
 30
0.0
 40
0.0283350414788759
 50
244.268266936430507
 51
296.1991013207559149
  0
ARC
  5
AC87
  8
0
 10
346.5856444315392082
 20
29.2951025738924997
 30
0.0
 40
0.0291307995857158
 50
65.0280334770658754
 51
115.4393347801227065
  0
ARC
  5
AC88
  8
0
 10
346.5854330324522152
 20
29.3469341141621207
 30
0.0
 40
0.0283350414788759
 50
244.268266936430507
 51
296.1991013207559149
  0
ARC
  5
AC89
  8
0
 10
346.5961598337245277
 20
29.3013618933782389
 30
0.0
 40
0.0291307995857158
 50
65.0280334770658754
 51
69.8892707238281616
  0
ARC
  5
AC8A
  8
0
 10
346.5959484346374779
 20
29.3531934336478599
 30
0.0
 40
0.0283350414788759
 50
253.4379144836240982
 51
296.1991013207559149
  0
ARC
  5
AC8B
  8
0
 10
346.6487539289764186
 20
29.3047783562105693
 30
0.0
 40
0.0291307995857158
 50
65.0280334770658754
 51
85.0260590643813146
  0
ARC
  5
AC8C
  8
0
 10
346.6487539289764186
 20
29.3047783562105693
 30
0.0
 40
0.0291307995857158
 50
106.3806034410299048
 51
115.4393347801227065
  0
ARC
  5
AC8D
  8
0
 10
346.6485425298894256
 20
29.3566098964801903
 30
0.0
 40
0.0283350414788759
 50
244.268266936430507
 51
296.1991013207559149
  0
ARC
  5
AC8E
  8
0
 10
346.666347188654413
 20
29.3624705788740101
 30
0.0
 40
0.0283350414788759
 50
258.7850809849211942
 51
290.5721133635594811
  0
ARC
  5
AC8F
  8
0
 10
346.6350622090424167
 20
29.2999516536031983
 30
0.0
 40
0.0291307995857158
 50
65.0280334770658754
 51
115.4393347801227065
  0
ARC
  5
AC90
  8
0
 10
346.6348508099553101
 20
29.3517831938728193
 30
0.0
 40
0.0283350414788759
 50
244.268266936430507
 51
296.1991013207559149
  0
ARC
  5
AC91
  8
0
 10
346.6246117272929723
 20
29.2940671505982806
 30
0.0
 40
0.0291307995857158
 50
65.0280334770658754
 51
115.4393347801227065
  0
ARC
  5
AC92
  8
0
 10
346.6244003282059793
 20
29.3458986908679016
 30
0.0
 40
0.0283350414788759
 50
244.268266936430507
 51
296.1991013207559149
  0
ARC
  5
AC93
  8
0
 10
346.6185925778244155
 20
29.2882486214669591
 30
0.0
 40
0.0291307995857158
 50
65.0280334770658754
 51
115.4393347801227065
  0
ARC
  5
AC94
  8
0
 10
346.6183811787373088
 20
29.3400801617365801
 30
0.0
 40
0.0283350414788759
 50
244.268266936430507
 51
296.1991013207559149
  0
ARC
  5
AC95
  8
0
 10
346.6162115354156867
 20
29.2822979516823487
 30
0.0
 40
0.0291307995857158
 50
65.0280334770658754
 51
115.4393347801227065
  0
ARC
  5
AC96
  8
0
 10
346.6160001363285801
 20
29.3341294919519697
 30
0.0
 40
0.0283350414788759
 50
244.268266936430507
 51
296.1991013207559149
  0
ARC
  5
AC97
  8
0
 10
346.6184637620120839
 20
29.2763421698870516
 30
0.0
 40
0.0291307995857158
 50
65.0280334770658754
 51
115.4393347801227065
  0
ARC
  5
AC98
  8
0
 10
346.6182523629249772
 20
29.3281737101566797
 30
0.0
 40
0.0283350414788759
 50
244.268266936430507
 51
296.1991013207559149
  0
ARC
  5
AC99
  8
0
 10
346.6241519881008912
 20
29.2705237372087694
 30
0.0
 40
0.0291307995857158
 50
65.0280334770658754
 51
115.4393347801227065
  0
ARC
  5
AC9A
  8
0
 10
346.6239405890137277
 20
29.3223552774784011
 30
0.0
 40
0.0283350414788759
 50
244.268266936430507
 51
296.1991013207559149
  0
ARC
  5
AC9B
  8
0
 10
346.6347348733708031
 20
29.265102015849461
 30
0.0
 40
0.0291307995857158
 50
65.0280334770658754
 51
115.4393347801227065
  0
ARC
  5
AC9C
  8
0
 10
346.6345234742838102
 20
29.3169335561190785
 30
0.0
 40
0.0283350414788759
 50
244.268266936430507
 51
296.1991013207559149
  0
ARC
  5
AC9D
  8
0
 10
346.648792751605697
 20
29.2586296950634583
 30
0.0
 40
0.0291307995857158
 50
65.0280334770658754
 51
115.4393347801227065
  0
ARC
  5
AC9E
  8
0
 10
346.6485813525185904
 20
29.31046123533309
 30
0.0
 40
0.0283350414788759
 50
244.268266936430507
 51
296.1991013207559149
  0
ARC
  5
AC9F
  8
0
 10
346.6658977076684209
 20
29.2551078420740893
 30
0.0
 40
0.0291307995857158
 50
65.0280334770658754
 51
115.4393347801227065
  0
ARC
  5
ACA0
  8
0
 10
346.665686308581428
 20
29.306939382343721
 30
0.0
 40
0.0283350414788759
 50
244.268266936430507
 51
296.1991013207559149
  0
ARC
  5
ACA1
  8
0
 10
346.6864682603170991
 20
29.2512068956640405
 30
0.0
 40
0.0291307995857158
 50
65.0280334770658754
 51
115.4393347801227065
  0
ARC
  5
ACA2
  8
0
 10
346.6862568612301061
 20
29.3030384359336615
 30
0.0
 40
0.0283350414788759
 50
244.268266936430507
 51
296.1991013207559149
  0
ARC
  5
ACA3
  8
0
 10
346.7090549341872929
 20
29.2482861049610889
 30
0.0
 40
0.0291307995857158
 50
65.0280334770658754
 51
115.4393347801227065
  0
ARC
  5
ACA4
  8
0
 10
346.7088435351003
 20
29.3001176452307099
 30
0.0
 40
0.0283350414788759
 50
244.268266936430507
 51
296.1991013207559149
  0
ARC
  5
ACA5
  8
0
 10
346.7345862623560038
 20
29.2457735999409216
 30
0.0
 40
0.0291307995857158
 50
65.0280334770658754
 51
115.4393347801227065
  0
ARC
  5
ACA6
  8
0
 10
346.7343748632690108
 20
29.2976051402105497
 30
0.0
 40
0.0283350414788759
 50
244.268266936430507
 51
296.1991013207559149
  0
ARC
  5
ACA7
  8
0
 10
346.7595883181286922
 20
29.2446495363106607
 30
0.0
 40
0.0291307995857158
 50
65.0280334770658754
 51
115.4393347801227065
  0
ARC
  5
ACA8
  8
0
 10
346.7593769190416992
 20
29.2964810765802817
 30
0.0
 40
0.0283350414788759
 50
244.268266936430507
 51
296.1991013207559149
  0
ARC
  5
ACA9
  8
0
 10
346.7787036279535187
 20
29.2542367747456993
 30
0.0
 40
0.0291307995857158
 50
65.0280334770658754
 51
115.4393347801227065
  0
ARC
  5
ACAA
  8
0
 10
346.778492228866412
 20
29.3060683150153309
 30
0.0
 40
0.0283350414788759
 50
244.268266936430507
 51
296.1991013207559149
  0
ARC
  5
ACAB
  8
0
 10
346.7480131752487864
 20
29.2553607419229493
 30
0.0
 40
0.0291307995857158
 50
65.0280334770658754
 51
115.4393347801227065
  0
ARC
  5
ACAC
  8
0
 10
346.7478017761616798
 20
29.307192282192581
 30
0.0
 40
0.0283350414788759
 50
244.268266936430507
 51
296.1991013207559149
  0
ARC
  5
ACAD
  8
0
 10
346.7530400671074062
 20
29.2645512690390284
 30
0.0
 40
0.0291307995857158
 50
65.0280334770658754
 51
115.4393347801227065
  0
ARC
  5
ACAE
  8
0
 10
346.7528286680204133
 20
29.3163828093086494
 30
0.0
 40
0.0283350414788759
 50
244.268266936430507
 51
296.1991013207559149
  0
ARC
  5
ACAF
  8
0
 10
346.7538999211968189
 20
29.2753947117576487
 30
0.0
 40
0.0291307995857158
 50
65.0280334770658754
 51
115.4393347801227065
  0
ARC
  5
ACB0
  8
0
 10
346.7536885221097123
 20
29.3272262520272697
 30
0.0
 40
0.0283350414788759
 50
244.268266936430507
 51
296.1991013207559149
  0
ARC
  5
ACB1
  8
0
 10
346.7415312114093808
 20
29.2824032783928594
 30
0.0
 40
0.0291307995857158
 50
65.0280334770658754
 51
115.4393347801227065
  0
ARC
  5
ACB2
  8
0
 10
346.7413198123222742
 20
29.3342348186624804
 30
0.0
 40
0.0283350414788759
 50
244.268266936430507
 51
296.1991013207559149
  0
ARC
  5
ACB3
  8
0
 10
346.7542967900720896
 20
29.2896763192407015
 30
0.0
 40
0.0291307995857158
 50
65.0280334770658754
 51
115.4393347801227065
  0
ARC
  5
ACB4
  8
0
 10
346.754085390984983
 20
29.3415078595103296
 30
0.0
 40
0.0283350414788759
 50
244.268266936430507
 51
296.1991013207559149
  0
ARC
  5
ACB5
  8
0
 10
346.7537055015756096
 20
29.3000162771343717
 30
0.0
 40
0.0291307995857158
 50
65.0280334770658754
 51
115.4393347801227065
  0
ARC
  5
ACB6
  8
0
 10
346.7534941024885029
 20
29.3518478174039892
 30
0.0
 40
0.0283350414788759
 50
244.268266936430507
 51
296.1991013207559149
  0
ARC
  5
ACB7
  8
0
 10
346.7478754755873069
 20
29.3091555876906611
 30
0.0
 40
0.0291307995857158
 50
65.0280334770658754
 51
115.4393347801227065
  0
ARC
  5
ACB8
  8
0
 10
346.747664076500314
 20
29.3609871279602892
 30
0.0
 40
0.0283350414788759
 50
244.268266936430507
 51
296.1991013207559149
  0
ARC
  5
ACB9
  8
0
 10
346.7195197667700199
 20
29.3061091186875515
 30
0.0
 40
0.0291307995857158
 50
65.0280334770658754
 51
115.4393347801227065
  0
ARC
  5
ACBA
  8
0
 10
346.7193083676827996
 20
29.3579406589571796
 30
0.0
 40
0.0283350414788759
 50
244.268266936430507
 51
296.1991013207559149
  0
ARC
  5
ACBB
  8
0
 10
346.726476162321319
 20
29.2958440083464211
 30
0.0
 40
0.0291307995857158
 50
65.0280334770658754
 51
115.4393347801227065
  0
ARC
  5
ACBC
  8
0
 10
346.7262647632342123
 20
29.3476755486160386
 30
0.0
 40
0.0283350414788759
 50
244.268266936430507
 51
296.1991013207559149
  0
ARC
  5
ACBD
  8
0
 10
346.7076550445772227
 20
29.289875784110059
 30
0.0
 40
0.0291307995857158
 50
65.0280334770658754
 51
115.4393347801227065
  0
ARC
  5
ACBE
  8
0
 10
346.7074436454901161
 20
29.34170732437968
 30
0.0
 40
0.0283350414788759
 50
244.268266936430507
 51
296.1991013207559149
  0
ARC
  5
ACBF
  8
0
 10
346.6952660044427716
 20
29.3015979139465585
 30
0.0
 40
0.0291307995857158
 50
65.0280334770658754
 51
115.4393347801227065
  0
ARC
  5
ACC0
  8
0
 10
346.6950546053557218
 20
29.3534294542161902
 30
0.0
 40
0.0283350414788759
 50
244.268266936430507
 51
296.1991013207559149
  0
ARC
  5
ACC1
  8
0
 10
346.6769806511383081
 20
29.2959023624305317
 30
0.0
 40
0.0291307995857158
 50
65.0280334770658754
 51
115.4393347801227065
  0
ARC
  5
ACC2
  8
0
 10
346.6767692520510877
 20
29.3477339027001598
 30
0.0
 40
0.0283350414788759
 50
244.268266936430507
 51
296.1991013207559149
  0
ARC
  5
ACC3
  8
0
 10
346.701355883017925
 20
29.2821253972088087
 30
0.0
 40
0.0291307995857158
 50
65.0280334770658754
 51
115.4393347801227065
  0
ARC
  5
ACC4
  8
0
 10
346.7011444839308183
 20
29.3339569374784404
 30
0.0
 40
0.0283350414788759
 50
244.268266936430507
 51
296.1991013207559149
  0
ARC
  5
ACC5
  8
0
 10
346.7081442105497899
 20
29.2738017770179013
 30
0.0
 40
0.0291307995857158
 50
65.0280334770658754
 51
115.4393347801227065
  0
ARC
  5
ACC6
  8
0
 10
346.7079328114626833
 20
29.3256333172875294
 30
0.0
 40
0.0283350414788759
 50
244.268266936430507
 51
296.1991013207559149
  0
ARC
  5
ACC7
  8
0
 10
346.7260013889227821
 20
29.2688137214115294
 30
0.0
 40
0.0291307995857158
 50
65.0280334770658754
 51
115.4393347801227065
  0
ARC
  5
ACC8
  8
0
 10
346.7257899898357891
 20
29.3206452616811504
 30
0.0
 40
0.0283350414788759
 50
244.268266936430507
 51
296.1991013207559149
  0
ARC
  5
ACC9
  8
0
 10
346.7194271697272256
 20
29.2586123665242717
 30
0.0
 40
0.0291307995857158
 50
65.0280334770658754
 51
115.4393347801227065
  0
ARC
  5
ACCA
  8
0
 10
346.719215770640119
 20
29.3104439067938891
 30
0.0
 40
0.0283350414788759
 50
244.268266936430507
 51
296.1991013207559149
  0
ARC
  5
ACCB
  8
0
 10
346.6954245469810871
 20
29.2631194237849108
 30
0.0
 40
0.0291307995857158
 50
65.0280334770658754
 51
115.4393347801227065
  0
ARC
  5
ACCC
  8
0
 10
346.6952131478939236
 20
29.3149509640545283
 30
0.0
 40
0.0283350414788759
 50
244.268266936430507
 51
296.1991013207559149
  0
ARC
  5
ACCD
  8
0
 10
346.6767184067458061
 20
29.2687614438683887
 30
0.0
 40
0.0291307995857158
 50
65.0280334770658754
 51
115.4393347801227065
  0
ARC
  5
ACCE
  8
0
 10
346.6765070076586994
 20
29.3205929841380204
 30
0.0
 40
0.0283350414788759
 50
244.268266936430507
 51
296.1991013207559149
  0
ARC
  5
ACCF
  8
0
 10
346.6650486167039844
 20
29.2753232400612404
 30
0.0
 40
0.0291307995857158
 50
65.0280334770658754
 51
115.4393347801227065
  0
ARC
  5
ACD0
  8
0
 10
346.6648372176168778
 20
29.3271547803308614
 30
0.0
 40
0.0283350414788759
 50
244.268266936430507
 51
296.1991013207559149
  0
ARC
  5
ACD1
  8
0
 10
346.6610701898853222
 20
29.2823490717890884
 30
0.0
 40
0.0291307995857158
 50
65.0280334770658754
 51
115.4393347801227065
  0
ARC
  5
ACD2
  8
0
 10
346.6608587907982155
 20
29.3341806120587201
 30
0.0
 40
0.0283350414788759
 50
244.268266936430507
 51
296.1991013207559149
  0
ARC
  5
ACD3
  8
0
 10
346.664982329522104
 20
29.28930864028424
 30
0.0
 40
0.0291307995857158
 50
65.0280334770658754
 51
115.4393347801227065
  0
ARC
  5
ACD4
  8
0
 10
346.6647709304349974
 20
29.3411401805538716
 30
0.0
 40
0.0283350414788759
 50
244.268266936430507
 51
296.1991013207559149
  0
ARC
  5
ACD5
  8
0
 10
346.7786561335292959
 20
29.3103500620340114
 30
0.0
 40
0.0291307995857158
 50
65.0280334770658754
 51
115.4393347801227065
  0
ARC
  5
ACD6
  8
0
 10
346.7784447344421892
 20
29.3621816023036395
 30
0.0
 40
0.0283350414788759
 50
244.268266936430507
 51
296.1991013207559149
  0
ARC
  5
ACD7
  8
0
 10
346.8093289893790256
 20
29.3099145765963307
 30
0.0
 40
0.0291307995857158
 50
65.0280334770658754
 51
115.4393347801227065
  0
ARC
  5
ACD8
  8
0
 10
346.809117590291919
 20
29.3617461168659588
 30
0.0
 40
0.0283350414788759
 50
244.268266936430507
 51
296.1991013207559149
  0
ARC
  5
ACD9
  8
0
 10
346.8396635755888724
 20
29.30765362108259
 30
0.0
 40
0.0291307995857158
 50
65.0280334770658754
 51
115.4393347801227065
  0
ARC
  5
ACDA
  8
0
 10
346.8394521765018226
 20
29.359485161352211
 30
0.0
 40
0.0283350414788759
 50
244.268266936430507
 51
296.1991013207559149
  0
ARC
  5
ACDB
  8
0
 10
346.78617887446228
 20
29.3014026930105906
 30
0.0
 40
0.0291307995857158
 50
65.0280334770658754
 51
115.4393347801227065
  0
ARC
  5
ACDC
  8
0
 10
346.7859674753751733
 20
29.3532342332802187
 30
0.0
 40
0.0283350414788759
 50
244.268266936430507
 51
296.1991013207559149
  0
ARC
  5
ACDD
  8
0
 10
346.8190414282780125
 20
29.2999396934272802
 30
0.0
 40
0.0291307995857158
 50
65.0280334770658754
 51
115.4393347801227065
  0
ARC
  5
ACDE
  8
0
 10
346.8188300291910195
 20
29.3517712336969083
 30
0.0
 40
0.0283350414788759
 50
244.268266936430507
 51
296.1991013207559149
  0
ARC
  5
ACDF
  8
0
 10
346.8465155859130959
 20
29.2959498173220787
 30
0.0
 40
0.0291307995857158
 50
65.0280334770658754
 51
115.4393347801227065
  0
ARC
  5
ACE0
  8
0
 10
346.8463041868258756
 20
29.3477813575916997
 30
0.0
 40
0.0283350414788759
 50
244.268266936430507
 51
296.1991013207559149
  0
ARC
  5
ACE1
  8
0
 10
346.8185092515468
 20
29.2894994243807503
 30
0.0
 40
0.0291307995857158
 50
65.0280334770658754
 51
115.4393347801227065
  0
ARC
  5
ACE2
  8
0
 10
346.8182978524596933
 20
29.3413309646503713
 30
0.0
 40
0.0283350414788759
 50
244.268266936430507
 51
296.1991013207559149
  0
ARC
  5
ACE3
  8
0
 10
346.7865115062746781
 20
29.2925583358249391
 30
0.0
 40
0.0291307995857158
 50
65.0280334770658754
 51
115.4393347801227065
  0
ARC
  5
ACE4
  8
0
 10
346.7863001071876852
 20
29.3443898760945707
 30
0.0
 40
0.0283350414788759
 50
244.268266936430507
 51
296.1991013207559149
  0
ARC
  5
ACE5
  8
0
 10
346.8671115161801026
 20
29.3028154969920109
 30
0.0
 40
0.0291307995857158
 50
65.0280334770658754
 51
115.4393347801227065
  0
ARC
  5
ACE6
  8
0
 10
346.866900117092996
 20
29.3546470372616284
 30
0.0
 40
0.0283350414788759
 50
244.268266936430507
 51
296.1991013207559149
  0
ARC
  5
ACE7
  8
0
 10
346.8874527649306856
 20
29.2976354541717505
 30
0.0
 40
0.0291307995857158
 50
65.0280334770658754
 51
115.4393347801227065
  0
ARC
  5
ACE8
  8
0
 10
346.8872413658436926
 20
29.3494669944413786
 30
0.0
 40
0.0283350414788759
 50
244.268266936430507
 51
296.1991013207559149
  0
ARC
  5
ACE9
  8
0
 10
346.9030754655829014
 20
29.2924147172608791
 30
0.0
 40
0.0291307995857158
 50
65.0280334770658754
 51
115.4393347801227065
  0
ARC
  5
ACEA
  8
0
 10
346.9028640664957948
 20
29.3442462575305001
 30
0.0
 40
0.0283350414788759
 50
244.268266936430507
 51
296.1991013207559149
  0
ARC
  5
ACEB
  8
0
 10
346.9105023634512008
 20
29.2860269223370615
 30
0.0
 40
0.0291307995857158
 50
65.0280334770658754
 51
115.4393347801227065
  0
ARC
  5
ACEC
  8
0
 10
346.9102909643642079
 20
29.3378584626066896
 30
0.0
 40
0.0283350414788759
 50
244.268266936430507
 51
296.1991013207559149
  0
ARC
  5
ACED
  8
0
 10
346.9103019643162042
 20
29.2790825934208989
 30
0.0
 40
0.0291307995857158
 50
65.0280334770658754
 51
115.4393347801227065
  0
ARC
  5
ACEE
  8
0
 10
346.9100905652290976
 20
29.3309141336905306
 30
0.0
 40
0.0283350414788759
 50
244.268266936430507
 51
296.1991013207559149
  0
ARC
  5
ACEF
  8
0
 10
346.902687138870192
 20
29.2720716154599003
 30
0.0
 40
0.0291307995857158
 50
65.0280334770658754
 51
115.4393347801227065
  0
ARC
  5
ACF0
  8
0
 10
346.9024757397830854
 20
29.3239031557295213
 30
0.0
 40
0.0283350414788759
 50
244.268266936430507
 51
296.1991013207559149
  0
ARC
  5
ACF1
  8
0
 10
346.8875244585329938
 20
29.26599536382815
 30
0.0
 40
0.0291307995857158
 50
65.0280334770658754
 51
115.4393347801227065
  0
ARC
  5
ACF2
  8
0
 10
346.8873130594458871
 20
29.317826904097771
 30
0.0
 40
0.0283350414788759
 50
244.268266936430507
 51
296.1991013207559149
  0
ARC
  5
ACF3
  8
0
 10
346.8654147790235243
 20
29.2750763203003395
 30
0.0
 40
0.0291307995857158
 50
65.0280334770658754
 51
115.4393347801227065
  0
ARC
  5
ACF4
  8
0
 10
346.8652033799364176
 20
29.3269078605699605
 30
0.0
 40
0.0283350414788759
 50
244.268266936430507
 51
296.1991013207559149
  0
ARC
  5
ACF5
  8
0
 10
346.8711592125421816
 20
29.2822876312079607
 30
0.0
 40
0.0291307995857158
 50
65.0280334770658754
 51
115.4393347801227065
  0
ARC
  5
ACF6
  8
0
 10
346.870947813455075
 20
29.3341191714775817
 30
0.0
 40
0.0283350414788759
 50
244.268266936430507
 51
296.1991013207559149
  0
ARC
  5
ACF7
  8
0
 10
346.8646131824831969
 20
29.2894990385686285
 30
0.0
 40
0.0291307995857158
 50
65.0280334770658754
 51
115.4393347801227065
  0
ARC
  5
ACF8
  8
0
 10
346.8644017833960902
 20
29.3413305788382495
 30
0.0
 40
0.0283350414788759
 50
244.268266936430507
 51
296.1991013207559149
  0
ARC
  5
ACF9
  8
0
 10
346.8306664573876787
 20
29.2822965048868689
 30
0.0
 40
0.0291307995857158
 50
65.0280334770658754
 51
115.4393347801227065
  0
ARC
  5
ACFA
  8
0
 10
346.8304550583006858
 20
29.3341280451564899
 30
0.0
 40
0.0283350414788759
 50
244.268266936430507
 51
296.1991013207559149
  0
ARC
  5
ACFB
  8
0
 10
346.7862885558303105
 20
29.2824790904756789
 30
0.0
 40
0.0291307995857158
 50
65.0280334770658754
 51
115.4393347801227065
  0
ARC
  5
ACFC
  8
0
 10
346.7860771567432039
 20
29.3343106307453105
 30
0.0
 40
0.0283350414788759
 50
244.268266936430507
 51
296.1991013207559149
  0
ARC
  5
ACFD
  8
0
 10
346.7860978947607009
 20
29.272591593753269
 30
0.0
 40
0.0291307995857158
 50
65.0280334770658754
 51
115.4393347801227065
  0
ARC
  5
ACFE
  8
0
 10
346.7858864956735943
 20
29.32442313402289
 30
0.0
 40
0.0283350414788759
 50
244.268266936430507
 51
296.1991013207559149
  0
ARC
  5
ACFF
  8
0
 10
346.7867014839713988
 20
29.2632051705300107
 30
0.0
 40
0.0291307995857158
 50
65.0280334770658754
 51
115.4393347801227065
  0
ARC
  5
AD00
  8
0
 10
346.7864900848844059
 20
29.3150367107996317
 30
0.0
 40
0.0283350414788759
 50
244.268266936430507
 51
296.1991013207559149
  0
ARC
  5
AD01
  8
0
 10
346.8103103130208069
 20
29.2549585327811705
 30
0.0
 40
0.0291307995857158
 50
65.0280334770658754
 51
115.4393347801227065
  0
ARC
  5
AD02
  8
0
 10
346.8100989139337003
 20
29.3067900730507915
 30
0.0
 40
0.0283350414788759
 50
244.268266936430507
 51
296.1991013207559149
  0
ARC
  5
AD03
  8
0
 10
346.7862320067138171
 20
29.243962983631711
 30
0.0
 40
0.0291307995857158
 50
65.0280334770658754
 51
115.4393347801227065
  0
ARC
  5
AD04
  8
0
 10
346.7860206076267104
 20
29.2957945239013391
 30
0.0
 40
0.0283350414788759
 50
244.268266936430507
 51
296.1991013207559149
  0
ARC
  5
AD05
  8
0
 10
346.8129932354564744
 20
29.2444323240834905
 30
0.0
 40
0.0291307995857158
 50
65.0280334770658754
 51
115.4393347801227065
  0
ARC
  5
AD06
  8
0
 10
346.8127818363694246
 20
29.2962638643531115
 30
0.0
 40
0.0283350414788759
 50
244.268266936430507
 51
296.1991013207559149
  0
ARC
  5
AD07
  8
0
 10
346.8386971860081758
 20
29.2461859279154588
 30
0.0
 40
0.0291307995857158
 50
65.0280334770658754
 51
115.4393347801227065
  0
ARC
  5
AD08
  8
0
 10
346.838485786921126
 20
29.2980174681850798
 30
0.0
 40
0.0283350414788759
 50
244.268266936430507
 51
296.1991013207559149
  0
ARC
  5
AD09
  8
0
 10
346.8636315171548858
 20
29.2480527850776504
 30
0.0
 40
0.0291307995857158
 50
65.0280334770658754
 51
115.4393347801227065
  0
ARC
  5
AD0A
  8
0
 10
346.8634201180677792
 20
29.2998843253472785
 30
0.0
 40
0.0283350414788759
 50
244.268266936430507
 51
296.1991013207559149
  0
ARC
  5
AD0B
  8
0
 10
346.8390165921920811
 20
29.2569698678491505
 30
0.0
 40
0.0291307995857158
 50
65.0280334770658754
 51
115.4393347801227065
  0
ARC
  5
AD0C
  8
0
 10
346.8388051931050882
 20
29.3088014081187715
 30
0.0
 40
0.0283350414788759
 50
244.268266936430507
 51
296.1991013207559149
  0
ARC
  5
AD0D
  8
0
 10
346.8190294692503812
 20
29.2647471651462112
 30
0.0
 40
0.0291307995857158
 50
65.0280334770658754
 51
115.4393347801227065
  0
ARC
  5
AD0E
  8
0
 10
346.8188180701632746
 20
29.3165787054158393
 30
0.0
 40
0.0283350414788759
 50
244.268266936430507
 51
296.1991013207559149
  0
ARC
  5
AD0F
  8
0
 10
346.8178222908288717
 20
29.2750722692730001
 30
0.0
 40
0.0291307995857158
 50
65.0280334770658754
 51
115.4393347801227065
  0
ARC
  5
AD10
  8
0
 10
346.8176108917418219
 20
29.3269038095426318
 30
0.0
 40
0.0283350414788759
 50
244.268266936430507
 51
296.1991013207559149
  0
ARC
  5
AD11
  8
0
 10
346.8454008336910874
 20
29.2691056847381788
 30
0.0
 40
0.0291307995857158
 50
65.0280334770658754
 51
115.4393347801227065
  0
ARC
  5
AD12
  8
0
 10
346.8451894346039808
 20
29.3209372250078104
 30
0.0
 40
0.0283350414788759
 50
244.268266936430507
 51
296.1991013207559149
  0
ARC
  5
AD13
  8
0
 10
346.8658658052098076
 20
29.2605910040145183
 30
0.0
 40
0.0291307995857158
 50
65.0280334770658754
 51
115.4393347801227065
  0
ARC
  5
AD14
  8
0
 10
346.8656544061227009
 20
29.31242254428415
 30
0.0
 40
0.0283350414788759
 50
244.268266936430507
 51
296.1991013207559149
  0
ARC
  5
AD15
  8
0
 10
346.8869997989049239
 20
29.2512017836533502
 30
0.0
 40
0.0291307995857158
 50
65.0280334770658754
 51
115.4393347801227065
  0
ARC
  5
AD16
  8
0
 10
346.8867883998178172
 20
29.3030333239229783
 30
0.0
 40
0.0283350414788759
 50
244.268266936430507
 51
296.1991013207559149
  0
ARC
  5
AD17
  8
0
 10
346.9064503031908089
 20
29.2550904805283984
 30
0.0
 40
0.0291307995857158
 50
65.0280334770658754
 51
115.4393347801227065
  0
ARC
  5
AD18
  8
0
 10
346.9062389041037022
 20
29.3069220207980301
 30
0.0
 40
0.0283350414788759
 50
244.268266936430507
 51
296.1991013207559149
  0
ARC
  5
AD19
  8
0
 10
346.9231507436429069
 20
29.2599177618539485
 30
0.0
 40
0.0291307995857158
 50
65.0280334770658754
 51
115.4393347801227065
  0
ARC
  5
AD1A
  8
0
 10
346.9229393445556866
 20
29.3117493021235695
 30
0.0
 40
0.0283350414788759
 50
244.268266936430507
 51
296.1991013207559149
  0
ARC
  5
AD1B
  8
0
 10
346.9374696291562827
 20
29.2652872056701412
 30
0.0
 40
0.0291307995857158
 50
65.0280334770658754
 51
115.4393347801227065
  0
ARC
  5
AD1C
  8
0
 10
346.9372582300692898
 20
29.3171187459397693
 30
0.0
 40
0.0283350414788759
 50
244.268266936430507
 51
296.1991013207559149
  0
ARC
  5
AD1D
  8
0
 10
346.9475973880020092
 20
29.2706508623044286
 30
0.0
 40
0.0291307995857158
 50
65.0280334770658754
 51
115.4393347801227065
  0
ARC
  5
AD1E
  8
0
 10
346.9473859889149026
 20
29.3224824025740602
 30
0.0
 40
0.0283350414788759
 50
244.268266936430507
 51
296.1991013207559149
  0
ARC
  5
AD1F
  8
0
 10
346.9537679045923255
 20
29.2763496932235299
 30
0.0
 40
0.0291307995857158
 50
65.0280334770658754
 51
115.4393347801227065
  0
ARC
  5
AD20
  8
0
 10
346.9535565055052189
 20
29.3281812334931615
 30
0.0
 40
0.0283350414788759
 50
244.268266936430507
 51
296.1991013207559149
  0
ARC
  5
AD21
  8
0
 10
346.9562495736765868
 20
29.282182690309579
 30
0.0
 40
0.0291307995857158
 50
65.0280334770658754
 51
115.4393347801227065
  0
ARC
  5
AD22
  8
0
 10
346.9560381745894801
 20
29.3340142305792
 30
0.0
 40
0.0283350414788759
 50
244.268266936430507
 51
296.1991013207559149
  0
ARC
  5
AD23
  8
0
 10
346.9545056057560828
 20
29.28828392327652
 30
0.0
 40
0.0291307995857158
 50
65.0280334770658754
 51
115.4393347801227065
  0
ARC
  5
AD24
  8
0
 10
346.9542942066690898
 20
29.340115463546141
 30
0.0
 40
0.0283350414788759
 50
244.268266936430507
 51
296.1991013207559149
  0
ARC
  5
AD25
  8
0
 10
346.9481473324315175
 20
29.2944102340316697
 30
0.0
 40
0.0291307995857158
 50
65.0280334770658754
 51
115.4393347801227065
  0
ARC
  5
AD26
  8
0
 10
346.9479359333444108
 20
29.3462417743012907
 30
0.0
 40
0.0283350414788759
 50
244.268266936430507
 51
296.1991013207559149
  0
ARC
  5
AD27
  8
0
 10
346.9378212245698023
 20
29.2997811246433315
 30
0.0
 40
0.0291307995857158
 50
65.0280334770658754
 51
115.4393347801227065
  0
ARC
  5
AD28
  8
0
 10
346.9376098254826957
 20
29.351612664912949
 30
0.0
 40
0.0283350414788759
 50
244.268266936430507
 51
296.1991013207559149
  0
ARC
  5
AD29
  8
0
 10
346.9240179439919984
 20
29.3048690220602701
 30
0.0
 40
0.0291307995857158
 50
65.0280334770658754
 51
72.2271507960089423
  0
ARC
  5
AD2A
  8
0
 10
346.9240179439919984
 20
29.3048690220602701
 30
0.0
 40
0.0291307995857158
 50
96.3263392482120082
 51
115.4393347801227065
  0
ARC
  5
AD2B
  8
0
 10
346.9238065449050055
 20
29.3567005623298911
 30
0.0
 40
0.0283350414788759
 50
244.268266936430507
 51
296.1991013207559149
  0
ARC
  5
AD2C
  8
0
 10
346.906866135667201
 20
29.3091601209831616
 30
0.0
 40
0.0291307995857158
 50
112.9653850457707023
 51
115.4393347801227065
  0
ARC
  5
AD2D
  8
0
 10
346.9066547365800943
 20
29.360991661252779
 30
0.0
 40
0.0283350414788759
 50
244.268266936430507
 51
289.4018721962003156
  0
LINE
  5
AD2E
  8
0
 10
346.6274861784868904
 20
29.3476386157472611
 30
0.0
 11
346.6274268311760807
 21
29.4039701117205396
 31
0.0
  0
LINE
  5
AD2F
  8
0
 10
346.9449010169233816
 20
29.4039700581762986
 30
0.0
 11
346.9448420917260023
 21
29.3476386079612688
 31
0.0
  0
LINE
  5
AD30
  8
0
 10
337.0782720181284731
 20
21.7068119884649988
 30
0.0
 11
337.0873146303630961
 21
23.1753769470566198
 31
0.0
  0
LINE
  5
AD31
  8
0
 10
337.0912145564325897
 20
23.1792529334650013
 30
0.0
 11
338.2133842960519132
 21
23.1792529334650013
 31
0.0
  0
ARC
  5
AD32
  8
0
 10
337.0912145564325897
 20
23.1753529334649997
 30
0.0
 40
0.0039
 50
89.9999999999902229
 51
179.6472086807598032
  0
LINE
  5
AD33
  8
0
 10
337.0885435839423963
 20
23.2186230121650006
 30
0.0
 11
338.2160552685422203
 21
23.2186230121650006
 31
0.0
  0
LINE
  5
AD34
  8
0
 10
337.0991835577481766
 20
23.1831188999819311
 30
0.0
 11
337.0994933973922798
 21
23.2186230121650006
 31
0.0
  0
ARC
  5
AD35
  8
0
 10
337.0952837062482104
 20
23.1831529334649993
 30
0.0
 40
0.0039
 50
270.0000000000064801
 51
359.5000000790275863
  0
LINE
  5
AD36
  8
0
 10
337.0806438847500885
 20
23.2265919517945285
 30
0.0
 11
337.0813476427001092
 21
23.3072346263589409
 31
0.0
  0
LINE
  5
AD37
  8
0
 10
337.091098144898524
 20
23.3187523847274285
 30
0.0
 11
337.1871099346665801
 21
23.33568185370682
 31
0.0
  0
ARC
  5
AD38
  8
0
 10
337.0885435839423963
 20
23.2265230121649999
 30
0.0
 40
0.0079
 50
179.5000000065672054
 51
270.0000000000032969
  0
ARC
  5
AD39
  8
0
 10
337.0931471933923262
 20
23.3071316532414095
 30
0.0
 40
0.0118
 50
99.9999999867865341
 51
179.5000000065693087
  0
ARC
  5
AD3A
  8
0
 10
337.6522994262923021
 20
13.7378018759627594
 30
0.0
 40
9.610742797502235
 50
90.0000000002996501
 51
92.624134985549702
  0
ARC
  5
AD3B
  8
0
 10
337.2213012608045233
 20
23.1417732071313509
 30
0.0
 40
0.1969
 50
92.624115530513194
 51
99.9999999867931422
  0
LINE
  5
AD3C
  8
0
 10
337.5420635762923212
 20
22.8527670855719407
 30
0.0
 11
337.5420635762923212
 21
22.182602331717451
 31
0.0
  0
ARC
  5
AD3D
  8
0
 10
337.6522994262923021
 20
22.8524812798650103
 30
0.0
 40
0.1102362204999894
 50
90.0000000259834536
 51
179.851451010934511
  0
ARC
  5
AD3E
  8
0
 10
337.6522994262923021
 20
22.8524812798649997
 30
0.0
 40
0.1140063206435616
 50
90.0000000251268943
 51
194.7766233698120004
  0
ARC
  5
AD3F
  8
0
 10
337.6514218581564251
 20
22.126739911433571
 30
0.0
 40
0.1358462119112709
 50
89.6298660332682289
 51
124.3158103729124946
  0
ARC
  5
AD40
  8
0
 10
337.6194136159081154
 20
22.1734035824381905
 30
0.0
 40
0.0792600233747721
 50
124.2217302037431068
 51
146.7061998081036052
  0
ARC
  5
AD41
  8
0
 10
337.6123119351184982
 20
22.1780674148382104
 30
0.0
 40
0.070763835836045
 50
146.7061998081038041
 51
167.0302217438706123
  0
ARC
  5
AD42
  8
0
 10
337.5926216733171827
 20
22.182602331717451
 30
0.0
 40
0.0505580970249914
 50
167.0302217438704133
 51
212.9765043285214858
  0
ARC
  5
AD43
  8
0
 10
337.6218525555423753
 20
22.2015680509780218
 30
0.0
 40
0.0854026515885158
 50
212.9765043285214858
 51
250.4274470650078968
  0
ARC
  5
AD44
  8
0
 10
337.6560358713721257
 20
22.2969879761429297
 30
0.0
 40
0.1867606030382246
 50
250.3530700278662096
 51
268.8536296359724815
  0
ARC
  5
AD45
  8
0
 10
337.6516756483804897
 20
22.1198264588444715
 30
0.0
 40
0.1297403963890942
 50
89.7245269976080806
 51
117.5243856590177955
  0
ARC
  5
AD46
  8
0
 10
337.6323920084598171
 20
22.1565004540391612
 30
0.0
 40
0.0883060350326573
 50
117.4251168030543937
 51
147.2377082700776043
  0
ARC
  5
AD47
  8
0
 10
337.600289081818687
 20
22.1771594881683995
 30
0.0
 40
0.0501302103515985
 50
147.2377082700776043
 51
184.1232621916697099
  0
ARC
  5
AD48
  8
0
 10
337.5996263399554209
 20
22.1771117117760994
 30
0.0
 40
0.0494657486439127
 50
184.1232621916697099
 51
227.2916561146722927
  0
ARC
  5
AD49
  8
0
 10
337.6355356891277779
 20
22.21601493178526
 30
0.0
 40
0.102408565768289
 50
227.2916561146722927
 51
246.6476734985795076
  0
ARC
  5
AD4A
  8
0
 10
337.6496817787652844
 20
22.2480133612790496
 30
0.0
 40
0.1373934570976683
 50
246.5210496322056883
 51
263.9975247707598101
  0
ARC
  5
AD4B
  8
0
 10
337.6515335692009785
 20
22.1360358958963204
 30
0.0
 40
0.0986503462215069
 50
89.5551884139846237
 51
124.3787259464996993
  0
ARC
  5
AD4C
  8
0
 10
337.625996371357985
 20
22.1731477727546711
 30
0.0
 40
0.053601339480699
 50
124.2495702187522966
 51
152.7270957060106014
  0
ARC
  5
AD4D
  8
0
 10
337.6128032195607034
 20
22.1799493668264489
 30
0.0
 40
0.0387581276899721
 50
152.7270957060106014
 51
216.2866429646570907
  0
ARC
  5
AD4E
  8
0
 10
337.6236363375390965
 20
22.1879031955744885
 30
0.0
 40
0.0521976156596123
 50
216.2866429646570907
 51
238.8993024369273996
  0
ARC
  5
AD4F
  8
0
 10
337.6479030186284831
 20
22.2276124917237006
 30
0.0
 40
0.0987342927886599
 50
238.7443505252207103
 51
264.9780256914290817
  0
ARC
  5
AD50
  8
0
 10
337.6553048084084026
 20
22.3128760388909413
 30
0.0
 40
0.1843184886962388
 50
265.0061290928355788
 51
269.0657294001379114
  0
LINE
  5
AD51
  8
0
 10
337.091098144898524
 20
23.3187523847274285
 30
0.0
 11
338.2135007075859789
 21
23.3187523847274285
 31
0.0
  0
LINE
  5
AD52
  8
0
 10
337.2122832402960739
 20
23.3384665860649996
 30
0.0
 11
338.0923156121883721
 21
23.3384665860649996
 31
0.0
  0
LINE
  5
AD53
  8
0
 10
338.2263268343560867
 20
21.7068119884649988
 30
0.0
 11
338.2172842221212932
 21
23.1753769470566198
 31
0.0
  0
ARC
  5
AD54
  8
0
 10
338.2133842960519132
 20
23.1753529334649997
 30
0.0
 40
0.0039
 50
0.3527913192401719
 51
90.0000000000097771
  0
LINE
  5
AD55
  8
0
 10
338.2054152947363264
 20
23.1831188999819311
 30
0.0
 11
338.20510545509228
 21
23.2186230121650006
 31
0.0
  0
ARC
  5
AD56
  8
0
 10
338.2093151462364062
 20
23.1831529334649993
 30
0.0
 40
0.0039
 50
180.4999999209723001
 51
269.9999999999902229
  0
LINE
  5
AD57
  8
0
 10
338.2239549677344144
 20
23.2265919517945285
 30
0.0
 11
338.2232512097843937
 21
23.3072346263589409
 31
0.0
  0
LINE
  5
AD58
  8
0
 10
338.2135007075859789
 20
23.3187523847274285
 30
0.0
 11
338.1174889178179228
 21
23.33568185370682
 31
0.0
  0
ARC
  5
AD59
  8
0
 10
338.2160552685422203
 20
23.2265230121649999
 30
0.0
 40
0.0079
 50
269.9999999999968168
 51
0.4999999934327551
  0
ARC
  5
AD5A
  8
0
 10
338.2114516590921767
 20
23.3071316532414095
 30
0.0
 40
0.0118
 50
0.4999999934306912
 51
80.0000000132134943
  0
ARC
  5
AD5B
  8
0
 10
337.6522994261922008
 20
13.7378018759627594
 30
0.0
 40
9.610742797502235
 50
87.3758650144502838
 51
89.9999999997003641
  0
ARC
  5
AD5C
  8
0
 10
338.0832975916799796
 20
23.1417732071313509
 30
0.0
 40
0.1969
 50
80.000000013206872
 51
87.3758844694867918
  0
LINE
  5
AD5D
  8
0
 10
337.7625352761921818
 20
22.8527670855719407
 30
0.0
 11
337.7625352761921818
 21
22.182602331717451
 31
0.0
  0
ARC
  5
AD5E
  8
0
 10
337.6522994261923145
 20
22.8524812798650103
 30
0.0
 40
0.110236220499988
 50
0.1485489890649282
 51
89.9999999740165464
  0
ARC
  5
AD5F
  8
0
 10
337.6522994261923145
 20
22.8524812798649997
 30
0.0
 40
0.1140063206435616
 50
345.2233766301878859
 51
89.9999999748698656
  0
ARC
  5
AD60
  8
0
 10
337.6531769943280779
 20
22.126739911433571
 30
0.0
 40
0.1358462119112709
 50
55.6841896270873704
 51
90.3701339667317711
  0
ARC
  5
AD61
  8
0
 10
337.6851852365763875
 20
22.1734035824381905
 30
0.0
 40
0.0792600233747721
 50
33.2938001918963309
 51
55.7782697962568932
  0
ARC
  5
AD62
  8
0
 10
337.6922869173661184
 20
22.1780674148382104
 30
0.0
 40
0.070763835836045
 50
12.9697782561293398
 51
33.2938001918961604
  0
ARC
  5
AD63
  8
0
 10
337.7119771791673202
 20
22.182602331717451
 30
0.0
 40
0.0505580970249914
 50
327.0234956714783721
 51
12.9697782561295405
  0
ARC
  5
AD64
  8
0
 10
337.6827462969421276
 20
22.2015680509780218
 30
0.0
 40
0.0854026515885158
 50
289.572552934992018
 51
327.0234956714783721
  0
ARC
  5
AD65
  8
0
 10
337.6485629811123772
 20
22.2969879761429297
 30
0.0
 40
0.1867606030382246
 50
271.1463703640275185
 51
289.6469299721338189
  0
ARC
  5
AD66
  8
0
 10
337.6529232041040132
 20
22.1198264588444715
 30
0.0
 40
0.1297403963890942
 50
62.4756143409821476
 51
90.2754730023919052
  0
ARC
  5
AD67
  8
0
 10
337.6722068440246858
 20
22.1565004540391612
 30
0.0
 40
0.0883060350326573
 50
32.7622917299224028
 51
62.5748831969456205
  0
ARC
  5
AD68
  8
0
 10
337.7043097706658159
 20
22.1771594881683995
 30
0.0
 40
0.0501302103515985
 50
355.8767378083302901
 51
32.7622917299224028
  0
ARC
  5
AD69
  8
0
 10
337.704972512529082
 20
22.1771117117760994
 30
0.0
 40
0.0494657486439127
 50
312.7083438853276789
 51
355.8767378083302901
  0
ARC
  5
AD6A
  8
0
 10
337.669063163356725
 20
22.21601493178526
 30
0.0
 40
0.102408565768289
 50
293.3523265014205208
 51
312.7083438853276789
  0
ARC
  5
AD6B
  8
0
 10
337.6549170737192185
 20
22.2480133612790496
 30
0.0
 40
0.1373934570976683
 50
276.0024752292401899
 51
293.4789503677943117
  0
ARC
  5
AD6C
  8
0
 10
337.6530652832835244
 20
22.1360358958963204
 30
0.0
 40
0.0986503462215069
 50
55.621274053500251
 51
90.4448115860153621
  0
ARC
  5
AD6D
  8
0
 10
337.6786024811265179
 20
22.1731477727546711
 30
0.0
 40
0.053601339480699
 50
27.2729042939894093
 51
55.7504297812477105
  0
ARC
  5
AD6E
  8
0
 10
337.6917956329239132
 20
22.1799493668264489
 30
0.0
 40
0.0387581276899721
 50
323.7133570353427103
 51
27.2729042939894093
  0
ARC
  5
AD6F
  8
0
 10
337.6809625149455201
 20
22.1879031955744885
 30
0.0
 40
0.0521976156596123
 50
301.1006975630725151
 51
323.7133570353429945
  0
ARC
  5
AD70
  8
0
 10
337.6566958338560198
 20
22.2276124917237006
 30
0.0
 40
0.0987342927886599
 50
275.0219743085708046
 51
301.2556494747793181
  0
ARC
  5
AD71
  8
0
 10
337.6492940440761004
 20
22.3128760388909413
 30
0.0
 40
0.1843184886962388
 50
270.9342705998620886
 51
274.9938709071644212
  0
LINE
  5
AD72
  8
0
 10
335.6146065087194188
 20
21.7068119884649988
 30
0.0
 11
365.0443240804921743
 21
21.7068119884649988
 31
0.0
  0
LINE
  5
AD73
  8
0
 10
371.3924595405923128
 20
21.7068119884649988
 30
0.0
 11
378.9515146586921901
 21
21.7068119884649988
 31
0.0
  0
LINE
  5
AD74
  8
0
 10
383.0420808003922275
 20
21.7068119884649988
 30
0.0
 11
390.4829957610921838
 21
21.7068119884649988
 31
0.0
  0
ARC
  5
AD75
  8
0
 10
383.0420808003922275
 20
21.6871119884649985
 30
0.0
 40
0.0197
 50
90.0
 51
180.0
  0
LINE
  5
AD76
  8
0
 10
393.727120170474393
 20
21.7068119884649988
 30
0.0
 11
398.6483500918100162
 21
21.7068119884649988
 31
0.0
  0
LINE
  5
AD77
  8
0
 10
335.3688374932921761
 20
21.5099615947649987
 30
0.0
 11
365.2900973358923125
 21
21.5099615947649987
 31
0.0
  0
LINE
  5
AD78
  8
0
 10
335.5310971978640282
 20
21.6722212993259298
 30
0.0
 11
335.3688374932921761
 21
21.5099615947649987
 31
0.0
  0
ARC
  5
AD79
  8
0
 10
335.6146065087194188
 20
21.5887119884649898
 30
0.0
 40
0.1181
 50
90.0
 51
134.9999999980792893
  0
LINE
  5
AD7A
  8
0
 10
336.8708183874746283
 20
20.8054591747209692
 30
0.0
 11
337.1548912421284854
 21
15.3850262053471294
 31
0.0
  0
ARC
  5
AD7B
  8
0
 10
338.1770884339035206
 20
15.4385972901529698
 30
0.0
 40
1.0236000000000001
 50
182.999999999751509
 51
268.000001324672894
  0
LINE
  5
AD7C
  8
0
 10
338.141365332730004
 20
14.4156208387903106
 30
0.0
 11
355.8965137044144171
 21
13.7955978062085602
 31
0.0
  0
ARC
  5
AD7D
  8
0
 10
355.8951154668167192
 20
13.7562226084075796
 30
0.0
 40
0.0394000161198684
 50
11.9819132782949005
 51
87.9662460454145929
  0
LINE
  5
AD7E
  8
0
 10
355.8965137044144171
 20
13.7955978062085602
 30
0.0
 11
360.5891927774578107
 21
13.7955978062637907
 31
0.0
  0
LINE
  5
AD7F
  8
0
 10
360.5891927774578107
 20
13.7955978062637907
 30
0.0
 11
362.4885515442302903
 21
13.8619248759236502
 31
0.0
  0
ARC
  5
AD80
  8
0
 10
362.4528284194146863
 20
14.8849013264607102
 30
0.0
 40
1.0236000000000001
 50
271.9999999994952873
 51
357.0000000001180069
  0
LINE
  5
AD81
  8
0
 10
363.4750256111896078
 20
14.8313302416525303
 30
0.0
 11
363.7881144472921733
 21
20.8054211189649898
 31
0.0
  0
LINE
  5
AD82
  8
0
 10
335.9278926114923252
 20
20.8800403349649883
 30
0.0
 11
335.9593886744921747
 21
20.8800403349649883
 31
0.0
  0
LINE
  5
AD83
  8
0
 10
336.4647522937672193
 20
20.8800403349649883
 30
0.0
 11
364.1984203630341881
 21
20.8800403349649883
 31
0.0
  0
ARC
  5
AD84
  8
0
 10
342.4948020602922725
 20
21.0375403349650014
 30
0.0
 40
0.1575
 50
270.0
 51
0.0
  0
ARC
  5
AD85
  8
0
 10
341.2349989106921839
 20
21.0375403349650014
 30
0.0
 40
0.1575
 50
180.0
 51
270.0
  0
LINE
  5
AD86
  8
0
 10
336.114722766292175
 20
21.5099615947649987
 30
0.0
 11
336.2366006136048213
 21
21.0551072764856997
 31
0.0
  0
ARC
  5
AD87
  8
0
 10
336.4647522937672193
 20
21.1162403349649885
 30
0.0
 40
0.2362
 50
195.0000000065500956
 51
270.0
  0
ARC
  5
AD88
  8
0
 10
336.7922262430893738
 20
20.8013403349650012
 30
0.0
 40
0.0787
 50
2.999999999746954
 51
90.0
  0
LINE
  5
AD89
  8
0
 10
335.9278926114923252
 20
21.5099615947649987
 30
0.0
 11
335.9278926114923252
 21
20.8800403349649883
 31
0.0
  0
LINE
  5
AD8A
  8
0
 10
335.9593886744921747
 20
20.8800403349649883
 30
0.0
 11
335.9593886744921747
 21
21.5099615947649987
 31
0.0
  0
LINE
  5
AD8B
  8
0
 10
365.1278356369027733
 20
21.6721832435699504
 30
0.0
 11
365.2900973358923125
 21
21.5099615947649987
 31
0.0
  0
ARC
  5
AD8C
  8
0
 10
365.0443263260473827
 20
21.5886739327090105
 30
0.0
 40
0.1181
 50
45.0000000019207533
 51
90.0
  0
LINE
  5
AD8D
  8
0
 10
364.7310402232745901
 20
20.8800022792090196
 30
0.0
 11
364.6995441602746268
 21
20.8800022792090196
 31
0.0
  0
LINE
  5
AD8E
  8
0
 10
364.5442100684746265
 20
21.5099235390090087
 30
0.0
 11
364.4223322211620939
 21
21.0550692207297203
 31
0.0
  0
ARC
  5
AD8F
  8
0
 10
364.1941805409996959
 20
21.1162022792090092
 30
0.0
 40
0.2362
 50
270.0
 51
344.999999993449876
  0
ARC
  5
AD90
  8
0
 10
363.8667065916774845
 20
20.801302279209029
 30
0.0
 40
0.0787
 50
90.0
 51
177.0000000002530953
  0
LINE
  5
AD91
  8
0
 10
364.7310402232745901
 20
21.5099235390090087
 30
0.0
 11
364.7310402232745901
 21
20.8800022792090196
 31
0.0
  0
LINE
  5
AD92
  8
0
 10
364.6995441602746268
 20
20.8800022792090196
 30
0.0
 11
364.6995441602746268
 21
21.5099235390090087
 31
0.0
  0
LINE
  5
AD93
  8
0
 10
371.3924595405923128
 20
21.7068119884649988
 30
0.0
 11
371.3924595405923128
 21
21.529646634165001
 31
0.0
  0
LINE
  5
AD94
  8
0
 10
383.0223808003922841
 20
21.6871119884649985
 30
0.0
 11
383.0223808003922841
 21
21.6477718309649987
 31
0.0
  0
LINE
  5
AD95
  8
0
 10
393.7074201704743928
 20
21.6871119884650092
 30
0.0
 11
393.7074201704743928
 21
21.6477718309650093
 31
0.0
  0
LINE
  5
AD96
  8
0
 10
393.727120170474393
 20
21.6280718309649984
 30
0.0
 11
398.6483500918100731
 21
21.6280718309649984
 31
0.0
  0
ARC
  5
AD97
  8
0
 10
393.9882696706479237
 20
21.5886718309650014
 30
0.0
 40
0.0394
 50
1.999999997954794
 51
90.0
  0
ARC
  5
AD98
  8
0
 10
383.0420808003922275
 20
21.6477718309649916
 30
0.0
 40
0.0197
 50
179.9999999999947988
 51
270.0
  0
ARC
  5
AD99
  8
0
 10
393.727120170474393
 20
21.6477718309650093
 30
0.0
 40
0.0197
 50
179.9999999999934914
 51
269.999999999980389
  0
ARC
  5
AD9A
  8
0
 10
393.727120170474393
 20
21.6871119884649985
 30
0.0
 40
0.0197
 50
90.0000000000195257
 51
179.9999999999664055
  0
LINE
  5
AD9B
  8
0
 10
383.0420808003922275
 20
21.6280718309649984
 30
0.0
 11
390.4829957610921838
 21
21.6280718309649984
 31
0.0
  0
ARC
  5
AD9C
  8
0
 10
383.4174035288913274
 20
21.5886718309650014
 30
0.0
 40
0.0394
 50
1.999999999514503
 51
90.0
  0
LINE
  5
AD9D
  8
0
 10
360.1628317869025864
 20
13.5965757680649997
 30
0.0
 11
356.3228746954923167
 21
13.5965757680649997
 31
0.0
  0
LINE
  5
AD9E
  8
0
 10
355.9336570820378256
 20
13.7644021662437392
 30
0.0
 11
355.9538650887969879
 21
13.6691831119957907
 31
0.0
  0
ARC
  5
AD9F
  8
0
 10
356.0308504686857987
 20
13.6855214498362905
 30
0.0
 40
0.0787
 50
191.981905204625491
 51
268.0000000165904908
  0
LINE
  5
ADA0
  8
0
 10
356.0281038783180065
 20
13.6068693917490897
 30
0.0
 11
356.3228746957818771
 21
13.5965757680649997
 31
0.0
  0
ARC
  5
ADA1
  8
0
 10
360.5905910160475969
 20
13.7562226082996606
 30
0.0
 40
0.0394000163181263
 50
92.0337553880337822
 51
168.0180866224563943
  0
LINE
  5
ADA2
  8
0
 10
360.5520494006468084
 20
13.7644021662437392
 30
0.0
 11
360.5318413938874755
 21
13.6691831119957907
 31
0.0
  0
ARC
  5
ADA3
  8
0
 10
360.4548560139987785
 20
13.6855214498362905
 30
0.0
 40
0.0787
 50
271.9999999834095092
 51
348.0180947953742816
  0
LINE
  5
ADA4
  8
0
 10
360.4576026043665138
 20
13.6068693917490897
 30
0.0
 11
360.1628317869025864
 21
13.5965757680649997
 31
0.0
  0
LINE
  5
ADA5
  8
0
 10
341.0774989106923272
 20
21.5099615947649987
 30
0.0
 11
341.0774989106923272
 21
21.0375403349650014
 31
0.0
  0
LINE
  5
ADA6
  8
0
 10
342.6523020602921861
 20
21.5099615947649987
 30
0.0
 11
342.6523020602921861
 21
21.0375403349650014
 31
0.0
  0
LINE
  5
ADA7
  8
0
 10
341.7271052098922723
 20
21.391851358564999
 30
0.0
 11
342.0026957610922977
 21
21.391851358564999
 31
0.0
  0
ARC
  5
ADA8
  8
0
 10
341.7271052098922723
 20
21.2146860042650012
 30
0.0
 40
0.1771653543
 50
90.0
 51
270.0
  0
LINE
  5
ADA9
  8
0
 10
341.7271052098922723
 20
21.0375206499649998
 30
0.0
 11
342.0026957610922977
 21
21.0375206499649998
 31
0.0
  0
ARC
  5
ADAA
  8
0
 10
342.0026957610922977
 20
21.2146860042650012
 30
0.0
 40
0.1771653543
 50
270.0
 51
90.0
  0
ARC
  5
ADAB
  8
0
 10
360.1326367059921836
 20
21.0375403349650014
 30
0.0
 40
0.1575
 50
180.0
 51
270.0
  0
ARC
  5
ADAC
  8
0
 10
361.3924398555922721
 20
21.0375403349650014
 30
0.0
 40
0.1575
 50
270.0
 51
0.0
  0
LINE
  5
ADAD
  8
0
 10
361.5499398555921857
 20
21.5099615947649987
 30
0.0
 11
361.5499398555921857
 21
21.0375403349650014
 31
0.0
  0
LINE
  5
ADAE
  8
0
 10
359.9751367059923268
 20
21.5099615947649987
 30
0.0
 11
359.9751367059923268
 21
21.0375403349650014
 31
0.0
  0
LINE
  5
ADAF
  8
0
 10
360.9003335563921837
 20
21.391851358564999
 30
0.0
 11
360.624743005192272
 21
21.391851358564999
 31
0.0
  0
ARC
  5
ADB0
  8
0
 10
360.9003335563921837
 20
21.2146860042650012
 30
0.0
 40
0.1771653543
 50
270.0
 51
90.0
  0
LINE
  5
ADB1
  8
0
 10
360.9003335563921837
 20
21.0375206499649998
 30
0.0
 11
360.624743005192272
 21
21.0375206499649998
 31
0.0
  0
ARC
  5
ADB2
  8
0
 10
360.624743005192272
 20
21.2146860042650012
 30
0.0
 40
0.1771653543
 50
90.0
 51
270.0
  0
ARC
  5
ADB3
  8
0
 10
351.9436209578922785
 20
21.0375403349650014
 30
0.0
 40
0.1575
 50
270.0
 51
0.0
  0
ARC
  5
ADB4
  8
0
 10
350.6838178082923037
 20
21.0375403349650014
 30
0.0
 40
0.1575
 50
180.0
 51
270.0
  0
LINE
  5
ADB5
  8
0
 10
350.5263178082922764
 20
21.5099615947649987
 30
0.0
 11
350.5263178082922764
 21
21.0375403349650014
 31
0.0
  0
LINE
  5
ADB6
  8
0
 10
352.1011209578923058
 20
21.5099615947649987
 30
0.0
 11
352.1011209578923058
 21
21.0375403349650014
 31
0.0
  0
LINE
  5
ADB7
  8
0
 10
351.1759241074922784
 20
21.391851358564999
 30
0.0
 11
351.4515146586921901
 21
21.391851358564999
 31
0.0
  0
ARC
  5
ADB8
  8
0
 10
351.1759241074922784
 20
21.2146860042650012
 30
0.0
 40
0.1771653543
 50
90.0
 51
270.0
  0
LINE
  5
ADB9
  8
0
 10
351.1759241074922784
 20
21.0375206499649998
 30
0.0
 11
351.4515146586921901
 21
21.0375206499649998
 31
0.0
  0
ARC
  5
ADBA
  8
0
 10
351.4515146586921901
 20
21.2146860042650012
 30
0.0
 40
0.1771653543
 50
270.0
 51
90.0
  0
LINE
  5
ADBB
  8
0
 10
371.7566512466921722
 20
21.529646634165001
 30
0.0
 11
371.9519303842192812
 21
15.9375837905243394
 31
0.0
  0
ARC
  5
ADBC
  8
0
 10
372.4240426109032001
 20
15.9540703127649905
 30
0.0
 40
0.4724000000000001
 50
181.9999999998046007
 51
270.0
  0
LINE
  5
ADBD
  8
0
 10
372.4240821509923194
 20
15.4816703127649902
 30
0.0
 11
377.9199315883813028
 21
15.4816703127649902
 31
0.0
  0
ARC
  5
ADBE
  8
0
 10
373.7093587531921912
 20
15.4422703127650003
 30
0.0
 40
0.0394
 50
0.0
 51
90.0
  0
ARC
  5
ADBF
  8
0
 10
373.6149927682607199
 20
15.4029703127649906
 30
0.0
 40
0.0787
 50
90.0
 51
162.0000000016829915
  0
LINE
  5
ADC0
  8
0
 10
373.8274587531922748
 20
15.2007616442649898
 30
0.0
 11
376.5165154460922281
 21
15.2007616442649898
 31
0.0
  0
LINE
  5
ADC1
  8
0
 10
373.7487587531921918
 20
15.4422703127650003
 30
0.0
 11
373.7487587531921918
 21
15.2794616442649893
 31
0.0
  0
ARC
  5
ADC2
  8
0
 10
373.8274587531922748
 20
15.2794616442649893
 30
0.0
 40
0.0787
 50
180.0
 51
270.0
  0
LINE
  5
ADC3
  8
0
 10
373.5401446204276112
 20
15.4272899502201
 30
0.0
 11
373.4603540959569727
 21
15.1817199666098901
 31
0.0
  0
LINE
  5
ADC4
  8
0
 10
373.3855059481238072
 20
15.1273396040649892
 30
0.0
 11
373.0214603771606789
 21
15.1273396040649892
 31
0.0
  0
ARC
  5
ADC5
  8
0
 10
373.3855059481238072
 20
15.2060396040649906
 30
0.0
 40
0.0787
 50
270.0
 51
342.0000000016830199
  0
ARC
  5
ADC6
  8
0
 10
372.7919735570238231
 20
15.4029703127649906
 30
0.0
 40
0.0787
 50
17.9999999983170085
 51
90.0
  0
LINE
  5
ADC7
  8
0
 10
372.8668217048569886
 20
15.4272899502201
 30
0.0
 11
372.9466122293276271
 21
15.1817199666098901
 31
0.0
  0
ARC
  5
ADC8
  8
0
 10
373.0214603771606789
 20
15.2060396040649906
 30
0.0
 40
0.0787
 50
197.9999999983170937
 51
270.0
  0
LINE
  5
ADC9
  8
0
 10
371.3924595405923128
 20
21.529646634165001
 30
0.0
 11
378.9515146586921901
 21
21.529646634165001
 31
0.0
  0
LINE
  5
ADCA
  8
0
 10
378.9515146586921901
 20
21.7068119884649988
 30
0.0
 11
378.9515146586921901
 21
21.529646634165001
 31
0.0
  0
LINE
  5
ADCB
  8
0
 10
378.5873229525922739
 20
21.529646634165001
 30
0.0
 11
378.3920438150652217
 21
15.9375837905243394
 31
0.0
  0
ARC
  5
ADCC
  8
0
 10
377.9199315883813028
 20
15.9540703127649905
 30
0.0
 40
0.4724000000000001
 50
270.0
 51
358.0000000001954277
  0
ARC
  5
ADCD
  8
0
 10
376.6346154460923117
 20
15.4422703127650003
 30
0.0
 40
0.0394
 50
90.0
 51
180.0
  0
ARC
  5
ADCE
  8
0
 10
376.7289814310238967
 20
15.4029703127649906
 30
0.0
 40
0.0787
 50
17.9999999983170085
 51
90.0
  0
LINE
  5
ADCF
  8
0
 10
376.5952154460923111
 20
15.4422703127650003
 30
0.0
 11
376.5952154460923111
 21
15.2794616442649893
 31
0.0
  0
ARC
  5
ADD0
  8
0
 10
376.5165154460922281
 20
15.2794616442649893
 30
0.0
 40
0.0787
 50
270.0
 51
0.0
  0
LINE
  5
ADD1
  8
0
 10
376.8038295788568917
 20
15.4272899502201
 30
0.0
 11
376.8836201033274733
 21
15.1817199666098901
 31
0.0
  0
LINE
  5
ADD2
  8
0
 10
376.9584682511606957
 20
15.1273396040649892
 30
0.0
 11
377.322513822123824
 21
15.1273396040649892
 31
0.0
  0
ARC
  5
ADD3
  8
0
 10
376.9584682511606957
 20
15.2060396040649906
 30
0.0
 40
0.0787
 50
197.9999999983170937
 51
270.0
  0
ARC
  5
ADD4
  8
0
 10
377.5520006422606798
 20
15.4029703127649906
 30
0.0
 40
0.0787
 50
90.0
 51
162.0000000016829063
  0
LINE
  5
ADD5
  8
0
 10
377.4771524944275143
 20
15.4272899502201
 30
0.0
 11
377.3973619699568758
 21
15.1817199666098901
 31
0.0
  0
ARC
  5
ADD6
  8
0
 10
377.322513822123824
 20
15.2060396040649906
 30
0.0
 40
0.0787
 50
270.0
 51
342.0000000016830199
  0
LINE
  5
ADD7
  8
0
 10
383.9881538782634038
 20
17.2973631695649885
 30
0.0
 11
386.7625382807423193
 21
17.2973631695649885
 31
0.0
  0
LINE
  5
ADD8
  8
0
 10
384.0947130948923132
 20
17.2186230121649899
 30
0.0
 11
384.321595383082979
 21
17.2186230121649899
 31
0.0
  0
LINE
  5
ADD9
  8
0
 10
384.0750130948923129
 20
17.2383230121649902
 30
0.0
 11
384.0750130948923129
 21
17.2973631695649885
 31
0.0
  0
ARC
  5
ADDA
  8
0
 10
384.0947130948923132
 20
17.2383230121649902
 30
0.0
 40
0.0197
 50
179.9999999999961062
 51
270.0
  0
LINE
  5
ADDB
  8
0
 10
383.5934148209931891
 20
17.6773239976373517
 30
0.0
 11
383.4567795274758737
 21
21.5900468711347386
 31
0.0
  0
ARC
  5
ADDC
  8
0
 10
383.9890770921622902
 20
17.6933487411550985
 30
0.0
 40
0.3959866477943947
 50
182.3192725379994954
 51
269.8664189608203969
  0
LINE
  5
ADDD
  8
0
 10
384.3412784378922993
 20
17.2383230121649902
 30
0.0
 11
384.3412784378922993
 21
17.2973631695649885
 31
0.0
  0
ARC
  5
ADDE
  8
0
 10
384.321578437892299
 20
17.2383230121649902
 30
0.0
 40
0.0197
 50
270.0
 51
0.0000000000038676
  0
LINE
  5
ADDF
  8
0
 10
394.0276456692325269
 20
21.5900468711336693
 30
0.0
 11
394.1340346534299215
 21
18.5434649700272587
 31
0.0
  0
ARC
  5
ADE0
  8
0
 10
394.5274948220277906
 20
18.5572049018649885
 30
0.0
 40
0.3937
 50
181.9999999979546885
 51
270.0
  0
LINE
  5
ADE1
  8
0
 10
394.5274948220277906
 20
18.1635049018650001
 30
0.0
 11
397.8479754402567892
 21
18.1635049018650001
 31
0.0
  0
LINE
  5
ADE2
  8
0
 10
394.8117658397923151
 20
18.084764744364989
 30
0.0
 11
394.9593737137922744
 21
18.084764744364989
 31
0.0
  0
LINE
  5
ADE3
  8
0
 10
394.7920658397923148
 20
18.1044647443649893
 30
0.0
 11
394.7920658397923148
 21
18.1635049017649912
 31
0.0
  0
ARC
  5
ADE4
  8
0
 10
394.8117658397923151
 20
18.1044647443649893
 30
0.0
 40
0.0197
 50
179.9999999999961062
 51
270.0
  0
LINE
  5
ADE5
  8
0
 10
394.9790737137922179
 20
18.1044647444650018
 30
0.0
 11
394.9790737137922179
 21
18.1635049018650001
 31
0.0
  0
ARC
  5
ADE6
  8
0
 10
394.9593737137922744
 20
18.1044647444649911
 30
0.0
 40
0.0197
 50
270.0
 51
0.0000000000038676
  0
LINE
  5
ADE7
  8
0
 10
398.6680500918100734
 20
21.6871119884650092
 30
0.0
 11
398.6680500918100734
 21
21.6477718309650093
 31
0.0
  0
ARC
  5
ADE8
  8
0
 10
398.3872005916367129
 20
21.5886718309650014
 30
0.0
 40
0.0394
 50
90.0
 51
178.0000000020451978
  0
ARC
  5
ADE9
  8
0
 10
398.6483500918100731
 20
21.6477718309650093
 30
0.0
 40
0.0197
 50
270.000000000019611
 51
0.0000000000065138
  0
ARC
  5
ADEA
  8
0
 10
398.6483500918100162
 20
21.6871119884649985
 30
0.0
 40
0.0197
 50
0.0000000000335867
 51
89.9999999999804601
  0
LINE
  5
ADEB
  8
0
 10
398.3478245930519961
 20
21.5900468711336693
 30
0.0
 11
398.2414356088547152
 21
18.5434649700272587
 31
0.0
  0
ARC
  5
ADEC
  8
0
 10
397.8479754402567892
 20
18.5572049018649885
 30
0.0
 40
0.3937
 50
270.0
 51
358.0000000020452262
  0
LINE
  5
ADED
  8
0
 10
397.5637044224923216
 20
18.084764744364989
 30
0.0
 11
397.4160965484923054
 21
18.084764744364989
 31
0.0
  0
LINE
  5
ADEE
  8
0
 10
397.5834044224922081
 20
18.1044647443649893
 30
0.0
 11
397.5834044224922081
 21
18.1635049017649912
 31
0.0
  0
ARC
  5
ADEF
  8
0
 10
397.5637044224923216
 20
18.1044647443649893
 30
0.0
 40
0.0197
 50
270.0
 51
0.0000000000038676
  0
LINE
  5
ADF0
  8
0
 10
397.3963965484923051
 20
18.1044647444650018
 30
0.0
 11
397.3963965484923051
 21
18.1635049018650001
 31
0.0
  0
ARC
  5
ADF1
  8
0
 10
397.4160965484923054
 20
18.1044647444649911
 30
0.0
 40
0.0197
 50
179.9999999999961062
 51
270.0
  0
ARC
  5
ADF2
  8
0
 10
390.4829957610921838
 20
21.6871119884649985
 30
0.0
 40
0.0197
 50
0.0
 51
90.0
  0
LINE
  5
ADF3
  8
0
 10
390.5026957610921841
 20
21.6871119884649985
 30
0.0
 11
390.5026957610921841
 21
21.6477718309649987
 31
0.0
  0
ARC
  5
ADF4
  8
0
 10
390.4829957610921838
 20
21.6477718309649916
 30
0.0
 40
0.0197
 50
270.0
 51
0.0000000000051907
  0
ARC
  5
ADF5
  8
0
 10
390.1076730325930839
 20
21.5886718309650014
 30
0.0
 40
0.0394
 50
90.0
 51
178.0000000004854996
  0
LINE
  5
ADF6
  8
0
 10
389.536922683221178
 20
17.2973631695649885
 30
0.0
 11
386.7625382807423193
 21
17.2973631695649885
 31
0.0
  0
LINE
  5
ADF7
  8
0
 10
389.4303634665923255
 20
17.2186230121649899
 30
0.0
 11
389.2034811784014892
 21
17.2186230121649899
 31
0.0
  0
LINE
  5
ADF8
  8
0
 10
389.4500634665923258
 20
17.2383230121649902
 30
0.0
 11
389.4500634665923258
 21
17.2973631695649885
 31
0.0
  0
ARC
  5
ADF9
  8
0
 10
389.4303634665923255
 20
17.2383230121649902
 30
0.0
 40
0.0197
 50
270.0
 51
0.0000000000038676
  0
LINE
  5
ADFA
  8
0
 10
389.931661740491279
 20
17.6773239976373517
 30
0.0
 11
390.0682970340085944
 21
21.5900468711347386
 31
0.0
  0
ARC
  5
ADFB
  8
0
 10
389.5359994693222916
 20
17.6933487411550985
 30
0.0
 40
0.3959866477943947
 50
270.1335810391796031
 51
357.6807274620003909
  0
LINE
  5
ADFC
  8
0
 10
389.1837981235922825
 20
17.2383230121649902
 30
0.0
 11
389.1837981235922825
 21
17.2973631695649885
 31
0.0
  0
ARC
  5
ADFD
  8
0
 10
389.2034981235922828
 20
17.2383230121649902
 30
0.0
 40
0.0197
 50
179.9999999999961062
 51
270.0
  0
ENDSEC
  0
EOF
