  0
SECTION
  2
HEADER
  9
$ACADVER
  1
AC1009
  9
$INSBASE
 10
4499.8453925090925622
 20
179.2523552428257858
 30
0.0
  9
$EXTMIN
 10
4492.0895605445548426
 20
179.2455355034275897
 30
-0.0000000000112498
  9
$EXTMAX
 10
4507.5657626337588226
 20
209.9726089015998127
 30
0.0000000000002956
  9
$LIMMIN
 10
0.0
 20
0.0
  9
$LIMMAX
 10
11.6929133858000007
 20
8.2677165353999982
  9
$ORTHOMODE
 70
     0
  9
$REGENMODE
 70
     1
  9
$FILLMODE
 70
     1
  9
$QTEXTMODE
 70
     0
  9
$MIRRTEXT
 70
     0
  9
$DRAGMODE
 70
     2
  9
$LTSCALE
 40
0.6431102362
  9
$OSMODE
 70
  4095
  9
$ATTMODE
 70
     1
  9
$TEXTSIZE
 40
0.2
  9
$TRACEWID
 40
0.05
  9
$TEXTSTYLE
  7
STANDARD
  9
$CLAYER
  8
0
  9
$CELTYPE
  6
BYLAYER
  9
$CECOLOR
 62
   256
  9
$DIMSCALE
 40
1.0
  9
$DIMASZ
 40
0.1875
  9
$DIMEXO
 40
0.0625
  9
$DIMDLI
 40
0.4443307087
  9
$DIMRND
 40
0.0
  9
$DIMDLE
 40
0.0
  9
$DIMEXE
 40
0.125
  9
$DIMTP
 40
0.01
  9
$DIMTM
 40
0.01
  9
$DIMTXT
 40
2.0
  9
$DIMCEN
 40
0.1052362205
  9
$DIMTSZ
 40
0.0
  9
$DIMTOL
 70
     1
  9
$DIMLIM
 70
     0
  9
$DIMTIH
 70
     1
  9
$DIMTOH
 70
     1
  9
$DIMSE1
 70
     0
  9
$DIMSE2
 70
     0
  9
$DIMTAD
 70
     0
  9
$DIMZIN
 70
     0
  9
$DIMBLK
  1

  9
$DIMASO
 70
     1
  9
$DIMSHO
 70
     1
  9
$DIMPOST
  1
\X
  9
$DIMAPOST
  1

  9
$DIMALT
 70
     1
  9
$DIMALTD
 70
     2
  9
$DIMALTF
 40
25.3999999999999986
  9
$DIMLFAC
 40
1.0
  9
$DIMTOFL
 70
     0
  9
$DIMTVP
 40
0.0
  9
$DIMTIX
 70
     0
  9
$DIMSOXD
 70
     0
  9
$DIMSAH
 70
     0
  9
$DIMBLK1
  1

  9
$DIMBLK2
  1

  9
$DIMSTYLE
  2
STANDARD
  9
$DIMCLRD
 70
     0
  9
$DIMCLRE
 70
     0
  9
$DIMCLRT
 70
     0
  9
$DIMTFAC
 40
1.0
  9
$DIMGAP
 40
0.09
  9
$LUNITS
 70
     2
  9
$LUPREC
 70
     4
  9
$SKETCHINC
 40
0.1
  9
$FILLETRAD
 40
0.0
  9
$AUNITS
 70
     0
  9
$AUPREC
 70
     0
  9
$MENU
  1
.
  9
$ELEVATION
 40
0.0
  9
$PELEVATION
 40
0.0
  9
$THICKNESS
 40
0.0
  9
$LIMCHECK
 70
     0
  9
$BLIPMODE
 70
     0
  9
$CHAMFERA
 40
0.0
  9
$CHAMFERB
 40
0.0
  9
$SKPOLY
 70
     0
  9
$TDCREATE
 40
2458060.468368056230247
  9
$TDUPDATE
 40
2460208.5137615739367902
  9
$TDINDWG
 40
0.4772408565
  9
$TDUSRTIMER
 40
0.4772408565
  9
$USRTIMER
 70
     1
  9
$ANGBASE
 50
0.0
  9
$ANGDIR
 70
     0
  9
$PDMODE
 70
     0
  9
$PDSIZE
 40
0.3125
  9
$PLINEWID
 40
0.0
  9
$COORDS
 70
     1
  9
$SPLFRAME
 70
     0
  9
$SPLINETYPE
 70
     6
  9
$SPLINESEGS
 70
     8
  9
$ATTDIA
 70
     1
  9
$ATTREQ
 70
     1
  9
$HANDLING
 70
     1
  9
$HANDSEED
  5
EF2D
  9
$SURFTAB1
 70
     6
  9
$SURFTAB2
 70
     6
  9
$SURFTYPE
 70
     6
  9
$SURFU
 70
     6
  9
$SURFV
 70
     6
  9
$UCSNAME
  2

  9
$UCSORG
 10
0.0
 20
0.0
 30
0.0
  9
$UCSXDIR
 10
1.0
 20
0.0
 30
0.0
  9
$UCSYDIR
 10
0.0
 20
1.0
 30
0.0
  9
$PUCSNAME
  2

  9
$PUCSORG
 10
0.0
 20
0.0
 30
0.0
  9
$PUCSXDIR
 10
1.0
 20
0.0
 30
0.0
  9
$PUCSYDIR
 10
0.0
 20
1.0
 30
0.0
  9
$USERI1
 70
     0
  9
$USERI2
 70
     0
  9
$USERI3
 70
     0
  9
$USERI4
 70
     0
  9
$USERI5
 70
     0
  9
$USERR1
 40
0.0
  9
$USERR2
 40
0.0
  9
$USERR3
 40
0.0
  9
$USERR4
 40
0.0
  9
$USERR5
 40
0.0
  9
$WORLDVIEW
 70
     1
  9
$SHADEDGE
 70
     3
  9
$SHADEDIF
 70
    70
  9
$TILEMODE
 70
     1
  9
$MAXACTVP
 70
    64
  9
$PLIMCHECK
 70
     0
  9
$PEXTMIN
 10
1.0000000000000000E+20
 20
1.0000000000000000E+20
 30
1.0000000000000000E+20
  9
$PEXTMAX
 10
-1.0000000000000000E+20
 20
-1.0000000000000000E+20
 30
-1.0000000000000000E+20
  9
$PLIMMIN
 10
0.0
 20
0.0
  9
$PLIMMAX
 10
12.0
 20
9.0
  9
$UNITMODE
 70
     0
  9
$VISRETAIN
 70
     1
  9
$PLINEGEN
 70
     0
  9
$PSLTSCALE
 70
     1
  0
ENDSEC
  0
SECTION
  2
TABLES
  0
TABLE
  2
VPORT
 70
     1
  0
VPORT
  2
*ACTIVE
 70
     0
 10
0.0
 20
0.0
 11
1.0
 21
1.0
 12
696.2835942063446737
 22
68.613810005763753
 13
0.0
 23
0.0
 14
1.0
 24
1.0
 15
0.0
 25
0.0
 16
0.0
 26
0.0
 36
17.1152628219792007
 17
3803.5440673828129547
 27
125.9952621967499056
 37
0.0
 40
30.9631328608981811
 41
1.4089743589743591
 42
50.0
 43
0.0
 44
0.0
 50
0.0
 51
0.0
 71
     0
 72
   100
 73
     1
 74
     1
 75
     0
 76
     0
 77
     0
 78
     0
  0
ENDTAB
  0
TABLE
  2
LTYPE
 70
     2
  0
LTYPE
  2
CONTINUOUS
 70
     0
  3
Solid line
 72
    65
 73
     0
 40
0.0
  0
LTYPE
  2
PHANTOM2
 70
     0
  3
___ _ _ ___ _ _ ___ _ _ ___ _ _
 72
    65
 73
     6
 40
1.25
 49
0.625
 49
-0.125
 49
0.125
 49
-0.125
 49
0.125
 49
-0.125
  0
ENDTAB
  0
TABLE
  2
LAYER
 70
     2
  0
LAYER
  2
0
 70
     0
 62
   255
  6
CONTINUOUS
  0
LAYER
  2
DEFPOINTS
 70
     0
 62
     7
  6
CONTINUOUS
  0
ENDTAB
  0
TABLE
  2
STYLE
 70
     1
  0
STYLE
  2
STANDARD
 70
     0
 40
0.0
 41
0.8
 50
0.0
 71
     0
 42
0.2
  3
txt
  4

  0
ENDTAB
  0
TABLE
  2
VIEW
 70
     0
  0
ENDTAB
  0
TABLE
  2
UCS
 70
     0
  0
ENDTAB
  0
TABLE
  2
APPID
 70
     9
  0
APPID
  2
ACAD
 70
     0
  0
APPID
  2
ACAD_MLEADERVER
 70
     0
  0
APPID
  2
ACAD_EXEMPT_FROM_CAD_STANDARDS
 70
     0
  0
APPID
  2
ACAD_NAV_VCDISPLAY
 70
     0
  0
APPID
  2
ACAECLAYERSTANDARD
 70
     0
  0
APPID
  2
ACCMTRANSPARENCY
 70
     0
  0
APPID
  2
ACAD_DSTYLE_DIMJAG
 70
     0
  0
APPID
  2
ACAD_DSTYLE_DIMTALN
 70
     0
  0
APPID
  2
ACDBATTR
 70
     0
  0
ENDTAB
  0
TABLE
  2
DIMSTYLE
 70
     1
  0
DIMSTYLE
  2
STANDARD
 70
     0
  3

  4

  5

  6

  7

 40
1.0
 41
0.1875
 42
0.0625
 43
0.38
 44
0.125
 45
0.0
 46
0.0
 47
0.01
 48
0.01
140
0.15625
141
0.09
142
0.0
143
25.3999999999999986
144
1.0
145
0.0
146
1.0
147
0.09
 71
     1
 72
     0
 73
     1
 74
     1
 75
     0
 76
     0
 77
     0
 78
     4
170
     0
171
     2
172
     0
173
     0
174
     0
175
     0
176
     0
177
     0
178
     0
  0
ENDTAB
  0
ENDSEC
  0
SECTION
  2
BLOCKS
  0
BLOCK
  8
0
  2
$MODEL_SPACE
 70
     0
 10
0.0
 20
0.0
 30
0.0
  3
$MODEL_SPACE
  1

  0
ENDBLK
  5
21
  8
0
  0
BLOCK
 67
     1
  8
0
  2
$PAPER_SPACE
 70
     0
 10
0.0
 20
0.0
 30
0.0
  3
$PAPER_SPACE
  1

  0
ENDBLK
  5
1D
 67
     1
  8
0
  0
ENDSEC
  0
SECTION
  2
ENTITIES
  0
ATTDEF
  5
E9B2
  8
DEFPOINTS
 10
4499.8461084167565787
 20
179.2566627033226894
 30
0.0
 40
0.001
  1
K-28415K
  3

  2
MODELNUMBER
 70
     0
1001
ACDBATTR
1070
     0
1070
     1
  0
ATTDEF
  5
E9B3
  8
DEFPOINTS
 10
4499.8461084167565787
 20
179.2549960366561095
 30
0.0
 40
0.001
  1
REACH
  3

  2
TRADENAME
 70
     0
1001
ACDBATTR
1070
     0
1070
     1
  0
ATTDEF
  5
E9B4
  8
DEFPOINTS
 10
4499.8461084167565787
 20
179.2533293699893875
 30
0.0
 40
0.001
  1
TOILET
  3

  2
PRODUCT
 70
     0
1001
ACDBATTR
1070
     0
1070
     1
  0
LINE
  5
ED4E
  8
0
 10
4495.1993732647160869
 20
179.2523552428257858
 30
0.0
 11
4504.4914117534690376
 21
179.2523552428257858
 31
0.0
  0
LINE
  5
ED4F
  8
0
 10
4495.2879199114149742
 20
179.2523558353256874
 30
0.0
 11
4496.1416280990160885
 21
186.8329828482258108
 31
0.0
  0
ARC
  5
ED50
  8
0
 10
4495.6343418362966986
 20
186.5233859422988019
 30
0.0
 40
0.5942975656204572
 50
31.3957249162885113
 51
49.2476226146688632
  0
ARC
  5
ED51
  8
0
 10
4503.2767593130984096
 20
194.5443450172923008
 30
0.0
 40
10.4854000826081606
 50
191.5400577944766098
 51
226.222199880524812
  0
LINE
  5
ED52
  8
0
 10
4492.6537963082173519
 20
192.4467093732257865
 30
0.0
 11
4507.0369927056690358
 21
192.4467093732257865
 31
0.0
  0
LINE
  5
ED53
  8
0
 10
4492.8706273570569465
 20
194.6466552571509112
 30
0.0
 11
4506.8186115817306927
 21
194.6466552571509112
 31
0.0
  0
LINE
  5
ED54
  8
0
 10
4492.7210393758286955
 20
194.8431897333425127
 30
0.0
 11
4506.9697496380549637
 21
194.8431897333425127
 31
0.0
  0
LINE
  5
ED55
  8
0
 10
4493.0685568793551283
 20
194.7880838373849031
 30
0.0
 11
4506.6222315411332602
 21
194.7880838373849031
 31
0.0
  0
LINE
  5
ED56
  8
0
 10
4493.3704110157968898
 20
194.7369026828257859
 30
0.0
 11
4494.6781466961474507
 21
194.7369026828257859
 31
0.0
  0
LINE
  5
ED57
  8
0
 10
4492.5734407323943742
 20
209.8825719869983004
 30
0.0
 11
4507.117348281491104
 21
209.8825719869983004
 31
0.0
  0
LINE
  5
ED58
  8
0
 10
4492.243234675862368
 20
208.2663792237258065
 30
0.0
 11
4507.4475543380222007
 21
208.2663792237258065
 31
0.0
  0
LINE
  5
ED59
  8
0
 10
4492.2489508380449479
 20
208.2863792237257883
 30
0.0
 11
4507.4418381758387113
 21
208.2863792237257883
 31
0.0
  0
LINE
  5
ED5A
  8
0
 10
4498.9384123816398642
 20
209.9691878001453915
 30
0.0
 11
4500.7523766322428855
 21
209.9691878001453915
 31
0.0
  0
LINE
  5
ED5B
  8
0
 10
4498.9005124442155648
 20
209.8825736235257864
 30
0.0
 11
4498.900512443916341
 21
209.9298177182257916
 31
0.0
  0
ARC
  5
ED5C
  8
0
 10
4498.939911039132312
 20
209.9298177184759027
 30
0.0
 40
0.0393985952151947
 50
92.1799627410378264
 51
180.0000003638284909
  0
ARC
  5
ED5D
  8
0
 10
4492.2554731146383347
 20
208.3494741914580004
 30
0.0
 40
0.0634311835384154
 50
224.4850946784621044
 51
264.0981617379662794
  0
ARC
  5
ED5E
  8
0
 10
4492.2636005818076228
 20
208.3502913529841862
 30
0.0
 40
0.06998913771835
 50
183.7939950417473938
 51
220.2963887995738048
  0
ARC
  5
ED5F
  8
0
 10
5295.1329469465590591
 20
113.768558778118404
 30
0.0
 40
808.4900483569898597
 50
173.1873469508113885
 51
173.2821629664638863
  0
ARC
  5
ED60
  8
0
 10
4492.5869765616971563
 20
209.6456208780282964
 30
0.0
 40
0.2373374111198157
 50
93.2694674390917982
 51
173.0655892749624059
  0
ARC
  5
ED61
  8
0
 10
4492.2476797410254221
 20
208.2160082375114882
 30
0.0
 40
0.0505667366604948
 50
95.043090333066246
 51
181.2530196396050997
  0
ARC
  5
ED62
  8
0
 10
-92846.6424230284173973
 20
-2634.7141094415151201
 30
0.0
 40
97380.3467335286695743
 50
1.6659439025967331
 51
1.672934901477112
  0
ARC
  5
ED63
  8
0
 10
4492.6641902072706216
 20
196.3423940801804974
 30
0.0
 40
0.1209871824956521
 50
182.0858591644663989
 51
272.4950765620068864
  0
LINE
  5
ED64
  8
0
 10
4492.6694572074729876
 20
196.221521597633398
 30
0.0
 11
4492.8318909987583538
 21
196.2215219298257978
 31
0.0
  0
ARC
  5
ED65
  8
0
 10
4500.2208320529098273
 20
122.976100586579804
 30
0.0
 40
73.8422036221214171
 50
90.2913114516841517
 51
92.3765376060364929
  0
ARC
  5
ED66
  8
0
 10
4499.7912872007209444
 20
135.7857411851414895
 30
0.0
 40
61.0258541773151109
 50
92.472299115086571
 51
95.5036149030567145
  0
ARC
  5
ED67
  8
0
 10
4511.1887017545714116
 20
17.4972911816543899
 30
0.0
 40
179.8621216327505863
 50
95.5036149030567145
 51
95.7678804170045765
  0
ARC
  5
ED68
  8
0
 10
4493.1458905926310763
 20
196.1213861109422112
 30
0.0
 40
0.3290875584260089
 50
95.7678804170045765
 51
172.592896374609694
  0
LINE
  5
ED69
  8
0
 10
4492.8195492085151272
 20
196.1638116000258094
 30
0.0
 11
4492.6697657283657463
 21
194.9052366771757931
 31
0.0
  0
ARC
  5
ED6A
  8
0
 10
4492.7288225310694543
 20
194.9023140396577105
 30
0.0
 40
0.0591290770735727
 50
177.1668244455661068
 51
239.0186555427588075
  0
ARC
  5
ED6B
  8
0
 10
4492.7323066681901764
 20
194.9081168965323911
 30
0.0
 40
0.0658975598715297
 50
239.0186555427588075
 51
260.155084216027717
  0
ARC
  5
ED6C
  8
0
 10
4493.0691429112121114
 20
194.8480885020537983
 30
0.0
 40
0.0600075205305185
 50
240.2655840708106894
 51
269.4409948626902747
  0
ARC
  5
ED6D
  8
0
 10
4493.0679470870136356
 20
194.8465704558734899
 30
0.0
 40
0.0580973224811836
 50
206.2940225512056998
 51
240.6223911234500008
  0
ARC
  5
ED6E
  8
0
 10
4493.0702201274343679
 20
194.8476935673743071
 30
0.0
 40
0.0606326907368659
 50
184.2600699878233002
 51
206.2940225512056998
  0
ARC
  5
ED6F
  8
0
 10
4493.2700496114093767
 20
194.7257292553119044
 30
0.0
 40
0.0752065992749029
 50
25.9435484795167604
 51
56.0074741904941931
  0
ARC
  5
ED70
  8
0
 10
4493.3730988219749634
 20
194.7764726546051008
 30
0.0
 40
0.0396611518828307
 50
206.7341287108002916
 51
266.114130183578709
  0
LINE
  5
ED71
  8
0
 10
4492.6537963082173519
 20
192.4467093732257865
 30
0.0
 11
4492.6404514599162212
 21
194.4088305959257923
 31
0.0
  0
ARC
  5
ED72
  8
0
 10
4492.9057741077012906
 20
194.399579567498904
 30
0.0
 40
0.2654838770147055
 50
142.5027908525972009
 51
178.0030719139024882
  0
ARC
  5
ED73
  8
0
 10
4492.8803069368777869
 20
194.405759455917007
 30
0.0
 40
0.2417492941907248
 50
115.2725575249144043
 51
139.9898681985407052
  0
ARC
  5
ED74
  8
0
 10
4492.8766950826748143
 20
194.4134098742881065
 30
0.0
 40
0.2332891291789795
 50
96.647422896006745
 51
115.2725575249144043
  0
ARC
  5
ED75
  8
0
 10
4492.8777394046219342
 20
194.4044490290293936
 30
0.0
 40
0.2423106232946672
 50
91.6819272455909555
 51
96.647422896006745
  0
LINE
  5
ED76
  8
0
 10
4492.6472000624389693
 20
194.4597555765982975
 30
0.0
 11
4492.6286062420158487
 21
196.0221356150258032
 31
0.0
  0
ARC
  5
ED77
  8
0
 10
4492.828489567723409
 20
196.0245144182441095
 30
0.0
 40
0.1998974802258439
 50
99.7546321000369289
 51
180.6818425205424887
  0
ARC
  5
ED78
  8
0
 10
4493.4976105246341831
 20
194.4353921226305033
 30
0.0
 40
0.8445180485819276
 50
161.5336402544224086
 51
176.5979647954304141
  0
ARC
  5
ED79
  8
0
 10
4493.3604398183979356
 20
194.4811992625182882
 30
0.0
 40
0.6999009793481035
 50
148.8552191508622116
 51
161.5336402544224086
  0
ARC
  5
ED7A
  8
0
 10
4492.8769403227433941
 20
194.8766991777717124
 30
0.0
 40
0.2303377008783074
 50
272.8940906913126128
 51
300.6051314575943252
  0
ARC
  5
ED7B
  8
0
 10
4492.8323064741789494
 20
194.9521554695413954
 30
0.0
 40
0.3180065802222343
 50
300.6051314575943252
 51
319.7551910325348103
  0
ARC
  5
ED7C
  8
0
 10
4492.4138919445176725
 20
195.3063044438794975
 30
0.0
 40
0.8661782820239281
 50
319.7551910325348103
 51
323.2529032616304221
  0
ARC
  5
ED7D
  8
0
 10
4493.2832899281120262
 20
194.8352320011150027
 30
0.0
 40
0.7652761960886175
 50
348.5439137845938262
 51
352.6177331149522161
  0
ARC
  5
ED7E
  8
0
 10
4493.8727389866589874
 20
194.7157776392614892
 30
0.0
 40
0.1638449554727338
 50
339.5482025760653073
 51
348.5439137845938262
  0
ARC
  5
ED7F
  8
0
 10
4494.0021233101588223
 20
194.6675268503117877
 30
0.0
 40
0.0257564266165454
 50
305.8703429062734926
 51
339.5482025760653073
  0
ARC
  5
ED80
  8
0
 10
4494.6759337684388811
 20
194.776465431161995
 30
0.0
 40
0.0396245896502907
 50
273.2014822263290057
 51
358.230932201616497
  0
LINE
  5
ED81
  8
0
 10
4494.7155394719165997
 20
194.7752421744258129
 30
0.0
 11
4494.7158757334163965
 21
194.7880834824258045
 31
0.0
  0
ARC
  5
ED82
  8
0
 10
4494.0239535538494238
 20
193.1432829802770925
 30
0.0
 40
1.888420485586972
 50
52.7593126892839592
 51
60.5742279377606607
  0
ARC
  5
ED83
  8
0
 10
4495.3091612465668732
 20
194.7368718894734059
 30
0.0
 40
0.0669532906023694
 50
358.9391208834579174
 51
49.8972650222279981
  0
ARC
  5
ED84
  8
0
 10
4495.4154563874972155
 20
194.7369044818726138
 30
0.0
 40
0.0393738858083592
 50
181.8516177452104046
 51
269.9966931712486939
  0
LINE
  5
ED85
  8
0
 10
4495.4154541150319346
 20
194.6975305961298091
 30
0.0
 11
4496.5700419026161399
 21
194.6975322896257126
 31
0.0
  0
ARC
  5
ED86
  8
0
 10
4496.5706043693726315
 20
194.7369040071436928
 30
0.0
 40
0.039375735030171
 50
269.1815246784336182
 51
342.8722067576459835
  0
ARC
  5
ED87
  8
0
 10
4496.7193139859118673
 20
194.6910821406073921
 30
0.0
 40
0.1162333698315873
 50
123.4317636095815942
 51
162.8751089133641017
  0
ARC
  5
ED88
  8
0
 10
4495.5624779473873787
 20
193.4119749001573894
 30
0.0
 40
1.828229732816137
 50
42.48071549373946
 51
48.8248245099626601
  0
ARC
  5
ED89
  8
0
 10
4501.8267624788913963
 20
194.0182454803326948
 30
0.0
 40
9.0669689593118452
 50
185.2205662473691916
 51
189.9812087449238902
  0
ARC
  5
ED8A
  8
0
 10
4511.6794595524233955
 20
194.9184771775535125
 30
0.0
 40
18.9607072180011293
 50
181.5633474078892959
 51
185.2205662473691916
  0
ARC
  5
ED8B
  8
0
 10
4492.9655280977185612
 20
194.4077303281829927
 30
0.0
 40
0.239807324153409
 50
94.9166719549263291
 51
181.5633474078892959
  0
ARC
  5
ED8C
  8
0
 10
4499.687464829660712
 20
193.5168717597194927
 30
0.0
 40
6.6155554003361621
 50
264.4584216325613966
 51
271.367920566468797
  0
ARC
  5
ED8D
  8
0
 10
4498.7240837366480264
 20
183.5873095245746072
 30
0.0
 40
3.3606317125838161
 50
84.458421632561425
 51
105.8694908355830933
  0
ARC
  5
ED8E
  8
0
 10
4498.258146147937623
 20
183.659717902756114
 30
0.0
 40
3.1924454476890518
 50
98.1579743739094823
 51
118.8809274427846958
  0
ARC
  5
ED8F
  8
0
 10
4497.3116208468109107
 20
186.850223378328991
 30
0.0
 40
1.1701197655731339
 50
180.8442258542345087
 51
193.3360105899664063
  0
ARC
  5
ED90
  8
0
 10
4511.1296501365286531
 20
190.1258384305668869
 30
0.0
 40
15.3710911204462803
 50
193.3360105899647863
 51
193.9037511790835993
  0
ARC
  5
ED91
  8
0
 10
4496.479921694699442
 20
186.499379287256204
 30
0.0
 40
0.2791810578514098
 50
193.9037511790835993
 51
218.9243008730651923
  0
ARC
  5
ED92
  8
0
 10
4496.3618633218202376
 20
186.404035487652294
 30
0.0
 40
0.1274305404564771
 50
218.9243008730651923
 51
288.8612065385667051
  0
ARC
  5
ED93
  8
0
 10
4496.2168086384572234
 20
186.8656266011855109
 30
0.0
 40
0.6112460163654398
 50
287.7404455132017915
 51
303.5605631117696817
  0
ARC
  5
ED94
  8
0
 10
4497.9849051653800416
 20
184.2004493341700879
 30
0.0
 40
2.5870871734584422
 50
119.3662067555368935
 51
123.5605631117696959
  0
ARC
  5
ED95
  8
0
 10
4495.0647876783832544
 20
327.3285809485137747
 30
0.0
 40
130.8971979062440028
 50
269.1372142475033797
 51
269.8017808824002941
  0
ARC
  5
ED96
  8
0
 10
4494.3418342625136574
 20
118.3577472612170993
 30
0.0
 40
78.0748863385309733
 50
87.7739347763940003
 51
89.8017808824002941
  0
ARC
  5
ED97
  8
0
 10
4499.9282183093564527
 20
471.2673775404593925
 30
0.0
 40
274.9055252236565252
 50
269.4677361783006972
 51
269.9827378719052717
  0
LINE
  5
ED98
  8
0
 10
4495.1993772604164405
 20
179.2523552428257858
 30
0.0
 11
4495.3287874595162066
 21
180.3857986806258111
 31
0.0
  0
ARC
  5
ED99
  8
0
 10
4495.7844426549108903
 20
180.3337745322733952
 30
0.0
 40
0.458615491564368
 50
137.8635584983800868
 51
173.4864952024605884
  0
LINE
  5
ED9A
  8
0
 10
4504.4028691024677755
 20
179.2523558353256874
 30
0.0
 11
4503.5491609148693897
 21
186.8329828482258108
 31
0.0
  0
ARC
  5
ED9B
  8
0
 10
4504.0564471775878701
 20
186.5233859422988019
 30
0.0
 40
0.5942975656204572
 50
130.7523773853311013
 51
148.6042750837115136
  0
ARC
  5
ED9C
  8
0
 10
4496.4140297007870686
 20
194.5443450172923008
 30
0.0
 40
10.4854000826081606
 50
313.7778001194752164
 51
348.4599422055234186
  0
LINE
  5
ED9D
  8
0
 10
4506.3203779980867694
 20
194.7369026828257859
 30
0.0
 11
4505.012642317738937
 21
194.7369026828257859
 31
0.0
  0
LINE
  5
ED9E
  8
0
 10
4500.7902765696690039
 20
209.8825736235257864
 30
0.0
 11
4500.7902765699682277
 21
209.9298177182257916
 31
0.0
  0
ARC
  5
ED9F
  8
0
 10
4500.7508779747540757
 20
209.9298177184759027
 30
0.0
 40
0.0393985952151947
 50
359.9999996361714238
 51
87.8200372589621878
  0
ARC
  5
EDA0
  8
0
 10
4507.4353158992471435
 20
208.3494741914580004
 30
0.0
 40
0.0634311835384154
 50
275.901838262033607
 51
315.5149053215378103
  0
ARC
  5
EDA1
  8
0
 10
4507.4271884320769459
 20
208.3502913529841862
 30
0.0
 40
0.06998913771835
 50
319.7036112004262236
 51
356.2060049582526062
  0
ARC
  5
EDA2
  8
0
 10
3704.5578420673268738
 20
113.768558778118404
 30
0.0
 40
808.4900483569898597
 50
6.7178370335360729
 51
6.8126530491885431
  0
ARC
  5
EDA3
  8
0
 10
4507.1038124521883219
 20
209.6456208780282964
 30
0.0
 40
0.2373374111198157
 50
6.9344107250375426
 51
86.7305325609082018
  0
ARC
  5
EDA4
  8
0
 10
4507.4431092728609656
 20
208.2160082375114882
 30
0.0
 40
0.0505667366604948
 50
358.7469803603949003
 51
84.956909666933754
  0
ARC
  5
EDA5
  8
0
 10
101846.333212042300147
 20
-2634.7141094415151201
 30
0.0
 40
97380.3467335286695743
 50
178.327065098522894
 51
178.3340560974031916
  0
ARC
  5
EDA6
  8
0
 10
4507.0265988066130376
 20
196.3423940801804974
 30
0.0
 40
0.1209871824956521
 50
267.5049234379931136
 51
357.9141408355336011
  0
LINE
  5
EDA7
  8
0
 10
4507.0213318064115811
 20
196.221521597633398
 30
0.0
 11
4506.8588980151271244
 21
196.2215219298257978
 31
0.0
  0
ARC
  5
EDA8
  8
0
 10
4499.4699569609747414
 20
122.9761005866220955
 30
0.0
 40
73.8422036220790829
 50
87.6234623939635213
 51
89.7086885483158341
  0
ARC
  5
EDA9
  8
0
 10
4499.8995018131636243
 20
135.7857411851414895
 30
0.0
 40
61.0258541773151109
 50
84.4963850969432855
 51
87.527700884913429
  0
ARC
  5
EDAA
  8
0
 10
4488.5020872593131571
 20
17.4972911816543899
 30
0.0
 40
179.8621216327505863
 50
84.2321195829954235
 51
84.4963850969432855
  0
ARC
  5
EDAB
  8
0
 10
4506.5448984212516734
 20
196.1213861109422112
 30
0.0
 40
0.3290875584260089
 50
7.4071036253902882
 51
84.2321195829954235
  0
LINE
  5
EDAC
  8
0
 10
4506.8712398053676225
 20
196.1638116000258094
 30
0.0
 11
4507.0210232855188224
 21
194.9052366771757931
 31
0.0
  0
ARC
  5
EDAD
  8
0
 10
4506.9619664828151144
 20
194.9023140396577105
 30
0.0
 40
0.0591290770735727
 50
300.9813444572412209
 51
2.8331755544338568
  0
ARC
  5
EDAE
  8
0
 10
4506.9584823456943923
 20
194.9081168965323911
 30
0.0
 40
0.0658975598715297
 50
279.844915783972283
 51
300.9813444572412209
  0
ARC
  5
EDAF
  8
0
 10
4506.6216875481713942
 20
194.8479353945319872
 30
0.0
 40
0.0598540292818255
 50
270.5207490675725239
 51
299.7726582145551788
  0
ARC
  5
EDB0
  8
0
 10
4506.6228419268709331
 20
194.8465704558734899
 30
0.0
 40
0.0580973224811836
 50
299.3776088765500276
 51
333.7059774487942718
  0
ARC
  5
EDB1
  8
0
 10
4506.6205688864511103
 20
194.8476935673743071
 30
0.0
 40
0.0606326907368659
 50
333.7059774487942718
 51
355.7399300121766146
  0
ARC
  5
EDB2
  8
0
 10
4506.420739402475192
 20
194.7257292553119044
 30
0.0
 40
0.0752065992749029
 50
123.9925258095058069
 51
154.0564515204831935
  0
ARC
  5
EDB3
  8
0
 10
4506.3176901919086959
 20
194.7764726546051008
 30
0.0
 40
0.0396611518828307
 50
273.885869816421291
 51
333.2658712891998221
  0
LINE
  5
EDB4
  8
0
 10
4507.0369927056690358
 20
192.4467093732257865
 30
0.0
 11
4507.050337553969257
 21
194.4088305959257923
 31
0.0
  0
ARC
  5
EDB5
  8
0
 10
4506.7850149061832781
 20
194.399579567498904
 30
0.0
 40
0.2654838770147055
 50
1.9969280860974781
 51
37.4972091474027565
  0
ARC
  5
EDB6
  8
0
 10
4506.8104820770076913
 20
194.405759455917007
 30
0.0
 40
0.2417492941907248
 50
40.0101318014592593
 51
64.7274424750855815
  0
ARC
  5
EDB7
  8
0
 10
4506.8140939312079354
 20
194.4134098742881065
 30
0.0
 40
0.2332891291789795
 50
64.7274424750855815
 51
83.3525771039932835
  0
ARC
  5
EDB8
  8
0
 10
4506.8145898586280964
 20
194.4207248248825977
 30
0.0
 40
0.2259662242055222
 50
83.262771474806172
 51
88.9802018954187872
  0
LINE
  5
EDB9
  8
0
 10
4507.0435889514455994
 20
194.4597555765982975
 30
0.0
 11
4507.06218277186872
 21
196.0221356150258032
 31
0.0
  0
ARC
  5
EDBA
  8
0
 10
4506.8622994461611597
 20
196.0245144182441095
 30
0.0
 40
0.1998974802258439
 50
359.3181574794575113
 51
80.2453678999630853
  0
ARC
  5
EDBB
  8
0
 10
4506.1931784892512951
 20
194.4353921226305033
 30
0.0
 40
0.8445180485819276
 50
3.4020352045696018
 51
18.4663597455775985
  0
ARC
  5
EDBC
  8
0
 10
4506.3303491954857236
 20
194.4811992625182882
 30
0.0
 40
0.6999009793481035
 50
18.4663597455775985
 51
31.1447808491377884
  0
ARC
  5
EDBD
  8
0
 10
4506.8138486911402651
 20
194.8766991777717124
 30
0.0
 40
0.2303377008783074
 50
239.3948685424055896
 51
267.1059093086873872
  0
ARC
  5
EDBE
  8
0
 10
4506.8584825397056193
 20
194.9521554695413954
 30
0.0
 40
0.3180065802222343
 50
220.2448089674651897
 51
239.3948685424055896
  0
ARC
  5
EDBF
  8
0
 10
4507.2768970693668962
 20
195.3063044438794975
 30
0.0
 40
0.8661782820239281
 50
216.7470967383696063
 51
220.2448089674651897
  0
ARC
  5
EDC0
  8
0
 10
4506.407499085771633
 20
194.8352320011150027
 30
0.0
 40
0.7652761960886175
 50
187.3822668850478124
 51
191.4560862154060885
  0
ARC
  5
EDC1
  8
0
 10
4505.8180500272246718
 20
194.7157776392614892
 30
0.0
 40
0.1638449554727338
 50
191.4560862154060885
 51
200.4517974239346074
  0
ARC
  5
EDC2
  8
0
 10
4505.6886657037257464
 20
194.6675268503117877
 30
0.0
 40
0.0257564266165454
 50
200.4517974239346074
 51
234.1296570937265926
  0
ARC
  5
EDC3
  8
0
 10
4505.0148552454456876
 20
194.776465431161995
 30
0.0
 40
0.0396245896502907
 50
181.769067798383503
 51
266.7985177736709943
  0
LINE
  5
EDC4
  8
0
 10
4504.9752495419688785
 20
194.7752421744258129
 30
0.0
 11
4504.9749132804690817
 21
194.7880834824258045
 31
0.0
  0
ARC
  5
EDC5
  8
0
 10
4505.6668354600351449
 20
193.1432829802770925
 30
0.0
 40
1.888420485586972
 50
119.4257720622393038
 51
127.2406873107159981
  0
ARC
  5
EDC6
  8
0
 10
4504.3816277673176955
 20
194.7368718894734059
 30
0.0
 40
0.0669532906023694
 50
130.1027349777720019
 51
181.0608791165419973
  0
ARC
  5
EDC7
  8
0
 10
4504.2753326263873532
 20
194.7369044818726138
 30
0.0
 40
0.0393738858083592
 50
270.0033068287514197
 51
358.1483822547895102
  0
LINE
  5
EDC8
  8
0
 10
4504.2753348988517246
 20
194.6975305961298091
 30
0.0
 11
4503.1207471112693383
 21
194.6975322896257126
 31
0.0
  0
ARC
  5
EDC9
  8
0
 10
4503.1201846445119372
 20
194.7369040071436928
 30
0.0
 40
0.0393757350301705
 50
197.1277932423523112
 51
270.8184753215663818
  0
ARC
  5
EDCA
  8
0
 10
4502.9714750279727014
 20
194.6910821406073921
 30
0.0
 40
0.1162333698315873
 50
17.1248910866358486
 51
56.5682363904183489
  0
ARC
  5
EDCB
  8
0
 10
4504.128311066499009
 20
193.4119749001573894
 30
0.0
 40
1.828229732816137
 50
131.1751754900373044
 51
137.5192845062605045
  0
ARC
  5
EDCC
  8
0
 10
4497.8640265349931724
 20
194.0182454803326948
 30
0.0
 40
9.0669689593118452
 50
350.0187912550761098
 51
354.77943375263078
  0
ARC
  5
EDCD
  8
0
 10
4488.0113294614620827
 20
194.9184771775535125
 30
0.0
 40
18.9607072180011293
 50
354.77943375263078
 51
358.4366525921105904
  0
ARC
  5
EDCE
  8
0
 10
4506.725260916165098
 20
194.4077303281829927
 30
0.0
 40
0.239807324153409
 50
358.4366525921105904
 51
85.0833280450736851
  0
ARC
  5
EDCF
  8
0
 10
4500.0033241842238567
 20
193.5168717597194927
 30
0.0
 40
6.6155554003361621
 50
268.632079433531203
 51
275.5415783674386034
  0
ARC
  5
EDD0
  8
0
 10
4500.9667052772383613
 20
183.5873095245746072
 30
0.0
 40
3.3606317125838161
 50
74.1305091644168783
 51
95.541578367438575
  0
ARC
  5
EDD1
  8
0
 10
4501.4326428659451267
 20
183.659717902756114
 30
0.0
 40
3.1924454476890518
 50
61.1190725572152616
 51
81.8420256260905319
  0
ARC
  5
EDD2
  8
0
 10
4502.3791681670727485
 20
186.850223378328991
 30
0.0
 40
1.1701197655731339
 50
346.66398941003348
 51
359.1557741457655197
  0
ARC
  5
EDD3
  8
0
 10
4488.5611388773568251
 20
190.1258384305668869
 30
0.0
 40
15.3710911204462803
 50
346.0962488209164007
 51
346.6639894100350716
  0
ARC
  5
EDD4
  8
0
 10
4503.2108673191860362
 20
186.499379287256204
 30
0.0
 40
0.2791810578514098
 50
321.075699126934694
 51
346.0962488209164007
  0
ARC
  5
EDD5
  8
0
 10
4503.3289256920652406
 20
186.404035487652294
 30
0.0
 40
0.1274305404564771
 50
251.1387934614332949
 51
321.075699126934694
  0
ARC
  5
EDD6
  8
0
 10
4503.4739803754273453
 20
186.8656266011855109
 30
0.0
 40
0.6112460163654398
 50
236.4394368882302899
 51
252.2595544867982085
  0
ARC
  5
EDD7
  8
0
 10
4501.7058838485054366
 20
184.2004493341700879
 30
0.0
 40
2.5870871734584422
 50
56.4394368882303183
 51
60.6337932444631207
  0
ARC
  5
EDD8
  8
0
 10
4504.6260013355031333
 20
327.3285809485137747
 30
0.0
 40
130.8971979062440028
 50
270.1982191175997059
 51
270.8627857524965066
  0
ARC
  5
EDD9
  8
0
 10
4505.3489547513700018
 20
118.3577472612170993
 30
0.0
 40
78.0748863385309733
 50
90.1982191175997059
 51
92.2260652236060139
  0
ARC
  5
EDDA
  8
0
 10
4499.7625707045290255
 20
471.2673775404593925
 30
0.0
 40
274.9055252236565252
 50
270.0172621280947283
 51
270.5322638216991891
  0
LINE
  5
EDDB
  8
0
 10
4504.4914117534690376
 20
179.2523552428257858
 30
0.0
 11
4504.3620015543692716
 21
180.3857986806258111
 31
0.0
  0
ARC
  5
EDDC
  8
0
 10
4503.9063463589727689
 20
180.3337745322733952
 30
0.0
 40
0.458615491564368
 50
6.5135047975394258
 51
42.1364415016198919
  0
ARC
  5
EDDD
  8
0
 10
4492.2916798120822932
 20
208.3703460674543919
 30
0.0
 40
0.1040738030237574
 50
272.5978458994133007
 51
306.2154566367520943
  0
ARC
  5
EDDE
  8
0
 10
4507.399792701806291
 20
208.3714033747068868
 30
0.0
 40
0.1051978564445197
 50
233.9234372655110121
 51
266.706931974791587
  0
ENDSEC
  0
EOF
