  0
SECTION
  2
HEADER
  9
$ACADVER
  1
AC1009
  9
$INSBASE
 10
4499.8479252324095796
 20
244.1145689624482031
 30
0.0
  9
$EXTMIN
 10
4492.0937268347515783
 20
215.6630349764226082
 30
-0.0000000000112498
  9
$EXTMAX
 10
4507.5699432777109905
 20
244.123566757870293
 30
0.0000000000002956
  9
$LIMMIN
 10
0.0
 20
0.0
  9
$LIMMAX
 10
11.6929133858000007
 20
8.2677165353999982
  9
$ORTHOMODE
 70
     0
  9
$REGENMODE
 70
     1
  9
$FILLMODE
 70
     1
  9
$QTEXTMODE
 70
     0
  9
$MIRRTEXT
 70
     0
  9
$DRAGMODE
 70
     2
  9
$LTSCALE
 40
0.6431102362
  9
$OSMODE
 70
  4095
  9
$ATTMODE
 70
     1
  9
$TEXTSIZE
 40
0.2
  9
$TRACEWID
 40
0.05
  9
$TEXTSTYLE
  7
STANDARD
  9
$CLAYER
  8
0
  9
$CELTYPE
  6
BYLAYER
  9
$CECOLOR
 62
   256
  9
$DIMSCALE
 40
1.0
  9
$DIMASZ
 40
0.1875
  9
$DIMEXO
 40
0.0625
  9
$DIMDLI
 40
0.4443307087
  9
$DIMRND
 40
0.0
  9
$DIMDLE
 40
0.0
  9
$DIMEXE
 40
0.125
  9
$DIMTP
 40
0.01
  9
$DIMTM
 40
0.01
  9
$DIMTXT
 40
2.0
  9
$DIMCEN
 40
0.1052362205
  9
$DIMTSZ
 40
0.0
  9
$DIMTOL
 70
     1
  9
$DIMLIM
 70
     0
  9
$DIMTIH
 70
     1
  9
$DIMTOH
 70
     1
  9
$DIMSE1
 70
     0
  9
$DIMSE2
 70
     0
  9
$DIMTAD
 70
     0
  9
$DIMZIN
 70
     0
  9
$DIMBLK
  1

  9
$DIMASO
 70
     1
  9
$DIMSHO
 70
     1
  9
$DIMPOST
  1
\X
  9
$DIMAPOST
  1

  9
$DIMALT
 70
     1
  9
$DIMALTD
 70
     2
  9
$DIMALTF
 40
25.3999999999999986
  9
$DIMLFAC
 40
1.0
  9
$DIMTOFL
 70
     0
  9
$DIMTVP
 40
0.0
  9
$DIMTIX
 70
     0
  9
$DIMSOXD
 70
     0
  9
$DIMSAH
 70
     0
  9
$DIMBLK1
  1

  9
$DIMBLK2
  1

  9
$DIMSTYLE
  2
STANDARD
  9
$DIMCLRD
 70
     0
  9
$DIMCLRE
 70
     0
  9
$DIMCLRT
 70
     0
  9
$DIMTFAC
 40
1.0
  9
$DIMGAP
 40
0.09
  9
$LUNITS
 70
     2
  9
$LUPREC
 70
     4
  9
$SKETCHINC
 40
0.1
  9
$FILLETRAD
 40
0.0
  9
$AUNITS
 70
     0
  9
$AUPREC
 70
     0
  9
$MENU
  1
.
  9
$ELEVATION
 40
0.0
  9
$PELEVATION
 40
0.0
  9
$THICKNESS
 40
0.0
  9
$LIMCHECK
 70
     0
  9
$BLIPMODE
 70
     0
  9
$CHAMFERA
 40
0.0
  9
$CHAMFERB
 40
0.0
  9
$SKPOLY
 70
     0
  9
$TDCREATE
 40
2458060.468368056230247
  9
$TDUPDATE
 40
2460208.5139004630036652
  9
$TDINDWG
 40
0.4793820602
  9
$TDUSRTIMER
 40
0.4793820602
  9
$USRTIMER
 70
     1
  9
$ANGBASE
 50
0.0
  9
$ANGDIR
 70
     0
  9
$PDMODE
 70
     0
  9
$PDSIZE
 40
0.3125
  9
$PLINEWID
 40
0.0
  9
$COORDS
 70
     1
  9
$SPLFRAME
 70
     0
  9
$SPLINETYPE
 70
     6
  9
$SPLINESEGS
 70
     8
  9
$ATTDIA
 70
     1
  9
$ATTREQ
 70
     1
  9
$HANDLING
 70
     1
  9
$HANDSEED
  5
F19A
  9
$SURFTAB1
 70
     6
  9
$SURFTAB2
 70
     6
  9
$SURFTYPE
 70
     6
  9
$SURFU
 70
     6
  9
$SURFV
 70
     6
  9
$UCSNAME
  2

  9
$UCSORG
 10
0.0
 20
0.0
 30
0.0
  9
$UCSXDIR
 10
1.0
 20
0.0
 30
0.0
  9
$UCSYDIR
 10
0.0
 20
1.0
 30
0.0
  9
$PUCSNAME
  2

  9
$PUCSORG
 10
0.0
 20
0.0
 30
0.0
  9
$PUCSXDIR
 10
1.0
 20
0.0
 30
0.0
  9
$PUCSYDIR
 10
0.0
 20
1.0
 30
0.0
  9
$USERI1
 70
     0
  9
$USERI2
 70
     0
  9
$USERI3
 70
     0
  9
$USERI4
 70
     0
  9
$USERI5
 70
     0
  9
$USERR1
 40
0.0
  9
$USERR2
 40
0.0
  9
$USERR3
 40
0.0
  9
$USERR4
 40
0.0
  9
$USERR5
 40
0.0
  9
$WORLDVIEW
 70
     1
  9
$SHADEDGE
 70
     3
  9
$SHADEDIF
 70
    70
  9
$TILEMODE
 70
     1
  9
$MAXACTVP
 70
    64
  9
$PLIMCHECK
 70
     0
  9
$PEXTMIN
 10
1.0000000000000000E+20
 20
1.0000000000000000E+20
 30
1.0000000000000000E+20
  9
$PEXTMAX
 10
-1.0000000000000000E+20
 20
-1.0000000000000000E+20
 30
-1.0000000000000000E+20
  9
$PLIMMIN
 10
0.0
 20
0.0
  9
$PLIMMAX
 10
12.0
 20
9.0
  9
$UNITMODE
 70
     0
  9
$VISRETAIN
 70
     1
  9
$PLINEGEN
 70
     0
  9
$PSLTSCALE
 70
     1
  0
ENDSEC
  0
SECTION
  2
TABLES
  0
TABLE
  2
VPORT
 70
     1
  0
VPORT
  2
*ACTIVE
 70
     0
 10
0.0
 20
0.0
 11
1.0
 21
1.0
 12
696.2877676734186707
 22
103.8980386703965024
 13
0.0
 23
0.0
 14
1.0
 24
1.0
 15
0.0
 25
0.0
 16
0.0
 26
0.0
 36
17.1152628219792007
 17
3803.5440673828129547
 27
125.9952621967499056
 37
0.0
 40
28.6791786325215412
 41
1.4089743589743591
 42
50.0
 43
0.0
 44
0.0
 50
0.0
 51
0.0
 71
     0
 72
   100
 73
     1
 74
     1
 75
     0
 76
     0
 77
     0
 78
     0
  0
ENDTAB
  0
TABLE
  2
LTYPE
 70
     2
  0
LTYPE
  2
CONTINUOUS
 70
     0
  3
Solid line
 72
    65
 73
     0
 40
0.0
  0
LTYPE
  2
PHANTOM2
 70
     0
  3
___ _ _ ___ _ _ ___ _ _ ___ _ _
 72
    65
 73
     6
 40
1.25
 49
0.625
 49
-0.125
 49
0.125
 49
-0.125
 49
0.125
 49
-0.125
  0
ENDTAB
  0
TABLE
  2
LAYER
 70
     2
  0
LAYER
  2
0
 70
     0
 62
   255
  6
CONTINUOUS
  0
LAYER
  2
DEFPOINTS
 70
     0
 62
     7
  6
CONTINUOUS
  0
ENDTAB
  0
TABLE
  2
STYLE
 70
     1
  0
STYLE
  2
STANDARD
 70
     0
 40
0.0
 41
0.8
 50
0.0
 71
     0
 42
0.2
  3
txt
  4

  0
ENDTAB
  0
TABLE
  2
VIEW
 70
     0
  0
ENDTAB
  0
TABLE
  2
UCS
 70
     0
  0
ENDTAB
  0
TABLE
  2
APPID
 70
     9
  0
APPID
  2
ACAD
 70
     0
  0
APPID
  2
ACAD_MLEADERVER
 70
     0
  0
APPID
  2
ACAD_EXEMPT_FROM_CAD_STANDARDS
 70
     0
  0
APPID
  2
ACAD_NAV_VCDISPLAY
 70
     0
  0
APPID
  2
ACAECLAYERSTANDARD
 70
     0
  0
APPID
  2
ACCMTRANSPARENCY
 70
     0
  0
APPID
  2
ACAD_DSTYLE_DIMJAG
 70
     0
  0
APPID
  2
ACAD_DSTYLE_DIMTALN
 70
     0
  0
APPID
  2
ACDBATTR
 70
     0
  0
ENDTAB
  0
TABLE
  2
DIMSTYLE
 70
     1
  0
DIMSTYLE
  2
STANDARD
 70
     0
  3

  4

  5

  6

  7

 40
1.0
 41
0.1875
 42
0.0625
 43
0.38
 44
0.125
 45
0.0
 46
0.0
 47
0.01
 48
0.01
140
0.15625
141
0.09
142
0.0
143
25.3999999999999986
144
1.0
145
0.0
146
1.0
147
0.09
 71
     1
 72
     0
 73
     1
 74
     1
 75
     0
 76
     0
 77
     0
 78
     4
170
     0
171
     2
172
     0
173
     0
174
     0
175
     0
176
     0
177
     0
178
     0
  0
ENDTAB
  0
ENDSEC
  0
SECTION
  2
BLOCKS
  0
BLOCK
  8
0
  2
$MODEL_SPACE
 70
     0
 10
0.0
 20
0.0
 30
0.0
  3
$MODEL_SPACE
  1

  0
ENDBLK
  5
21
  8
0
  0
BLOCK
 67
     1
  8
0
  2
$PAPER_SPACE
 70
     0
 10
0.0
 20
0.0
 30
0.0
  3
$PAPER_SPACE
  1

  0
ENDBLK
  5
1D
 67
     1
  8
0
  0
ENDSEC
  0
SECTION
  2
ENTITIES
  0
ATTDEF
  5
E9B5
  8
DEFPOINTS
 10
4499.8484695049455695
 20
244.1188405342574015
 30
0.0
 40
0.001
  1
K-28415K
  3

  2
MODELNUMBER
 70
     0
1001
ACDBATTR
1070
     0
1070
     1
  0
ATTDEF
  5
E9B6
  8
DEFPOINTS
 10
4499.8484695049455695
 20
244.1171738675907079
 30
0.0
 40
0.001
  1
REACH
  3

  2
TRADENAME
 70
     0
1001
ACDBATTR
1070
     0
1070
     1
  0
ATTDEF
  5
E9B7
  8
DEFPOINTS
 10
4499.8484695049455695
 20
244.1155072009240996
 30
0.0
 40
0.001
  1
TOILET
  3

  2
PRODUCT
 70
     0
1001
ACDBATTR
1070
     0
1070
     1
  0
ARC
  5
EF31
  8
0
 10
4500.2883223034259572
 20
170.57526721407541
 30
0.0
 40
72.7006356525245536
 50
90.3470815293281646
 51
93.1579999516580415
  0
ARC
  5
EF32
  8
0
 10
4499.1228306978518958
 20
192.1616222877173072
 30
0.0
 40
51.082861174400513
 50
93.1865585575559265
 51
95.7876266364475839
  0
ARC
  5
EF33
  8
0
 10
4494.3612408052968021
 20
239.139506817368698
 30
0.0
 40
3.864280369952998
 50
95.7876266364475839
 51
101.9833257178020034
  0
ARC
  5
EF34
  8
0
 10
4493.8381211528958374
 20
241.6041179381776942
 30
0.0
 40
1.344764117268183
 50
101.9833257178020034
 51
121.440108248073301
  0
ARC
  5
EF35
  8
0
 10
4500.6593196464446009
 20
335.9827871313779042
 30
0.0
 40
99.4266868043620349
 50
268.1227631886534937
 51
269.5324193838683868
  0
ARC
  5
EF36
  8
0
 10
4498.8122998129811094
 20
279.992737036566723
 30
0.0
 40
43.4061828128113021
 50
264.8275995850963227
 51
268.1384721464083896
  0
ARC
  5
EF37
  8
0
 10
4417.5358463778302394
 20
-617.8767392515020447
 30
0.0
 40
858.1344198961335223
 50
84.8275995850963369
 51
84.8859375379330032
  0
ARC
  5
EF38
  8
0
 10
4494.3594405875819575
 20
241.4257144448901045
 30
0.0
 40
4.5959830122012511
 50
262.5213019822425053
 51
265.8755512215876138
  0
ARC
  5
EF39
  8
0
 10
4494.0187210043659434
 20
238.6591265600984002
 30
0.0
 40
1.808719487875017
 50
244.1597904892485928
 51
261.8157881162450167
  0
ARC
  5
EF3A
  8
0
 10
4494.0393167769207139
 20
238.7016547690282096
 30
0.0
 40
1.855972365056354
 50
228.7663212381625897
 51
244.1597904892485928
  0
ARC
  5
EF3B
  8
0
 10
4494.0132273890421857
 20
238.6718884232699907
 30
0.0
 40
1.8163909110703109
 50
214.3822180725881026
 51
228.7663212381625897
  0
ARC
  5
EF3C
  8
0
 10
4494.0157353093700294
 20
238.6736044891468111
 30
0.0
 40
1.819429750727763
 50
184.414485615214204
 51
214.38221807258941
  0
ARC
  5
EF3D
  8
0
 10
4495.1278697064553853
 20
238.7136629724404031
 30
0.0
 40
2.9317037799360581
 50
179.5769157435680086
 51
183.5220427234193892
  0
LINE
  5
EF3E
  8
0
 10
4492.196245854083827
 20
238.7353111017145864
 30
0.0
 11
4492.1963452601958124
 21
241.0528537302735117
 31
0.0
  0
ARC
  5
EF3F
  8
0
 10
4494.1286939540159437
 20
241.1359182299844974
 30
0.0
 40
1.9341331871468479
 50
160.4615949673257944
 51
182.4614176057174006
  0
ARC
  5
EF40
  8
0
 10
4494.0108314412900654
 20
241.1590023633173132
 30
0.0
 40
1.8154231892245829
 50
133.7400642614616117
 51
159.9041355457030136
  0
ARC
  5
EF41
  8
0
 10
4494.0220013571715754
 20
241.1514492255629136
 30
0.0
 40
1.8286051704789641
 50
118.9567761697489061
 51
133.8292988499408125
  0
CIRCLE
  5
EF42
  8
0
 10
4499.8517745260842275
 20
239.9156162599146001
 30
0.0
 40
0.9458038461669055
  0
CIRCLE
  5
EF43
  8
0
 10
4499.8479252324095796
 20
239.9156162599146001
 30
0.0
 40
0.6889494286989657
  0
CIRCLE
  5
EF44
  8
0
 10
4499.8479252324095796
 20
239.9156162599146001
 30
0.0
 40
0.7086328968115364
  0
ARC
  5
EF45
  8
0
 10
4499.847925058884357
 20
239.9156918432146028
 30
0.0
 40
0.6822657841669325
 50
105.1950525186764054
 51
134.8049457003023122
  0
ARC
  5
EF46
  8
0
 10
4499.847925058884357
 20
239.9156918432146028
 30
0.0
 40
0.6822657841669325
 50
135.1950553484348063
 51
164.8049409625241992
  0
ARC
  5
EF47
  8
0
 10
4499.847925058884357
 20
239.9156918432146028
 30
0.0
 40
0.6822657841669325
 50
165.1950606092107989
 51
194.8049347488870922
  0
ARC
  5
EF48
  8
0
 10
4499.847925058884357
 20
239.9156918432146028
 30
0.0
 40
0.6822657841669325
 50
195.1950669538717023
 51
224.8049286952339116
  0
ARC
  5
EF49
  8
0
 10
4499.847925058884357
 20
239.9156918432146028
 30
0.0
 40
0.6822657841669325
 50
225.1950726531152895
 51
254.8049244860497993
  0
ARC
  5
EF4A
  8
0
 10
4499.847925058884357
 20
239.9156918432146028
 30
0.0
 40
0.6822657841669325
 50
255.1950761682338111
 51
104.8049477043851994
  0
ARC
  5
EF4B
  8
0
 10
4499.7631822252606071
 20
240.5597538950763123
 30
0.0
 40
0.0196781676125691
 50
350.3755032354875993
 51
97.500607848203714
  0
ARC
  5
EF4C
  8
0
 10
4503.5611263711462016
 20
239.9157093438622894
 30
0.0
 40
3.832486563965428
 50
170.3755032354875993
 51
189.6249157849343021
  0
ARC
  5
EF4D
  8
0
 10
4499.7630334392952136
 20
239.2716109866188958
 30
0.0
 40
0.0198338553119441
 50
263.6289415524234983
 51
9.6249157849374942
  0
ARC
  5
EF4E
  8
0
 10
4499.8486965267848063
 20
239.9161176883864925
 30
0.0
 40
0.6700042677066744
 50
227.2841286493575979
 51
262.4645583988864814
  0
ARC
  5
EF4F
  8
0
 10
4499.8471803579495827
 20
239.9155315369852985
 30
0.0
 40
0.6685454772240599
 50
180.4149306000977901
 51
227.3455210640950952
  0
ARC
  5
EF50
  8
0
 10
4499.847925060083071
 20
239.9156918340146092
 30
0.0
 40
0.6692913386000383
 50
152.0133308282354108
 51
180.4281910518288043
  0
ARC
  5
EF51
  8
0
 10
4499.847925060083071
 20
239.9156918340146092
 30
0.0
 40
0.6692913385999328
 50
124.7156659453151946
 51
152.0133308282368034
  0
ARC
  5
EF52
  8
0
 10
4499.8479251540265977
 20
239.9156916566649045
 30
0.0
 40
0.6692915378810504
 50
97.4958188444511364
 51
124.7156639095646966
  0
ARC
  5
EF53
  8
0
 10
4499.6799474239842311
 20
240.5425929063189869
 30
0.0
 40
0.0333271254966671
 50
51.3139208039264076
 51
158.6860747636413009
  0
ARC
  5
EF54
  8
0
 10
4499.3890016235827716
 20
240.3746152701145888
 30
0.0
 40
0.0333271255000025
 50
81.3139206769023275
 51
188.6860793730677983
  0
ARC
  5
EF55
  8
0
 10
4499.2210239874839317
 20
240.0836694698145948
 30
0.0
 40
0.0333271254999949
 50
111.3139203668843038
 51
218.6860796906426003
  0
ARC
  5
EF56
  8
0
 10
4499.2210239874812032
 20
239.7477141974146093
 30
0.0
 40
0.0333271254976977
 50
141.3488274370419049
 51
248.6860801590856909
  0
ARC
  5
EF57
  8
0
 10
4499.3890016235418443
 20
239.4567683970734038
 30
0.0
 40
0.0333271254606936
 50
171.1163044342320916
 51
278.9567295612632734
  0
ARC
  5
EF58
  8
0
 10
4499.6799474239796837
 20
239.2887907608977116
 30
0.0
 40
0.0333271254880536
 50
201.4828875201403093
 51
308.4051080752553844
  0
ARC
  5
EF59
  8
0
 10
4499.819980694662263
 20
239.2666860706661112
 30
0.0
 40
0.0196842508792681
 50
189.8373619480555021
 51
267.5339352374795112
  0
ARC
  5
EF5A
  8
0
 10
4499.8479286754763962
 20
239.9156197209995014
 30
0.0
 40
0.669219447898295
 50
267.5339352374795112
 51
278.2063154581136928
  0
ARC
  5
EF5B
  8
0
 10
4499.8479147006073617
 20
239.9157166242054018
 30
0.0
 40
0.6693173536094345
 50
278.2063154581136928
 51
307.1524308439717856
  0
ARC
  5
EF5C
  8
0
 10
4499.8479434163837141
 20
239.9156787272740985
 30
0.0
 40
0.6692698060201725
 50
307.1524308439302899
 51
341.7924807189505145
  0
ARC
  5
EF5D
  8
0
 10
4499.847908290776104
 20
239.9156902810946121
 30
0.0
 40
0.6693067830278326
 50
341.7924807189505145
 51
28.78907937180524
  0
ARC
  5
EF5E
  8
0
 10
4499.8479492682308774
 20
239.9157127984717874
 30
0.0
 40
0.6692600263795158
 50
28.78907937180524
 51
52.9965902338525296
  0
ARC
  5
EF5F
  8
0
 10
4499.8479134073431851
 20
239.9156652153573077
 30
0.0
 40
0.6693196095660645
 50
52.9965902338525296
 51
79.7190816571608281
  0
ARC
  5
EF60
  8
0
 10
4499.8479288327307586
 20
239.9157502567661027
 30
0.0
 40
0.6692331804980118
 50
79.7190816571608281
 51
92.4660177907032619
  0
ARC
  5
EF61
  8
0
 10
4499.8199807978626268
 20
240.56469753817629
 30
0.0
 40
0.0196843627001173
 50
92.4660177907032619
 51
170.1625447537435036
  0
ARC
  5
EF62
  8
0
 10
4503.6041406140384424
 20
239.908511774917514
 30
0.0
 40
3.8603152054466712
 50
170.1625447537435036
 51
171.9399678286571032
  0
ARC
  5
EF63
  8
0
 10
4503.5311668045196711
 20
239.9188455556958104
 30
0.0
 40
3.7866133472555181
 50
171.9399678286571032
 51
174.9227862925147008
  0
ARC
  5
EF64
  8
0
 10
4503.5719129015587896
 20
239.915225396459789
 30
0.0
 40
3.8275199479072199
 50
174.9227862925147008
 51
181.0774818588949984
  0
ARC
  5
EF65
  8
0
 10
4503.535798141120722
 20
239.9145461564285995
 30
0.0
 40
3.7913988005211849
 50
181.0774818588949984
 51
184.686685374025501
  0
ARC
  5
EF66
  8
0
 10
4503.5792411129650645
 20
239.9181076553726086
 30
0.0
 40
3.8349875155431721
 50
184.686685374025501
 51
188.6354958937997992
  0
ARC
  5
EF67
  8
0
 10
4503.4933278734006308
 20
239.9050748179882078
 30
0.0
 40
3.7480913742901878
 50
188.6357190571482079
 51
189.8588164278010879
  0
LINE
  5
EF68
  8
0
 10
4499.879969046082806
 20
240.5842160184980116
 30
0.0
 11
4499.8799824164289021
 21
240.585066274858292
 31
0.0
  0
ARC
  5
EF69
  8
0
 10
4499.9043704132673156
 20
240.5608651715633073
 30
0.0
 40
0.0343579363530141
 50
34.8763927240198228
 51
135.2203819037717096
  0
ARC
  5
EF6A
  8
0
 10
4499.8491633353860379
 20
239.9181645281688873
 30
0.0
 40
0.6675760657242398
 50
56.6059218712181078
 51
82.8238382461168356
  0
ARC
  5
EF6B
  8
0
 10
4500.2122546363989386
 20
240.4689406448609077
 30
0.0
 40
0.0078870306135761
 50
26.8385650002766099
 51
56.624340439328229
  0
LINE
  5
EF6C
  8
0
 10
4500.248336179335638
 20
240.4519956951832
 30
0.0
 11
4500.2488136202837268
 21
240.4527026928145972
 31
0.0
  0
ARC
  5
EF6D
  8
0
 10
4500.2554966459638308
 20
240.4190009002620911
 30
0.0
 40
0.0343580216760351
 50
0.8764414091159807
 51
101.216180290427701
  0
ARC
  5
EF6E
  8
0
 10
4499.8517838946609118
 20
239.9182946505113136
 30
0.0
 40
0.6656844555166516
 50
19.1528208430416207
 51
48.847179128341061
  0
ARC
  5
EF6F
  8
0
 10
4500.4672641638953792
 20
240.105042799829107
 30
0.0
 40
0.0343579363822088
 50
326.8286980653073783
 51
67.1236071589682126
  0
LINE
  5
EF70
  8
0
 10
4500.4960230783835868
 20
240.0862440597146019
 30
0.0
 11
4500.4951411519641624
 21
240.0860553712074079
 31
0.0
  0
ARC
  5
EF71
  8
0
 10
4500.2481912877674404
 20
239.9153990739391134
 30
0.0
 40
0.2808244270127125
 50
338.2566559628879759
 51
21.6595302522717397
  0
ARC
  5
EF72
  8
0
 10
4500.4672641638835557
 20
239.7263408673146046
 30
0.0
 40
0.034357936399999
 50
292.8763927749142795
 51
33.171301996702951
  0
LINE
  5
EF73
  8
0
 10
4500.4960230783672159
 20
239.7451396074698948
 30
0.0
 11
4500.4951938643444009
 21
239.7454171004198997
 31
0.0
  0
ARC
  5
EF74
  8
0
 10
4499.847925058367764
 20
239.9156918346835141
 30
0.0
 40
0.670184710075723
 50
311.2547880569524068
 51
340.7452119587649122
  0
LINE
  5
EF75
  8
0
 10
4500.2483277189849105
 20
239.3793816563465953
 30
0.0
 11
4500.2487984548888562
 21
239.3786840585921993
 31
0.0
  0
ARC
  5
EF76
  8
0
 10
4500.2554967307842162
 20
239.4123827365145871
 30
0.0
 40
0.0343579363999989
 50
258.7578636786903985
 51
359.1236072044230809
  0
LINE
  5
EF77
  8
0
 10
4499.879972545119017
 20
239.2471681959673901
 30
0.0
 11
4499.8799727963432815
 21
239.246327090603387
 31
0.0
  0
ARC
  5
EF78
  8
0
 10
4499.9043704132673156
 20
239.2705184956465132
 30
0.0
 40
0.0343579363405378
 50
224.7568380859432011
 51
325.1236073009616234
  0
ARC
  5
EF79
  8
0
 10
4499.8491279572872372
 20
239.9133148510165938
 30
0.0
 40
0.6676754477950479
 50
277.1781478798051239
 51
303.3921038087921147
  0
ARC
  5
EF7A
  8
0
 10
4500.2122545731854188
 20
239.3624430898074138
 30
0.0
 40
0.0078871210620947
 50
303.3767540134322189
 51
333.1615152540122153
  0
ARC
  5
EF7B
  8
0
 10
4499.8405943710740758
 20
239.2533020721336925
 30
0.0
 40
0.0078917701191384
 50
269.9999971647357029
 51
299.1435031504831272
  0
LINE
  5
EF7C
  8
0
 10
4499.8405943706839025
 20
239.2454103020145908
 30
0.0
 11
4499.8159413658959238
 21
239.2461331528791959
 31
0.0
  0
ARC
  5
EF7D
  8
0
 10
4499.8168423660872577
 20
239.2650256651182019
 30
0.0
 40
0.0189139847744363
 50
176.4176049533473929
 51
267.2695836749543901
  0
ARC
  5
EF7E
  8
0
 10
4504.0511285446318652
 20
239.9906527772785125
 30
0.0
 40
4.3144198023335809
 50
187.6380761953525109
 51
189.6664732670577109
  0
ARC
  5
EF7F
  8
0
 10
4503.5585549813849866
 20
239.9156918340146092
 30
0.0
 40
3.816263397700721
 50
180.141098159301805
 51
187.5055753198051036
  0
ARC
  5
EF80
  8
0
 10
4503.5585549813840771
 20
239.9156918340146092
 30
0.0
 40
3.8162633976996529
 50
173.2220227084926876
 51
180.1410981593002134
  0
ARC
  5
EF81
  8
0
 10
4503.5585549764928146
 20
239.9156918346673137
 30
0.0
 40
3.8162633927658089
 50
170.0691934583018963
 51
173.2220227095544089
  0
ARC
  5
EF82
  8
0
 10
4499.8168438948841867
 20
240.5663566338145927
 30
0.0
 40
0.0189154250999984
 50
92.7348443314968449
 51
156.6957671467934006
  0
LINE
  5
EF83
  8
0
 10
4499.8159413658959238
 20
240.5852505150500917
 30
0.0
 11
4499.8405111437814412
 21
240.585972982455587
 31
0.0
  0
ARC
  5
EF84
  8
0
 10
4499.8405943767838835
 20
240.5780816027144908
 30
0.0
 40
0.0078917615001238
 50
60.8535168344901578
 51
90.604295197825067
  0
ARC
  5
EF85
  8
0
 10
4499.7632206613843664
 20
240.5574068929145994
 30
0.0
 40
0.0214946949999851
 50
2.9359315978786751
 51
53.2775795598172692
  0
ARC
  5
EF86
  8
0
 10
4503.5575668027922802
 20
239.9158285896652956
 30
0.0
 40
3.8272258280190221
 50
170.3329201704547984
 51
172.7167471324794974
  0
ARC
  5
EF87
  8
0
 10
4503.5585549813840771
 20
239.9156918340146945
 30
0.0
 40
3.8282233706995852
 50
172.7165918349780043
 51
173.7999461783111883
  0
ARC
  5
EF88
  8
0
 10
4503.5585549813840771
 20
239.9156918340146945
 30
0.0
 40
3.8282233706995852
 50
174.3904310753538027
 51
178.7128575636303083
  0
ARC
  5
EF89
  8
0
 10
4503.5585549813840771
 20
239.9156918340146092
 30
0.0
 40
3.8282233706998152
 50
178.7128575636286882
 51
183.2266669638270002
  0
ARC
  5
EF8A
  8
0
 10
4503.5585549813840771
 20
239.9156918340146092
 30
0.0
 40
3.8282233707003761
 50
183.2266669638254086
 51
185.6095797637890996
  0
ARC
  5
EF8B
  8
0
 10
4503.5585549813840771
 20
239.9156918340146092
 30
0.0
 40
3.8282233707003761
 50
186.196607613558399
 51
187.2428714543893022
  0
ARC
  5
EF8C
  8
0
 10
4503.5585549813840771
 20
239.9156918340144955
 30
0.0
 40
3.828223370699765
 50
187.2428714543893022
 51
189.6666428881997888
  0
ARC
  5
EF8D
  8
0
 10
4499.7632247337123772
 20
239.2739746918717003
 30
0.0
 40
0.0214905212255507
 50
308.7510154031327829
 51
357.0637867582868239
  0
LINE
  5
EF8E
  8
0
 10
4499.7816160946467789
 20
239.2628578746208063
 30
0.0
 11
4499.7982821580908421
 21
239.2613845802279968
 31
0.0
  0
ARC
  5
EF8F
  8
0
 10
4499.4625952070618951
 20
239.9154481382884114
 30
0.0
 40
0.2806318924906788
 50
4.5200978678613106
 51
16.8420373976691202
  0
ARC
  5
EF90
  8
0
 10
4499.5195504291550606
 20
239.9062042475790975
 30
0.0
 40
0.2231477964850457
 50
341.5053156900199269
 51
356.8183565491157765
  0
ARC
  5
EF91
  8
0
 10
4499.7209106455884466
 20
239.5189004424144912
 30
0.0
 40
0.0357824094959494
 50
332.6690519462969178
 51
39.1374411422523423
  0
LINE
  5
EF92
  8
0
 10
4499.7725445943842715
 20
239.3487626599145983
 30
0.0
 11
4499.7847254567841446
 21
239.3487626599145983
 31
0.0
  0
LINE
  5
EF93
  8
0
 10
4499.7835482215323282
 20
239.3566366760146025
 30
0.0
 11
4499.7713905806840557
 21
239.3566366760146025
 31
0.0
  0
LINE
  5
EF94
  8
0
 10
4499.7657815198854223
 20
239.3960067433145866
 30
0.0
 11
4499.7778845397733676
 21
239.3960067433145866
 31
0.0
  0
LINE
  5
EF95
  8
0
 10
4499.7770589227829987
 20
239.3960067433145866
 30
0.0
 11
4499.7770589227829987
 21
239.4019702666120963
 31
0.0
  0
LINE
  5
EF96
  8
0
 10
4499.7366860261563488
 20
239.6952108483440043
 30
0.0
 11
4499.7486654546837599
 21
239.695219352814604
 31
0.0
  0
LINE
  5
EF97
  8
0
 10
4499.7491292768818312
 20
239.6873453374145981
 30
0.0
 11
4499.7371502444448197
 21
239.6873061679212924
 31
0.0
  0
LINE
  5
EF98
  8
0
 10
4499.7381042983197403
 20
239.6718665804930026
 30
0.0
 11
4499.7500852067396409
 21
239.6719208426202954
 31
0.0
  0
LINE
  5
EF99
  8
0
 10
4499.7397163263149196
 20
239.647800993332595
 30
0.0
 11
4499.7516935247804213
 21
239.647975247214589
 31
0.0
  0
LINE
  5
EF9A
  8
0
 10
4499.739706134255357
 20
240.1834373452072953
 30
0.0
 11
4499.7516935175581239
 21
240.1834083181146013
 31
0.0
  0
LINE
  5
EF9B
  8
0
 10
4499.7514438918151427
 20
240.1798347353146141
 30
0.0
 11
4499.7394534259556167
 21
240.1798082577832076
 31
0.0
  0
LINE
  5
EF9C
  8
0
 10
4499.7381048558081602
 20
240.1595258225451914
 30
0.0
 11
4499.7500852016319186
 21
240.159462745609801
 31
0.0
  0
LINE
  5
EF9D
  8
0
 10
4499.749129272099708
 20
240.1440382508145888
 30
0.0
 11
4499.7371471746446332
 21
240.1440261296648089
 31
0.0
  0
LINE
  5
EF9E
  8
0
 10
4499.7366852382438083
 20
240.1361591613882922
 30
0.0
 11
4499.7486654500262375
 21
240.136164234714613
 31
0.0
  0
ARC
  5
EF9F
  8
0
 10
4499.7201117261020045
 20
240.3126821337093872
 30
0.0
 40
0.0365296969121775
 50
321.4105606627966836
 51
26.7798165908133612
  0
LINE
  5
EFA0
  8
0
 10
4499.7657815277843838
 20
240.4353768220146037
 30
0.0
 11
4499.7778945477839443
 21
240.4353768220146037
 31
0.0
  0
LINE
  5
EFA1
  8
0
 10
4499.7770589227829987
 20
240.4353768220146037
 30
0.0
 11
4499.7770589227829987
 21
240.429639481414597
 31
0.0
  0
LINE
  5
EFA2
  8
0
 10
4499.7725446096828819
 20
240.4826209276145903
 30
0.0
 11
4499.784636894903997
 21
240.4826209276145903
 31
0.0
  0
LINE
  5
EFA3
  8
0
 10
4499.7834624341521703
 20
240.4747469122146128
 30
0.0
 11
4499.7713905573828015
 21
240.4747469122146128
 31
0.0
  0
LINE
  5
EFA4
  8
0
 10
4499.7691356793829982
 20
240.4593224157146096
 30
0.0
 11
4499.781210396453389
 21
240.4593224138411927
 31
0.0
  0
LINE
  5
EFA5
  8
0
 10
4499.781614785470083
 20
240.5685205070795121
 30
0.0
 11
4499.7988081456860527
 21
240.5700388765594937
 31
0.0
  0
LINE
  5
EFA6
  8
0
 10
4499.7967742729124438
 20
240.558243172039198
 30
0.0
 11
4499.7844517460507632
 21
240.5571269008970035
 31
0.0
  0
LINE
  5
EFA7
  8
0
 10
4499.7842439963123979
 20
240.5559129431545955
 30
0.0
 11
4499.7965653759692941
 21
240.5570189965191901
 31
0.0
  0
ARC
  5
EFA8
  8
0
 10
4499.8801416867427179
 20
220.6618878613473953
 30
0.0
 40
4.9840583626820401
 50
250.9213310414046134
 51
269.6296432377149017
  0
ARC
  5
EFA9
  8
0
 10
4499.918789760555228
 20
220.9036810245756897
 30
0.0
 40
5.2253756424474851
 50
230.8419298112916067
 51
251.3874416291114073
  0
ARC
  5
EFAA
  8
0
 10
4503.2764608449997468
 20
224.242710084860704
 30
0.0
 40
9.9470519032104026
 50
206.6583484991708985
 51
227.9889890959208003
  0
ARC
  5
EFAB
  8
0
 10
4496.4770344867010863
 20
233.2002367486508945
 30
0.0
 40
0.5942429274608862
 50
210.2046903742050858
 51
269.6782269043928864
  0
ARC
  5
EFAC
  8
0
 10
4495.7737444357226195
 20
232.7908350854478954
 30
0.0
 40
0.2195301475643446
 50
30.2046903742050716
 51
83.4633864483202785
  0
LINE
  5
EFAD
  8
0
 10
4495.7987353327844176
 20
233.0089381362145957
 30
0.0
 11
4495.7911887225809551
 21
233.1120999410921968
 31
0.0
  0
ARC
  5
EFAE
  8
0
 10
4495.7325717185758549
 20
232.030728647268603
 30
0.0
 40
1.0829588303643529
 50
86.8972513890696234
 51
90.100426370980145
  0
ARC
  5
EFAF
  8
0
 10
4495.5240287159167565
 20
273.7612267249156162
 30
0.0
 40
40.6480661800822034
 50
267.0889231085565143
 51
270.2912789818108195
  0
ARC
  5
EFB0
  8
0
 10
4493.45183336764876
 20
232.3892134119840875
 30
0.0
 40
0.7764407273219868
 50
89.4213172380125485
 51
174.0766446867447996
  0
LINE
  5
EFB1
  8
0
 10
4492.6795381866841126
 20
232.4693405391145973
 30
0.0
 11
4492.6795381866841126
 21
227.7108145369772956
 31
0.0
  0
ARC
  5
EFB2
  8
0
 10
4518.9169163081660372
 20
227.1192426305698859
 30
0.0
 40
26.2440463345511183
 50
178.7083758322206108
 51
184.698885340544507
  0
ARC
  5
EFB3
  8
0
 10
4504.6887645558208533
 20
225.9512668216140128
 30
0.0
 40
11.9680362198496208
 50
184.7061020818069039
 51
198.3374346857607122
  0
ARC
  5
EFB4
  8
0
 10
4506.5748898405890941
 20
226.5764105162257067
 30
0.0
 40
13.9550624473448899
 50
198.3374346857607122
 51
209.1460498335478064
  0
LINE
  5
EFB5
  8
0
 10
4495.8262715211840259
 20
233.0039885301366098
 30
0.0
 11
4495.8263058660568277
 21
233.0305931902639998
 31
0.0
  0
ARC
  5
EFB6
  8
0
 10
4495.8853259427469311
 20
233.0325790242447113
 30
0.0
 40
0.0590534756740135
 50
89.9993241956891552
 51
181.9270899756820938
  0
LINE
  5
EFB7
  8
0
 10
4495.885326639284358
 20
233.0916324999145957
 30
0.0
 11
4496.1980180832342739
 21
233.0916322092647874
 31
0.0
  0
ARC
  5
EFB8
  8
0
 10
4496.2029077614970447
 20
-322.0168982991298208
 30
0.0
 40
555.1085305299300217
 50
89.9965130782134679
 51
90.0005046903859238
  0
ARC
  5
EFB9
  8
0
 10
4496.2366854860993044
 20
233.0058945329928974
 30
0.0
 40
0.0857366699804648
 50
66.9334546680669291
 51
89.9965130782134679
  0
ARC
  5
EFBA
  8
0
 10
4496.3513742670020292
 20
233.2752142603594905
 30
0.0
 40
0.2069861204098445
 50
246.9334546680669007
 51
255.2606675973989923
  0
LINE
  5
EFBB
  8
0
 10
4496.2987124660839982
 20
233.0750393649146019
 30
0.0
 11
4496.2987124660839982
 21
232.6333805818848077
 31
0.0
  0
LINE
  5
EFBC
  8
0
 10
4496.2987124660839982
 20
232.9107039808145885
 30
0.0
 11
4496.3144604975841503
 21
232.9107039808145885
 31
0.0
  0
LINE
  5
EFBD
  8
0
 10
4496.3144604975841503
 20
232.9107039808145885
 30
0.0
 11
4496.3144604975841503
 21
232.6286649203561865
 31
0.0
  0
ARC
  5
EFBE
  8
0
 10
4496.4689052849862492
 20
233.1772245735313049
 30
0.0
 40
0.7937865838780862
 50
209.8545447076049868
 51
269.569761462252302
  0
LINE
  5
EFBF
  8
0
 10
4495.7804605718838502
 20
232.7820777429145949
 30
0.0
 11
4493.606217988483877
 21
232.8033625612146125
 31
0.0
  0
ARC
  5
EFC0
  8
0
 10
4493.6235809493846318
 20
232.3013379692964975
 30
0.0
 40
0.5023247587983591
 50
91.9808352339996276
 51
157.3262603449153971
  0
ARC
  5
EFC1
  8
0
 10
4493.7267099819164287
 20
232.2517183032088894
 30
0.0
 40
0.6166404832058859
 50
156.7659402590304865
 51
181.3595948418102068
  0
LINE
  5
EFC2
  8
0
 10
4493.1102431009840075
 20
232.237087163714591
 30
0.0
 11
4493.1079388371699679
 21
227.281982601507508
 31
0.0
  0
ARC
  5
EFC3
  8
0
 10
4513.7923476844989636
 20
227.0211735018247907
 30
0.0
 40
20.6860530490936512
 50
179.2775974922708997
 51
188.4533053810876879
  0
ARC
  5
EFC4
  8
0
 10
4505.407788096042168
 20
226.0952990593567051
 30
0.0
 40
12.2605688006558999
 50
189.9336631881969026
 51
208.2167630054964036
  0
ARC
  5
EFC5
  8
0
 10
4504.9408257471031902
 20
225.4036968355985948
 30
0.0
 40
11.5286546484648706
 50
206.2849511772772928
 51
223.4712342604240973
  0
ARC
  5
EFC6
  8
0
 10
4499.9120700079292874
 20
220.8064856141631083
 30
0.0
 40
4.6993021138655982
 50
253.6963843180074036
 51
269.2178968360553881
  0
ARC
  5
EFC7
  8
0
 10
4500.0251782978721167
 20
221.1501892220462082
 30
0.0
 40
5.0609515497630984
 50
238.888745240112911
 51
253.5597044983134936
  0
ARC
  5
EFC8
  8
0
 10
4499.6722273913492245
 20
220.5653555884030084
 30
0.0
 40
4.3778668394558773
 50
224.9563751409189933
 51
238.888745240112911
  0
LINE
  5
EFC9
  8
0
 10
4496.3270363408319099
 20
232.6252365633696968
 30
0.0
 11
4496.3291488053109788
 21
233.0133360561731877
 31
0.0
  0
ARC
  5
EFCA
  8
0
 10
4500.674317237766445
 20
232.8297645136844096
 30
0.0
 40
4.3490444028105077
 50
175.3856700667259929
 51
177.5808478011859108
  0
ARC
  5
EFCB
  8
0
 10
4497.8688417487446713
 20
233.1838945699682881
 30
0.0
 40
0.0050098476052255
 50
315.907065851161974
 51
354.8891393066753039
  0
LINE
  5
EFCC
  8
0
 10
4497.8738316781827962
 20
233.1834482772146089
 30
0.0
 11
4497.8885231924841719
 21
233.3139852151145988
 31
0.0
  0
LINE
  5
EFCD
  8
0
 10
4497.8885231195899905
 20
233.3139845674469939
 30
0.0
 11
4497.8787925514843664
 21
234.1294646231145862
 31
0.0
  0
ARC
  5
EFCE
  8
0
 10
4497.3752413930105831
 20
234.1234560900929864
 30
0.0
 40
0.5035870050639808
 50
0.6836390702876183
 51
78.5682654648858403
  0
ARC
  5
EFCF
  8
0
 10
4497.3884505024980172
 20
234.2265738761506952
 30
0.0
 40
0.3999670215593635
 50
77.4951203890423557
 51
88.8006615100683661
  0
LINE
  5
EFD0
  8
0
 10
4497.3968221629838808
 20
234.6264532750145975
 30
0.0
 11
4496.8695688143852749
 21
234.6271815088146013
 31
0.0
  0
ARC
  5
EFD1
  8
0
 10
4496.8444101171880902
 20
234.0287788895955998
 30
0.0
 40
0.5989312604404704
 50
87.5925260249898514
 51
100.3616241864397978
  0
ARC
  5
EFD2
  8
0
 10
4496.8839074504357995
 20
234.0066004276874025
 30
0.0
 40
0.62881928990463
 50
103.5399552590605055
 51
123.9536124901252947
  0
ARC
  5
EFD3
  8
0
 10
4496.8433355690840472
 20
234.1179393449939141
 30
0.0
 40
0.514596048566128
 50
127.1319435627247003
 51
178.7166535476561933
  0
LINE
  5
EFD4
  8
0
 10
4496.3288686010837409
 20
234.1294646231145862
 30
0.0
 11
4496.3191427805841158
 21
233.3139852268145944
 31
0.0
  0
LINE
  5
EFD5
  8
0
 10
4496.3191253962841074
 20
233.3139853062145903
 30
0.0
 11
4496.3338690324608251
 21
233.1830142857573094
 31
0.0
  0
ARC
  5
EFD6
  8
0
 10
4496.3379381324921269
 20
233.18347235144401
 30
0.0
 40
0.0040948014892394
 50
186.4228459474352064
 51
228.4359688634401948
  0
ARC
  5
EFD7
  8
0
 10
4496.340392387492102
 20
233.196612496833211
 30
0.0
 40
0.0170090142161247
 50
252.3011472224389138
 51
266.5497566376901091
  0
LINE
  5
EFD8
  8
0
 10
4496.3393687557736484
 20
233.1796343125159012
 30
0.0
 11
4497.8496034171548672
 21
233.1790538942146043
 31
0.0
  0
ARC
  5
EFD9
  8
0
 10
4497.851665219653114
 20
233.4188458525129874
 30
0.0
 40
0.239800822129796
 50
269.5073660056658014
 51
273.8602305657245779
  0
ARC
  5
EFDA
  8
0
 10
4497.8663380258003599
 20
233.2013931794093935
 30
0.0
 40
0.0218536811067732
 50
273.8602305657245211
 51
286.2130786805591924
  0
LINE
  5
EFDB
  8
0
 10
4496.5539956604079634
 20
233.1795518264052873
 30
0.0
 11
4496.5546318868828166
 21
233.1302586593145918
 31
0.0
  0
LINE
  5
EFDC
  8
0
 10
4496.5546318868828166
 20
233.1302586593145918
 30
0.0
 11
4497.6531579097963913
 21
233.1309162912430963
 31
0.0
  0
LINE
  5
EFDD
  8
0
 10
4497.6531579097963913
 20
233.1309162912430963
 30
0.0
 11
4497.6537679866769395
 21
233.179129158324713
 31
0.0
  0
ARC
  5
EFDE
  8
0
 10
4496.4366344944137381
 20
233.1778190122282126
 30
0.0
 40
0.1003613168037339
 50
168.7536514635033882
 51
178.7052322295008082
  0
ARC
  5
EFDF
  8
0
 10
4496.4017223823238965
 20
233.1847611501401047
 30
0.0
 40
0.0647656871641585
 50
150.1472369417475932
 51
168.7536514635017113
  0
ARC
  5
EFE0
  8
0
 10
4496.3799212864987567
 20
233.1937880481650041
 30
0.0
 40
0.0414743999246261
 50
115.6412530697958942
 51
145.9674771707034893
  0
ARC
  5
EFE1
  8
0
 10
4496.3964030834449659
 20
233.1579342302100883
 30
0.0
 40
0.0809322890715877
 50
93.6669461122271514
 51
115.1764727683359979
  0
ARC
  5
EFE2
  8
0
 10
4496.4033793635662732
 20
233.101151127581403
 30
0.0
 40
0.1380854841504075
 50
89.7436296271639975
 51
95.0489386908736549
  0
LINE
  5
EFE3
  8
0
 10
4496.403997291471569
 20
233.2392475093147084
 30
0.0
 11
4497.8036638217317886
 21
233.2392521415135036
 31
0.0
  0
ARC
  5
EFE4
  8
0
 10
4497.803664277851567
 20
233.1014305654493057
 30
0.0
 40
0.1378215760648531
 50
80.0046831789084933
 51
90.0001896205004641
  0
ARC
  5
EFE5
  8
0
 10
4497.8167589334343575
 20
233.1757295594225923
 30
0.0
 40
0.0623774874279405
 50
51.5600309564644803
 51
80.0046831789081949
  0
ARC
  5
EFE6
  8
0
 10
4497.8260887091510085
 20
233.1927415410997924
 30
0.0
 40
0.0433757444684573
 50
10.8602942869734207
 51
47.2383665163118422
  0
ARC
  5
EFE7
  8
0
 10
4497.768000191675128
 20
233.1773938720492936
 30
0.0
 40
0.1033980346998325
 50
1.4924868139535079
 51
13.1483676195697097
  0
ARC
  5
EFE8
  8
0
 10
4499.835027855194312
 20
182.4343306377938063
 30
0.0
 40
60.4440459196074684
 50
89.9877743907331364
 51
93.5487440402236814
  0
ARC
  5
EFE9
  8
0
 10
4499.5804646628121191
 20
186.5392592863734933
 30
0.0
 40
56.331231599858917
 50
93.5487546893539559
 51
95.8420473925698673
  0
ARC
  5
EFEA
  8
0
 10
4493.9900232515828975
 20
241.1772796450838996
 30
0.0
 40
1.4079550780487691
 50
95.8420473925698673
 51
185.4905283734472903
  0
LINE
  5
EFEB
  8
0
 10
4492.5885278304185704
 20
241.0425648119781101
 30
0.0
 11
4492.589275972057294
 21
238.6288515972806863
 31
0.0
  0
ARC
  5
EFEC
  8
0
 10
4494.0157660946606484
 20
238.666033101584901
 30
0.0
 40
1.426974608795238
 50
181.4930780058224116
 51
268.4472923357611194
  0
ARC
  5
EFED
  8
0
 10
4499.8063640408836363
 20
296.3804464054476853
 30
0.0
 40
59.4274524843392484
 50
264.3707808084632234
 51
270.040070387703679
  0
LINE
  5
EFEE
  8
0
 10
4497.8764999256400188
 20
233.2071561704485987
 30
0.0
 11
4501.8193505391809595
 21
233.2071561704485987
 31
0.0
  0
ARC
  5
EFEF
  8
0
 10
3827.6229469313129812
 20
226.4906473787540904
 30
0.0
 40
665.0861169993397652
 50
0.5168653101905535
 51
0.8076868965957649
  0
ARC
  5
EFF0
  8
0
 10
1773.4065163417299118
 20
244.7185393522431127
 30
0.0
 40
2719.2508758928488533
 50
359.8134711918665971
 51
359.8473561289841882
  0
ARC
  5
EFF1
  8
0
 10
4499.4075281613959305
 20
170.5752672141240112
 30
0.0
 40
72.7006356524759667
 50
86.8420000483419443
 51
89.6529184706718354
  0
ARC
  5
EFF2
  8
0
 10
4500.5730197669690824
 20
192.1616222877173072
 30
0.0
 40
51.082861174400513
 50
84.2123733635524445
 51
86.8134414424441161
  0
ARC
  5
EFF3
  8
0
 10
4505.3346096595241761
 20
239.139506817368698
 30
0.0
 40
3.864280369952998
 50
78.016674282197954
 51
84.2123733635524445
  0
ARC
  5
EFF4
  8
0
 10
4505.8577293119242313
 20
241.6041179381776942
 30
0.0
 40
1.344764117268183
 50
58.5598917519266777
 51
78.016674282197954
  0
ARC
  5
EFF5
  8
0
 10
4499.0365308183781963
 20
335.9827871312784282
 30
0.0
 40
99.4266868042625731
 50
270.4675806161314995
 51
271.8772368113465063
  0
ARC
  5
EFF6
  8
0
 10
4500.8835506518380498
 20
279.992737036566723
 30
0.0
 40
43.4061828128113021
 50
271.8615278535917241
 51
275.1724004149036773
  0
ARC
  5
EFF7
  8
0
 10
4582.1600040869916484
 20
-617.8767392515020447
 30
0.0
 40
858.1344198961335223
 50
95.1140624620669826
 51
95.1724004149036489
  0
ARC
  5
EFF8
  8
0
 10
4505.3364098772390207
 20
241.4257144448901045
 30
0.0
 40
4.5959830122012511
 50
274.1244487784124999
 51
277.478698017757381
  0
ARC
  5
EFF9
  8
0
 10
4505.6771294604550349
 20
238.6591265600984002
 30
0.0
 40
1.808719487875017
 50
278.184211883755097
 51
295.8402095107513787
  0
ARC
  5
EFFA
  8
0
 10
4505.6565336879002643
 20
238.7016547690282096
 30
0.0
 40
1.855972365056354
 50
295.8402095107513787
 51
311.2336787618373819
  0
ARC
  5
EFFB
  8
0
 10
4505.6826230757778831
 20
238.6718884232699907
 30
0.0
 40
1.8163909110703109
 50
311.2336787618373819
 51
325.6177819274120111
  0
ARC
  5
EFFC
  8
0
 10
4505.6801151554509488
 20
238.6736044891468111
 30
0.0
 40
1.819429750727763
 50
325.61778192741059
 51
355.5855143847857107
  0
ARC
  5
EFFD
  8
0
 10
4504.5679807583646834
 20
238.7136629724404031
 30
0.0
 40
2.9317037799360581
 50
356.4779572765805824
 51
0.4230842564319821
  0
LINE
  5
EFFE
  8
0
 10
4507.4996046107371512
 20
238.7353111017145864
 30
0.0
 11
4507.4995052046251658
 21
241.0528537302735117
 31
0.0
  0
ARC
  5
EFFF
  8
0
 10
4505.5671565108050345
 20
241.1359182299844974
 30
0.0
 40
1.9341331871468479
 50
357.5385823942826278
 51
19.5384050326742198
  0
ARC
  5
F000
  8
0
 10
4505.6850190235300033
 20
241.1590023633173132
 30
0.0
 40
1.8154231892245829
 50
20.0958644542969189
 51
46.2599357385383883
  0
ARC
  5
F001
  8
0
 10
4505.6738491076475839
 20
241.1514492255629136
 30
0.0
 40
1.8286051704789641
 50
46.1707011500591733
 51
61.043223830251037
  0
ARC
  5
F002
  8
0
 10
4499.8157087780782604
 20
220.6618878613473953
 30
0.0
 40
4.9840583626820401
 50
270.3703567622849846
 51
289.0786689585953013
  0
ARC
  5
F003
  8
0
 10
4499.7770607042639313
 20
220.9036810245756897
 30
0.0
 40
5.2253756424474851
 50
288.6125583708886211
 51
309.1580701887083933
  0
ARC
  5
F004
  8
0
 10
4496.419389619820322
 20
224.242710084860704
 30
0.0
 40
9.9470519032104026
 50
312.0110109040792281
 51
333.341651500829073
  0
ARC
  5
F005
  8
0
 10
4503.2188159781208014
 20
233.2002367486508945
 30
0.0
 40
0.5942429274608862
 50
270.3217730956071136
 51
329.7953096257949142
  0
ARC
  5
F006
  8
0
 10
4503.9221060290974492
 20
232.7908350854478954
 30
0.0
 40
0.2195301475643446
 50
96.5366135516797357
 51
149.7953096257949142
  0
LINE
  5
F007
  8
0
 10
4503.8971151320356512
 20
233.0089381362145957
 30
0.0
 11
4503.9046617422400232
 21
233.1120999410921968
 31
0.0
  0
ARC
  5
F008
  8
0
 10
4503.9632787462442138
 20
232.030728647268603
 30
0.0
 40
1.0829588303643529
 50
89.899573629019855
 51
93.1027486109303766
  0
ARC
  5
F009
  8
0
 10
4504.1718217489033123
 20
273.7612267249156162
 30
0.0
 40
40.6480661800822034
 50
269.7087210181891237
 51
272.9110768914434857
  0
ARC
  5
F00A
  8
0
 10
4506.2440170971713087
 20
232.3892134119840875
 30
0.0
 40
0.7764407273219868
 50
5.923355313255195
 51
90.5786827619874657
  0
LINE
  5
F00B
  8
0
 10
4507.0163122781359561
 20
232.4693405391145973
 30
0.0
 11
4507.0163122781359561
 21
227.7108145369772956
 31
0.0
  0
ARC
  5
F00C
  8
0
 10
4480.778934156654941
 20
227.1192426305698859
 30
0.0
 40
26.2440463345511183
 50
355.3011146594553793
 51
1.2916241677777129
  0
ARC
  5
F00D
  8
0
 10
4495.007085909000125
 20
225.9512668216140128
 30
0.0
 40
11.9680362198496208
 50
341.6625653142377246
 51
355.2938979181931245
  0
ARC
  5
F00E
  8
0
 10
4493.1209606242309746
 20
226.5764105162257067
 30
0.0
 40
13.9550624473448899
 50
330.8539501664521936
 51
341.6625653142377246
  0
LINE
  5
F00F
  8
0
 10
4503.8695789436360428
 20
233.0039885301366098
 30
0.0
 11
4503.8695445987641506
 21
233.0305931902639998
 31
0.0
  0
ARC
  5
F010
  8
0
 10
4503.8105245220731376
 20
233.0325790242447113
 30
0.0
 40
0.0590534756740135
 50
358.0729100243178777
 51
90.0006758043108448
  0
LINE
  5
F011
  8
0
 10
4503.8105238255366203
 20
233.0916324999145957
 30
0.0
 11
4503.4978323815867043
 21
233.0916322092647874
 31
0.0
  0
ARC
  5
F012
  8
0
 10
4503.492942703323024
 20
-322.0168982991298208
 30
0.0
 40
555.1085305299300217
 50
89.9994953096140904
 51
90.0034869217865179
  0
ARC
  5
F013
  8
0
 10
4503.4591649787207643
 20
233.0058945329928974
 30
0.0
 40
0.0857366699804648
 50
90.0034869217865179
 51
113.0665453319329998
  0
ARC
  5
F014
  8
0
 10
4503.344476197818949
 20
233.2752142603594905
 30
0.0
 40
0.2069861204098445
 50
284.7393324026010077
 51
293.0665453319331277
  0
LINE
  5
F015
  8
0
 10
4503.3971379987369801
 20
233.0750393649146019
 30
0.0
 11
4503.3971379987369801
 21
232.6333805818848077
 31
0.0
  0
LINE
  5
F016
  8
0
 10
4503.3971379987369801
 20
232.9107039808145885
 30
0.0
 11
4503.3813899672368279
 21
232.9107039808145885
 31
0.0
  0
LINE
  5
F017
  8
0
 10
4503.3813899672368279
 20
232.9107039808145885
 30
0.0
 11
4503.3813899672368279
 21
232.6286649203561865
 31
0.0
  0
ARC
  5
F018
  8
0
 10
4503.2269451798347291
 20
233.1772245735313049
 30
0.0
 40
0.7937865838780862
 50
270.4302385377475844
 51
330.1454552923950132
  0
LINE
  5
F019
  8
0
 10
4503.915389892937128
 20
232.7820777429145949
 30
0.0
 11
4506.0896324763371013
 21
232.8033625612146125
 31
0.0
  0
ARC
  5
F01A
  8
0
 10
4506.0722695154354369
 20
232.3013379692964975
 30
0.0
 40
0.5023247587983591
 50
22.6737396550845887
 51
88.0191647660003866
  0
ARC
  5
F01B
  8
0
 10
4505.9691404829045496
 20
232.2517183032088894
 30
0.0
 40
0.6166404832058859
 50
358.6404051581898216
 51
23.2340597409694603
  0
LINE
  5
F01C
  8
0
 10
4506.5856073638369708
 20
232.237087163714591
 30
0.0
 11
4506.5879116276501009
 21
227.281982601507508
 31
0.0
  0
ARC
  5
F01D
  8
0
 10
4485.9035027803220146
 20
227.0211735018247907
 30
0.0
 40
20.6860530490936512
 50
351.546694618910692
 51
0.7224025077291359
  0
ARC
  5
F01E
  8
0
 10
4494.2880623687788102
 20
226.0952990593567051
 30
0.0
 40
12.2605688006558999
 50
331.7832369945036248
 51
350.0663368118014205
  0
ARC
  5
F01F
  8
0
 10
4494.755024717717788
 20
225.4036968355985948
 30
0.0
 40
11.5286546484648706
 50
316.5287657395758742
 51
333.7150488227226219
  0
ARC
  5
F020
  8
0
 10
4499.7837804568907814
 20
220.8064856141631083
 30
0.0
 40
4.6993021138655902
 50
270.7821031639446119
 51
286.3036156819925964
  0
ARC
  5
F021
  8
0
 10
4499.6706721669479521
 20
221.1501892220462082
 30
0.0
 40
5.0609515497630984
 50
286.440295501686478
 51
301.1112547598870037
  0
ARC
  5
F022
  8
0
 10
4500.0236230734717537
 20
220.5653555884030084
 30
0.0
 40
4.3778668394558773
 50
301.1112547598870037
 51
315.0436248590809782
  0
LINE
  5
F023
  8
0
 10
4503.3688141239890683
 20
232.6252365633696968
 30
0.0
 11
4503.3667016595099994
 21
233.0133360561731877
 31
0.0
  0
ARC
  5
F024
  8
0
 10
4499.0215332270536237
 20
232.8297645136844096
 30
0.0
 40
4.3490444028105077
 50
2.4191521988141131
 51
4.6143299332739653
  0
ARC
  5
F025
  8
0
 10
4501.8270087160763069
 20
233.1838945699682881
 30
0.0
 40
0.0050098476052255
 50
185.1108606933246961
 51
224.0929341488379123
  0
LINE
  5
F026
  8
0
 10
4501.8220187866372726
 20
233.1834482772146089
 30
0.0
 11
4501.8073272723368063
 21
233.3139852151145988
 31
0.0
  0
LINE
  5
F027
  8
0
 10
4501.8073273452300782
 20
233.3139845674469939
 30
0.0
 11
4501.8170579133366118
 21
234.1294646231145862
 31
0.0
  0
ARC
  5
F028
  8
0
 10
4502.3206090718103951
 20
234.1234560900929864
 30
0.0
 40
0.5035870050639808
 50
101.4317345351141029
 51
179.3163609297124026
  0
ARC
  5
F029
  8
0
 10
4502.3073999623220516
 20
234.2265738761506952
 30
0.0
 40
0.3999670215593635
 50
91.1993384899316482
 51
102.5048796109576017
  0
LINE
  5
F02A
  8
0
 10
4502.2990283018370974
 20
234.6264532750145975
 30
0.0
 11
4502.8262816504357033
 21
234.6271815088146013
 31
0.0
  0
ARC
  5
F02B
  8
0
 10
4502.8514403476319785
 20
234.0287788895955998
 30
0.0
 40
0.5989312604404704
 50
79.6383758135602164
 51
92.4074739750101486
  0
ARC
  5
F02C
  8
0
 10
4502.8119430143851787
 20
234.0066004276874025
 30
0.0
 40
0.62881928990463
 50
56.0463875098746982
 51
76.4600447409394803
  0
ARC
  5
F02D
  8
0
 10
4502.8525148957360216
 20
234.1179393449939141
 30
0.0
 40
0.514596048566128
 50
1.283346452343803
 51
52.8680564372752713
  0
LINE
  5
F02E
  8
0
 10
4503.3669818637372373
 20
234.1294646231145862
 30
0.0
 11
4503.3767076842359529
 21
233.3139852268145944
 31
0.0
  0
LINE
  5
F02F
  8
0
 10
4503.3767250685368708
 20
233.3139853062145903
 30
0.0
 11
4503.3619814323601531
 21
233.1830142857573094
 31
0.0
  0
ARC
  5
F030
  8
0
 10
4503.3579123323288513
 20
233.18347235144401
 30
0.0
 40
0.0040948014892394
 50
311.5640311365598905
 51
353.5771540525631735
  0
ARC
  5
F031
  8
0
 10
4503.3554580773279667
 20
233.196612496833211
 30
0.0
 40
0.0170090142161247
 50
273.4502433623100046
 51
287.6988527775611146
  0
LINE
  5
F032
  8
0
 10
4503.3564817090473298
 20
233.1796343125159012
 30
0.0
 11
4501.8462470476652015
 21
233.1790538942146043
 31
0.0
  0
ARC
  5
F033
  8
0
 10
4501.8441852451669547
 20
233.4188458525129874
 30
0.0
 40
0.239800822129796
 50
266.1397694342754221
 51
270.4926339943343123
  0
ARC
  5
F034
  8
0
 10
4501.8295124390206183
 20
233.2013931794093935
 30
0.0
 40
0.0218536811067732
 50
253.7869213194408076
 51
266.1397694342754789
  0
LINE
  5
F035
  8
0
 10
4503.1418548044130148
 20
233.1795518264052873
 30
0.0
 11
4503.1412185779372521
 21
233.1302586593145918
 31
0.0
  0
LINE
  5
F036
  8
0
 10
4503.1412185779372521
 20
233.1302586593145918
 30
0.0
 11
4502.0426925550245869
 21
233.1309162912430963
 31
0.0
  0
LINE
  5
F037
  8
0
 10
4502.0426925550245869
 20
233.1309162912430963
 30
0.0
 11
4502.0420824781431293
 21
233.179129158324713
 31
0.0
  0
ARC
  5
F038
  8
0
 10
4503.2592159704063306
 20
233.1778190122282126
 30
0.0
 40
0.1003613168037339
 50
1.294767770500808
 51
11.2463485364950397
  0
ARC
  5
F039
  8
0
 10
4503.2941280824961723
 20
233.1847611501401047
 30
0.0
 40
0.0647656871641585
 50
11.2463485364982301
 51
29.8527630582524104
  0
ARC
  5
F03A
  8
0
 10
4503.3159291783222216
 20
233.1937880481650041
 30
0.0
 40
0.0414743999246261
 50
34.0325228292964965
 51
64.3587469302040489
  0
ARC
  5
F03B
  8
0
 10
4503.2994473813751029
 20
233.1579342302100883
 30
0.0
 40
0.0809322890715877
 50
64.8235272316639879
 51
86.3330538877728344
  0
ARC
  5
F03C
  8
0
 10
4503.292471101254705
 20
233.101151127581403
 30
0.0
 40
0.1380854841504075
 50
84.9510613091263451
 51
90.2563703728359883
  0
LINE
  5
F03D
  8
0
 10
4503.2918531733475902
 20
233.2392475093147084
 30
0.0
 11
4501.8921866430891896
 21
233.2392521415135036
 31
0.0
  0
ARC
  5
F03E
  8
0
 10
4501.8921861869675922
 20
233.1014305654493057
 30
0.0
 40
0.1378215760648531
 50
89.9998103794995217
 51
99.9953168210915209
  0
ARC
  5
F03F
  8
0
 10
4501.8790915313857113
 20
233.1757295594225923
 30
0.0
 40
0.0623774874279405
 50
99.9953168210917909
 51
128.4399690435355126
  0
ARC
  5
F040
  8
0
 10
4501.8697617556699697
 20
233.1927415410997924
 30
0.0
 40
0.0433757444684573
 50
132.7616334836880867
 51
169.1397057130282064
  0
ARC
  5
F041
  8
0
 10
4501.9278502731458502
 20
233.1773938720492936
 30
0.0
 40
0.1033980346998325
 50
166.8516323804302033
 51
178.5075131860465092
  0
ARC
  5
F042
  8
0
 10
4499.8608226096257567
 20
182.4343306377930105
 30
0.0
 40
60.4440459196083566
 50
86.4512559597763328
 51
90.0122256092668636
  0
ARC
  5
F043
  8
0
 10
4500.1153858020088592
 20
186.5392592863734933
 30
0.0
 40
56.331231599858917
 50
84.1579526074301327
 51
86.4512453106460583
  0
ARC
  5
F044
  8
0
 10
4505.7058272132371712
 20
241.1772796450838996
 30
0.0
 40
1.4079550780487691
 50
354.5094716265526813
 51
84.1579526074301327
  0
LINE
  5
F045
  8
0
 10
4507.1073226344024079
 20
241.0425648119781101
 30
0.0
 11
4507.1065744927627748
 21
238.6288515972806863
 31
0.0
  0
ARC
  5
F046
  8
0
 10
4505.6800843701603299
 20
238.666033101584901
 30
0.0
 40
1.426974608795238
 50
271.5527076642389943
 51
358.5069219941760252
  0
ARC
  5
F047
  8
0
 10
4499.8894863509403876
 20
296.3804479008862245
 30
0.0
 40
59.4274539797263017
 50
269.9599296836872782
 51
275.6292191201662263
  0
ARC
  5
F048
  8
0
 10
5172.0729035335079971
 20
226.4906473787540904
 30
0.0
 40
665.0861169993397652
 50
179.1923131034041887
 51
179.4831346898093898
  0
ARC
  5
F049
  8
0
 10
7226.2893341230910664
 20
244.7185393522431127
 30
0.0
 40
2719.2508758928488533
 50
180.1526438710158118
 51
180.1865288081318113
  0
LINE
  5
F04A
  8
0
 10
4496.4629447347933819
 20
232.383460368879696
 30
0.0
 11
4503.2329057300266868
 21
232.383460368879696
 31
0.0
  0
LINE
  5
F04B
  8
0
 10
4503.2221532288358503
 20
232.6060031922145868
 30
0.0
 11
4496.4736972359842184
 21
232.6060031922145868
 31
0.0
  0
ENDSEC
  0
EOF
