  0
SECTION
  2
HEADER
  9
$ACADVER
  1
AC1009
  9
$INSBASE
 10
6488.4885480433913472
 20
357.6067094297231961
 30
0.0
  9
$EXTMIN
 10
6480.9694760016527653
 20
357.580710392052822
 30
-0.0015258207003583
  9
$EXTMAX
 10
6504.7899938758146163
 20
393.0551056635885061
 30
0.0000000349246037
  9
$LIMMIN
 10
0.0
 20
0.0
  9
$LIMMAX
 10
11.6929133858000007
 20
8.2677165353999982
  9
$ORTHOMODE
 70
     0
  9
$REGENMODE
 70
     1
  9
$FILLMODE
 70
     1
  9
$QTEXTMODE
 70
     0
  9
$MIRRTEXT
 70
     0
  9
$DRAGMODE
 70
     2
  9
$LTSCALE
 40
0.6431102362
  9
$OSMODE
 70
  3839
  9
$ATTMODE
 70
     1
  9
$TEXTSIZE
 40
0.2
  9
$TRACEWID
 40
0.05
  9
$TEXTSTYLE
  7
STANDARD
  9
$CLAYER
  8
0
  9
$CELTYPE
  6
BYLAYER
  9
$CECOLOR
 62
   256
  9
$DIMSCALE
 40
1.0
  9
$DIMASZ
 40
0.1875
  9
$DIMEXO
 40
0.0625
  9
$DIMDLI
 40
0.4443307087
  9
$DIMRND
 40
0.0
  9
$DIMDLE
 40
0.0
  9
$DIMEXE
 40
0.125
  9
$DIMTP
 40
0.01
  9
$DIMTM
 40
0.01
  9
$DIMTXT
 40
2.0
  9
$DIMCEN
 40
0.1052362205
  9
$DIMTSZ
 40
0.0
  9
$DIMTOL
 70
     1
  9
$DIMLIM
 70
     0
  9
$DIMTIH
 70
     1
  9
$DIMTOH
 70
     1
  9
$DIMSE1
 70
     0
  9
$DIMSE2
 70
     0
  9
$DIMTAD
 70
     0
  9
$DIMZIN
 70
     0
  9
$DIMBLK
  1

  9
$DIMASO
 70
     1
  9
$DIMSHO
 70
     1
  9
$DIMPOST
  1
\X
  9
$DIMAPOST
  1

  9
$DIMALT
 70
     1
  9
$DIMALTD
 70
     2
  9
$DIMALTF
 40
25.3999999999999986
  9
$DIMLFAC
 40
1.0
  9
$DIMTOFL
 70
     0
  9
$DIMTVP
 40
0.0
  9
$DIMTIX
 70
     0
  9
$DIMSOXD
 70
     0
  9
$DIMSAH
 70
     0
  9
$DIMBLK1
  1

  9
$DIMBLK2
  1

  9
$DIMSTYLE
  2
STANDARD
  9
$DIMCLRD
 70
     0
  9
$DIMCLRE
 70
     0
  9
$DIMCLRT
 70
     0
  9
$DIMTFAC
 40
1.0
  9
$DIMGAP
 40
0.09
  9
$LUNITS
 70
     2
  9
$LUPREC
 70
     4
  9
$SKETCHINC
 40
0.1
  9
$FILLETRAD
 40
0.0
  9
$AUNITS
 70
     0
  9
$AUPREC
 70
     0
  9
$MENU
  1
.
  9
$ELEVATION
 40
0.0
  9
$PELEVATION
 40
0.0
  9
$THICKNESS
 40
0.0
  9
$LIMCHECK
 70
     0
  9
$BLIPMODE
 70
     0
  9
$CHAMFERA
 40
0.0
  9
$CHAMFERB
 40
0.0
  9
$SKPOLY
 70
     0
  9
$TDCREATE
 40
2458060.468368056230247
  9
$TDUPDATE
 40
2460584.5885532409884036
  9
$TDINDWG
 40
0.740134375
  9
$TDUSRTIMER
 40
0.740134375
  9
$USRTIMER
 70
     1
  9
$ANGBASE
 50
0.0
  9
$ANGDIR
 70
     0
  9
$PDMODE
 70
     0
  9
$PDSIZE
 40
0.3125
  9
$PLINEWID
 40
0.0
  9
$COORDS
 70
     1
  9
$SPLFRAME
 70
     0
  9
$SPLINETYPE
 70
     6
  9
$SPLINESEGS
 70
     8
  9
$ATTDIA
 70
     1
  9
$ATTREQ
 70
     1
  9
$HANDLING
 70
     1
  9
$HANDSEED
  5
33643
  9
$SURFTAB1
 70
     6
  9
$SURFTAB2
 70
     6
  9
$SURFTYPE
 70
     6
  9
$SURFU
 70
     6
  9
$SURFV
 70
     6
  9
$UCSNAME
  2

  9
$UCSORG
 10
0.0
 20
0.0
 30
0.0
  9
$UCSXDIR
 10
1.0
 20
0.0
 30
0.0
  9
$UCSYDIR
 10
0.0
 20
1.0
 30
0.0
  9
$PUCSNAME
  2

  9
$PUCSORG
 10
0.0
 20
0.0
 30
0.0
  9
$PUCSXDIR
 10
1.0
 20
0.0
 30
0.0
  9
$PUCSYDIR
 10
0.0
 20
1.0
 30
0.0
  9
$USERI1
 70
     0
  9
$USERI2
 70
     0
  9
$USERI3
 70
     0
  9
$USERI4
 70
     0
  9
$USERI5
 70
     0
  9
$USERR1
 40
0.0
  9
$USERR2
 40
0.0
  9
$USERR3
 40
0.0
  9
$USERR4
 40
0.0
  9
$USERR5
 40
0.0
  9
$WORLDVIEW
 70
     1
  9
$SHADEDGE
 70
     3
  9
$SHADEDIF
 70
    70
  9
$TILEMODE
 70
     1
  9
$MAXACTVP
 70
    64
  9
$PLIMCHECK
 70
     0
  9
$PEXTMIN
 10
1.0000000000000000E+20
 20
1.0000000000000000E+20
 30
1.0000000000000000E+20
  9
$PEXTMAX
 10
-1.0000000000000000E+20
 20
-1.0000000000000000E+20
 30
-1.0000000000000000E+20
  9
$PLIMMIN
 10
0.0
 20
0.0
  9
$PLIMMAX
 10
12.0
 20
9.0
  9
$UNITMODE
 70
     0
  9
$VISRETAIN
 70
     1
  9
$PLINEGEN
 70
     0
  9
$PSLTSCALE
 70
     1
  0
ENDSEC
  0
SECTION
  2
TABLES
  0
TABLE
  2
VPORT
 70
     1
  0
VPORT
  2
*ACTIVE
 70
     0
 10
0.0
 20
0.0
 11
1.0
 21
1.0
 12
2581.5143784934211908
 22
242.7383029252816016
 13
0.0
 23
0.0
 14
1.0
 24
1.0
 15
0.0
 25
0.0
 16
0.0
 26
0.0
 36
60.4960186965801583
 17
3911.3653564453120453
 27
132.5796051025390057
 37
0.0
 40
35.7308366831372268
 41
2.3051869722557292
 42
50.0
 43
0.0
 44
0.0
 50
0.0
 51
0.0
 71
     0
 72
   100
 73
     1
 74
     1
 75
     0
 76
     0
 77
     0
 78
     0
  0
ENDTAB
  0
TABLE
  2
LTYPE
 70
     2
  0
LTYPE
  2
CONTINUOUS
 70
     0
  3
Solid line
 72
    65
 73
     0
 40
0.0
  0
LTYPE
  2
PHANTOM2
 70
     0
  3
___ _ _ ___ _ _ ___ _ _ ___ _ _
 72
    65
 73
     6
 40
1.25
 49
0.625
 49
-0.125
 49
0.125
 49
-0.125
 49
0.125
 49
-0.125
  0
ENDTAB
  0
TABLE
  2
LAYER
 70
     2
  0
LAYER
  2
0
 70
     0
 62
   255
  6
CONTINUOUS
  0
LAYER
  2
DEFPOINTS
 70
     0
 62
     7
  6
CONTINUOUS
  0
ENDTAB
  0
TABLE
  2
STYLE
 70
     1
  0
STYLE
  2
STANDARD
 70
     0
 40
0.0
 41
0.8
 50
0.0
 71
     0
 42
0.2
  3
txt
  4

  0
ENDTAB
  0
TABLE
  2
VIEW
 70
     0
  0
ENDTAB
  0
TABLE
  2
UCS
 70
     0
  0
ENDTAB
  0
TABLE
  2
APPID
 70
    11
  0
APPID
  2
ACAD
 70
     0
  0
APPID
  2
ACAD_MLEADERVER
 70
     0
  0
APPID
  2
ACAD_EXEMPT_FROM_CAD_STANDARDS
 70
     0
  0
APPID
  2
ACAD_NAV_VCDISPLAY
 70
     0
  0
APPID
  2
ACAECLAYERSTANDARD
 70
     0
  0
APPID
  2
ACCMTRANSPARENCY
 70
     0
  0
APPID
  2
ACAD_DSTYLE_DIMJAG
 70
     0
  0
APPID
  2
ACAD_DSTYLE_DIMTALN
 70
     0
  0
APPID
  2
ACDBATTR
 70
     0
  0
APPID
  2
ACADANNOTATIVE
 70
     0
  0
APPID
  2
DCO15
 70
     0
  0
ENDTAB
  0
TABLE
  2
DIMSTYLE
 70
     1
  0
DIMSTYLE
  2
STANDARD
 70
     0
  3

  4

  5

  6

  7

 40
1.0
 41
0.1875
 42
0.0625
 43
0.38
 44
0.125
 45
0.0
 46
0.0
 47
0.01
 48
0.01
140
0.15625
141
0.09
142
0.0
143
25.3999999999999986
144
1.0
145
0.0
146
1.0
147
0.09
 71
     1
 72
     0
 73
     1
 74
     1
 75
     0
 76
     0
 77
     0
 78
     4
170
     0
171
     2
172
     0
173
     0
174
     0
175
     0
176
     0
177
     0
178
     0
  0
ENDTAB
  0
ENDSEC
  0
SECTION
  2
BLOCKS
  0
BLOCK
  8
0
  2
$MODEL_SPACE
 70
     0
 10
0.0
 20
0.0
 30
0.0
  3
$MODEL_SPACE
  1

  0
ENDBLK
  5
21
  8
0
  0
BLOCK
 67
     1
  8
0
  2
$PAPER_SPACE
 70
     0
 10
0.0
 20
0.0
 30
0.0
  3
$PAPER_SPACE
  1

  0
ENDBLK
  5
1D
 67
     1
  8
0
  0
BLOCK
  8
0
  2
_FILLED
 70
     0
 10
0.0
 20
0.0
 30
0.0
  3
_FILLED
  1

  0
SOLID
  5
32F79
  8
0
  6
BYBLOCK
 62
     0
 10
0.0
 20
0.0
 30
0.0
 11
-1.0
 21
0.1666666667
 31
0.0
 12
-1.0
 22
-0.1666666667
 32
0.0
 13
-1.0
 23
-0.1666666667
 33
0.0
  0
ENDBLK
  5
32F7A
  8
0
  6
BYBLOCK
 62
     0
  0
ENDSEC
  0
SECTION
  2
ENTITIES
  0
ATTDEF
  5
2842F
  8
DEFPOINTS
 10
6488.4888499488115485
 20
357.6107460908822873
 30
0.0
 40
0.001
  1
K-28529
  3

  2
MODELNUMBER
 70
     0
1001
ACDBATTR
1070
     0
1070
     1
  0
ATTDEF
  5
28430
  8
DEFPOINTS
 10
6488.4887241391543284
 20
357.6090792505032141
 30
0.0
 40
0.001
  1
LEAP
  3

  2
TRADENAME
 70
     0
1001
ACDBATTR
1070
     0
1070
     1
  0
ATTDEF
  5
28431
  8
DEFPOINTS
 10
6488.4888499488115485
 20
357.6074127575490138
 30
0.0
 40
0.001
  1
TOILET
  3

  2
PRODUCT
 70
     0
1001
ACDBATTR
1070
     0
1070
     1
  0
ARC
  5
33439
  8
0
 10
6488.7122079494865829
 20
-166.7598068700000056
 30
0.0
 40
544.4287987887289546
 50
90.0236111086667421
 51
90.6896925709383481
  0
ARC
  5
3343A
  8
0
 10
6482.171233147500061
 20
376.6013386887092906
 30
0.0
 40
1.028284569030181
 50
90.6896895018937386
 51
120.3030787118185998
  0
ARC
  5
3343B
  8
0
 10
6481.9390615297179465
 20
376.9986037890320745
 30
0.0
 40
0.5681506536997607
 50
120.3030787118185998
 51
171.6090846335490028
  0
LINE
  5
3343C
  8
0
 10
6481.3769926543609472
 20
377.0815118384231823
 30
0.0
 11
6481.2319243878409907
 21
374.0840379883615014
 31
0.0
  0
ARC
  5
3343D
  8
0
 10
6481.2515894359694357
 20
374.0830882660163752
 30
0.0
 40
0.0196879681634825
 50
177.2350520401109009
 51
269.2983356569483817
  0
LINE
  5
3343E
  8
0
 10
6481.2513483361863109
 20
374.0634017741679145
 30
0.0
 11
6488.4878532341681421
 21
374.0634017741679145
 31
0.0
  0
ARC
  5
3343F
  8
0
 10
6481.4918211539315962
 20
373.8264702274577189
 30
0.0
 40
0.2373988057165642
 50
93.5964997145499069
 51
186.3429744104516885
  0
LINE
  5
33440
  8
0
 10
6482.3874267114597387
 20
363.3399668056231917
 30
0.0
 11
6481.2558756158168762
 21
373.8002424559368819
 31
0.0
  0
LINE
  5
33441
  8
0
 10
6482.3912120966606381
 20
363.3404022484231746
 30
0.0
 11
6482.3208222429611851
 21
363.3322041963231754
 31
0.0
  0
ARC
  5
33442
  8
0
 10
6482.3246883623951362
 20
363.3110528101308887
 30
0.0
 40
0.0215018142801732
 50
100.3583631284949007
 51
121.6731109092527987
  0
ARC
  5
33443
  8
0
 10
6482.3219443187163051
 20
363.316570705312472
 30
0.0
 40
0.015375219170681
 50
123.7677023741524067
 51
165.3807795887155123
  0
ARC
  5
33444
  8
0
 10
6482.333387822770419
 20
363.3162931644250762
 30
0.0
 40
0.0266473698060498
 50
171.0226690142945927
 51
184.7923317418326121
  0
ARC
  5
33445
  8
0
 10
6708.4050872153002274
 20
388.086930285210201
 30
0.0
 40
227.4513465383319044
 50
186.2527738501972863
 51
186.9847877257201958
  0
ARC
  5
33446
  8
0
 10
6482.6601025576555912
 20
360.4330406948679979
 30
0.0
 40
0.0191379893606501
 50
196.7532009826115029
 51
276.2188527971446206
  0
LINE
  5
33447
  8
0
 10
6482.6621757752600388
 20
360.4140147519232187
 30
0.0
 11
6482.7325656289604012
 21
360.4222128040232178
 31
0.0
  0
ARC
  5
33448
  8
0
 10
6321.0436330958746112
 20
342.9877982099894211
 30
0.0
 40
162.6261656086134053
 50
6.1542483508946288
 51
7.189396656547534
  0
LINE
  5
33449
  8
0
 10
6482.7259323072858024
 20
360.4214402449990757
 30
0.0
 11
6483.0605600830431285
 21
357.6067094297231961
 31
0.0
  0
ARC
  5
3344A
  8
0
 10
6488.3983278741652612
 20
362.0006833653278022
 30
0.0
 40
5.6818123742100664
 50
182.1705209197519935
 51
195.1209850432096005
  0
ARC
  5
3344B
  8
0
 10
6482.975725046541811
 20
360.5255986394628849
 30
0.0
 40
0.0628868200983625
 50
186.4478108690726117
 51
219.0696965434613048
  0
ARC
  5
3344C
  8
0
 10
6482.9560301727669867
 20
360.5087539179363034
 30
0.0
 40
0.0369854509449621
 50
218.0396036758475873
 51
263.2537838939948074
  0
ARC
  5
3344D
  8
0
 10
6475.7059199456689385
 20
360.200648398786484
 30
0.0
 40
7.2508456328561621
 50
2.144900196023475
 51
13.9700303907941894
  0
ARC
  5
3344E
  8
0
 10
6483.2405595214113418
 20
361.8416566453832957
 30
0.0
 40
0.5229920282121711
 50
169.0858440377820102
 51
186.1649140392113964
  0
ARC
  5
3344F
  8
0
 10
6482.7627306054018845
 20
361.9047825839789994
 30
0.0
 40
0.0506287216408398
 50
113.7982387794591972
 51
134.8454465274298002
  0
ARC
  5
33450
  8
0
 10
6487.6326106518054075
 20
581.0336841783580439
 30
0.0
 40
205.6819774101271889
 50
269.604447015405583
 51
270.2382412511418011
  0
ARC
  5
33451
  8
0
 10
6494.9766898808538826
 20
1644.7813834138469247
 30
0.0
 40
1269.4550279845980185
 50
269.4498473506931191
 51
269.6044395462195098
  0
ARC
  5
33452
  8
0
 10
6483.0797168847066132
 20
405.8063578573131167
 30
0.0
 40
30.4228847698684888
 50
267.0744748514957223
 51
269.4498473506931191
  0
ARC
  5
33453
  8
0
 10
6481.6139347253683809
 20
377.1242821495258113
 30
0.0
 40
1.7033794773694071
 50
261.6717573124540763
 51
267.0744748514957223
  0
ARC
  5
33454
  8
0
 10
6481.3859284518775894
 20
375.5667311531790915
 30
0.0
 40
0.1292282880069451
 50
249.3848608037557995
 51
261.6717573124540763
  0
ARC
  5
33455
  8
0
 10
6481.3534625654647243
 20
375.4889358037709144
 30
0.0
 40
0.0450832298906001
 50
218.6527605166070884
 51
253.1953781305211919
  0
ARC
  5
33456
  8
0
 10
6481.3567454898584401
 20
375.4832802765213842
 30
0.0
 40
0.0445861004939033
 50
192.1497875049981872
 51
210.3126420863439989
  0
ARC
  5
33457
  8
0
 10
6483.0052759501877517
 20
375.6585029888004783
 30
0.0
 40
1.70215818517509
 50
182.4234478814690021
 51
186.2262302609395874
  0
ARC
  5
33458
  8
0
 10
6481.6367369867275556
 20
375.0863447646794953
 30
0.0
 40
0.3857304008906266
 50
117.6348797254998999
 51
137.7765466872494926
  0
ARC
  5
33459
  8
0
 10
6481.597475602704435
 20
375.1219741093078142
 30
0.0
 40
0.3327124183367053
 50
137.7765466872494926
 51
149.8901214599841865
  0
ARC
  5
3345A
  8
0
 10
6481.4272334513334499
 20
375.2160660749203203
 30
0.0
 40
0.1382978262959432
 50
148.229404297488486
 51
178.6277897622456976
  0
ARC
  5
3345B
  8
0
 10
6743.1935789804501837
 20
362.4462525827896116
 30
0.0
 40
262.2158922867022284
 50
177.2078888589853136
 51
177.3873837677622873
  0
ARC
  5
3345C
  8
0
 10
6481.268141124273825
 20
374.4001192841412831
 30
0.0
 40
0.0179424626563007
 50
184.1275490383669933
 51
263.1510306930334764
  0
LINE
  5
3345D
  8
0
 10
6481.2660014391613004
 20
374.3823048598231935
 30
0.0
 11
6488.4878532341681421
 21
374.3823036491655785
 31
0.0
  0
LINE
  5
3345E
  8
0
 10
6481.2734121660605524
 20
374.3823020107839739
 30
0.0
 11
6481.275690138743812
 21
374.3107792576905126
 31
0.0
  0
ARC
  5
3345F
  8
0
 10
6481.2874801164880409
 20
374.3114182779596035
 30
0.0
 40
0.0118072825875649
 50
183.102412558546888
 51
256.9883765856174023
  0
LINE
  5
33460
  8
0
 10
6481.6171836243238431
 20
374.2208853413725933
 30
0.0
 11
6488.4878532341681421
 21
374.2208853413725933
 31
0.0
  0
ARC
  5
33461
  8
0
 10
6481.6485087834189471
 20
374.3283921668448215
 30
0.0
 40
0.1083210057888069
 50
259.8179988999314105
 51
262.9706690707196799
  0
LINE
  5
33462
  8
0
 10
6481.6293602773612292
 20
374.22177708812319
 30
0.0
 11
6481.2981787083108429
 21
374.2997192434731915
 31
0.0
  0
ARC
  5
33463
  8
0
 10
6481.3027732485306842
 20
374.3116943920704216
 30
0.0
 40
0.0128263004703993
 50
184.7081548966918092
 51
249.0095444433943896
  0
LINE
  5
33464
  8
0
 10
6481.2899902276603825
 20
374.3106416047231733
 30
0.0
 11
6481.2860802209306712
 21
374.3823048564572105
 31
0.0
  0
LINE
  5
33465
  8
0
 10
6481.284821721960725
 20
374.2999141543232895
 30
0.0
 11
6481.6171836243238431
 21
374.2208853413725933
 31
0.0
  0
ARC
  5
33466
  8
0
 10
6481.7626240138879439
 20
374.0627393505578198
 30
0.0
 40
0.1582900751075828
 50
41.8723642503147389
 51
87.5551509168961815
  0
ARC
  5
33467
  8
0
 10
6481.9392670467368589
 20
374.2210783532040068
 30
0.0
 40
0.0789313421661619
 50
221.8723642503123017
 51
269.9379509581198135
  0
LINE
  5
33468
  8
0
 10
6481.9391815672597659
 20
374.1421470573232
 30
0.0
 11
6482.823342015461094
 21
374.1421470715231976
 31
0.0
  0
ARC
  5
33469
  8
0
 10
6482.8175950639933944
 20
374.2412759148957093
 30
0.0
 40
0.0992952921318381
 50
273.3179838550801719
 51
312.7777252525468725
  0
ARC
  5
3346A
  8
0
 10
6483.0419058934985514
 20
373.9986005976833781
 30
0.0
 40
0.2311690334273671
 50
115.515506246052496
 51
132.7351923817562067
  0
LINE
  5
3346B
  8
0
 10
6481.2883251592438683
 20
374.2990796963732123
 30
0.0
 11
6488.4878532341681421
 21
374.2990796963732123
 31
0.0
  0
ARC
  5
3346C
  8
0
 10
6483.1183608528099285
 20
375.6385931816807897
 30
0.0
 40
0.3721463846099277
 50
223.1011160597475964
 51
315.8282204346967887
  0
ARC
  5
3346D
  8
0
 10
6488.7059845217781913
 20
800.0418217393350915
 30
0.0
 40
424.296512381270702
 50
269.5156275497113256
 51
269.9705441776338262
  0
ARC
  5
3346E
  8
0
 10
6486.6189518756918915
 20
553.1753586364379771
 30
0.0
 40
177.4212274493847019
 50
268.7300961240532047
 51
269.5156275497113256
  0
ARC
  5
3346F
  8
0
 10
6483.272962041167375
 20
402.2350345950421229
 30
0.0
 40
26.4438216242272084
 50
266.638563648458728
 51
268.7300961240532047
  0
ARC
  5
33470
  8
0
 10
6482.074577278540346
 20
381.8319728143862903
 30
0.0
 40
6.0055962593734389
 50
263.8437249650871763
 51
266.638563648458728
  0
ARC
  5
33471
  8
0
 10
6481.483153301674065
 20
376.3488530606683184
 30
0.0
 40
0.4906724562710378
 50
254.3746078390911975
 51
263.8437249650871763
  0
ARC
  5
33472
  8
0
 10
6481.3603969753357887
 20
375.9099403853197146
 30
0.0
 40
0.0349165432674847
 50
220.2637633344920971
 51
254.3746078390911975
  0
ARC
  5
33473
  8
0
 10
6481.3498261888298657
 20
375.9009871940151015
 30
0.0
 40
0.0210637037791471
 50
190.3398990719398967
 51
220.2637633344920971
  0
LINE
  5
33474
  8
0
 10
6481.3291045535579542
 20
375.8972065262764772
 30
0.0
 11
6481.3249687942716264
 21
376.0065685449051216
 31
0.0
  0
ARC
  5
33475
  8
0
 10
6488.2634672603626314
 20
-166.7648262359516025
 30
0.0
 40
544.4338181672967494
 50
89.3103104981062756
 51
89.9763857784776349
  0
ARC
  5
33476
  8
0
 10
6494.8044733208371326
 20
376.6013386887092906
 30
0.0
 40
1.028284569030181
 50
59.6969212881814073
 51
89.3103104981062756
  0
ARC
  5
33477
  8
0
 10
6495.0366449386183376
 20
376.9986037890320745
 30
0.0
 40
0.5681506536997607
 50
8.3909153664509724
 51
59.6969212881814073
  0
LINE
  5
33478
  8
0
 10
6495.5987138139762465
 20
377.0815118384231823
 30
0.0
 11
6495.7437820804952935
 21
374.0840379883615014
 31
0.0
  0
ARC
  5
33479
  8
0
 10
6495.7241170323677579
 20
374.0830882660163752
 30
0.0
 40
0.0196879681634825
 50
270.7016643430516183
 51
2.7649479598924041
  0
LINE
  5
3347A
  8
0
 10
6495.7243581321490637
 20
374.0634017741679145
 30
0.0
 11
6488.4878532341681421
 21
374.0634017741679145
 31
0.0
  0
ARC
  5
3347B
  8
0
 10
6495.4838853144037785
 20
373.8264702274577189
 30
0.0
 40
0.2373988057165642
 50
353.6570255895451282
 51
86.4035002854501357
  0
LINE
  5
3347C
  8
0
 10
6494.5890864473331021
 20
363.3474240071366239
 30
0.0
 11
6495.7198308525194079
 21
373.8002424559368819
 31
0.0
  0
LINE
  5
3347D
  8
0
 10
6494.5890864473331021
 20
363.3474240071366239
 30
0.0
 11
6493.9165360037368373
 21
357.6067094297231961
 31
0.0
  0
ARC
  5
3347E
  8
0
 10
6488.5615243994916455
 20
361.9949722706592752
 30
0.0
 40
5.6951298711271097
 50
344.8840907078169948
 51
359.2626030218950746
  0
ARC
  5
3347F
  8
0
 10
6494.0068376918134163
 20
360.5242452607619725
 30
0.0
 40
0.0546979281400971
 50
287.2190682005153803
 51
344.7288893321252772
  0
ARC
  5
33480
  8
0
 10
6494.1354481062408013
 20
360.5117213349751069
 30
0.0
 40
0.1192299055255335
 50
175.9185984227015922
 51
199.4605854652872949
  0
ARC
  5
33481
  8
0
 10
6515.9767244272343305
 20
357.9267781381433906
 30
0.0
 40
22.1128114083606704
 50
169.5142116286687894
 51
173.2647495158988988
  0
ARC
  5
33482
  8
0
 10
6494.2226596585805964
 20
361.9192044628925942
 30
0.0
 40
0.0336140849488131
 50
4.2199034210276922
 51
71.7341154995853429
  0
ARC
  5
33483
  8
0
 10
6489.3430958173667022
 20
581.0336835702978533
 30
0.0
 40
205.681976802075809
 50
269.7617587479202257
 51
270.3955529855322766
  0
ARC
  5
33484
  8
0
 10
6481.999016587483311
 20
1644.7813834138469247
 30
0.0
 40
1269.4550279845980185
 50
270.3955604537804902
 51
270.5501526493068809
  0
ARC
  5
33485
  8
0
 10
6493.8959895836287615
 20
405.8063578573131167
 30
0.0
 40
30.4228847698684888
 50
270.5501526493068809
 51
272.9255251485042777
  0
ARC
  5
33486
  8
0
 10
6495.3617717429679033
 20
377.1242821495258113
 30
0.0
 40
1.7033794773694071
 50
272.9255251485042777
 51
278.3282426875459237
  0
ARC
  5
33487
  8
0
 10
6495.5897780164577853
 20
375.5667311531790915
 30
0.0
 40
0.1292282880069451
 50
278.3282426875459237
 51
290.6151391962441721
  0
ARC
  5
33488
  8
0
 10
6495.6222439028706503
 20
375.4889358037709144
 30
0.0
 40
0.0450832298906001
 50
286.8046218694788081
 51
321.3472394833929116
  0
ARC
  5
33489
  8
0
 10
6495.6189609784787535
 20
375.4832802765213842
 30
0.0
 40
0.0445861004939033
 50
329.6873579136560011
 51
347.8502124950018128
  0
ARC
  5
3348A
  8
0
 10
6493.9704305181476229
 20
375.6585029888004783
 30
0.0
 40
1.70215818517509
 50
353.7737697390604126
 51
357.5765521185310263
  0
ARC
  5
3348B
  8
0
 10
6495.338969481607819
 20
375.0863447646794953
 30
0.0
 40
0.3857304008906266
 50
42.2234533127504506
 51
62.3651202745000433
  0
ARC
  5
3348C
  8
0
 10
6495.3782308656318492
 20
375.1219741093078142
 30
0.0
 40
0.3327124183367053
 50
30.1098785400157816
 51
42.2234533127504506
  0
ARC
  5
3348D
  8
0
 10
6495.5484730170037437
 20
375.2160660749203203
 30
0.0
 40
0.1382978262959432
 50
1.372210237754268
 51
31.77059570251145
  0
ARC
  5
3348E
  8
0
 10
6233.7821274878870099
 20
362.4462525827896116
 30
0.0
 40
262.2158922867022284
 50
2.612616232237706
 51
2.7921111410114001
  0
ARC
  5
3348F
  8
0
 10
6495.7075653440606402
 20
374.4001192841412831
 30
0.0
 40
0.0179424626563007
 50
276.8489693069664099
 51
355.8724509616296814
  0
LINE
  5
33490
  8
0
 10
6495.7097050291758933
 20
374.3823048598231935
 30
0.0
 11
6488.4878532341681421
 21
374.3823036491655785
 31
0.0
  0
LINE
  5
33491
  8
0
 10
6495.7022943022748223
 20
374.3823020107839739
 30
0.0
 11
6495.7000163295933817
 21
374.3107792576905126
 31
0.0
  0
ARC
  5
33492
  8
0
 10
6495.6882263518482432
 20
374.3114182779596035
 30
0.0
 40
0.0118072825875649
 50
283.0116234143825977
 51
356.8975874414530836
  0
LINE
  5
33493
  8
0
 10
6495.3585228440124411
 20
374.2208853413725933
 30
0.0
 11
6488.4878532341681421
 21
374.2208853413725933
 31
0.0
  0
ARC
  5
33494
  8
0
 10
6495.3267789835526855
 20
374.3309224649549947
 30
0.0
 40
0.1108854764613141
 50
277.0919529132791013
 51
280.1638192990992025
  0
LINE
  5
33495
  8
0
 10
6495.3463461909759644
 20
374.22177708812319
 30
0.0
 11
6495.6775277600263507
 21
374.2997192434731915
 31
0.0
  0
ARC
  5
33496
  8
0
 10
6495.6729332198046905
 20
374.3116943920704216
 30
0.0
 40
0.0128263004703993
 50
290.9904555566056956
 51
355.2918451033082192
  0
LINE
  5
33497
  8
0
 10
6495.6857162406759016
 20
374.3106416047231733
 30
0.0
 11
6495.689626247405613
 21
374.3823048564572105
 31
0.0
  0
LINE
  5
33498
  8
0
 10
6495.6908847463746497
 20
374.2999141543232895
 30
0.0
 11
6495.3585228440124411
 21
374.2208853413725933
 31
0.0
  0
ARC
  5
33499
  8
0
 10
6495.2130824544501593
 20
374.0627393505578198
 30
0.0
 40
0.1582900751075828
 50
92.4286885620190759
 51
138.1276357496853109
  0
ARC
  5
3349A
  8
0
 10
6495.0364394216003348
 20
374.2210783532040068
 30
0.0
 40
0.0789313421661619
 50
270.0620490418803001
 51
318.1276357496852825
  0
LINE
  5
3349B
  8
0
 10
6495.0365249010756088
 20
374.1421470573232
 30
0.0
 11
6494.1523644528760997
 21
374.1421470715231976
 31
0.0
  0
ARC
  5
3349C
  8
0
 10
6494.1581114043428897
 20
374.2412759148957093
 30
0.0
 40
0.0992952921318368
 50
227.2222747474532127
 51
266.6820161449198281
  0
ARC
  5
3349D
  8
0
 10
6493.9338005748359137
 20
373.9986005976833781
 30
0.0
 40
0.2311690334273671
 50
47.2648076182438004
 51
64.3091633542379668
  0
ARC
  5
3349E
  8
0
 10
6494.1060992392276603
 20
374.0307454574158896
 30
0.0
 40
0.1903488662675045
 50
92.6850785089314968
 51
112.252632017353605
  0
ARC
  5
3349F
  8
0
 10
6491.8916759120565985
 20
379.4428076343183989
 30
0.0
 40
5.657222225953058
 50
291.8097544975245796
 51
292.2526320173536192
  0
ARC
  5
334A0
  8
0
 10
6493.965556866190127
 20
374.2602943611656201
 30
0.0
 40
0.0751593421867648
 50
275.2712153947823026
 51
291.8097544975245796
  0
LINE
  5
334A1
  8
0
 10
6493.9724617803267392
 20
374.1854528694731812
 30
0.0
 11
6493.0324052816758922
 21
374.1854528779231828
 31
0.0
  0
ARC
  5
334A2
  8
0
 10
6493.0306251366646393
 20
374.2389268079492126
 30
0.0
 40
0.0535035522996275
 50
244.8015438189067936
 51
271.9066700995987276
  0
ARC
  5
334A3
  8
0
 10
6492.8556296210335859
 20
373.8802602500188073
 30
0.0
 40
0.3455829709159705
 50
63.8666471624020673
 51
80.2830485006429342
  0
LINE
  5
334A4
  8
0
 10
6495.6873813090924159
 20
374.2990796963732123
 30
0.0
 11
6488.4878532341681421
 21
374.2990796963732123
 31
0.0
  0
ARC
  5
334A5
  8
0
 10
6493.8573456155272652
 20
375.6385931816807897
 30
0.0
 40
0.3721463846099277
 50
224.1717795653032113
 51
316.8988839402524036
  0
ARC
  5
334A6
  8
0
 10
6488.2697219465580929
 20
800.0418217393350915
 30
0.0
 40
424.296512381270702
 50
270.0294558223661738
 51
270.4843724502886744
  0
ARC
  5
334A7
  8
0
 10
6490.3567545926453022
 20
553.1753586364379771
 30
0.0
 40
177.4212274493847019
 50
270.4843724502886744
 51
271.2699038759467953
  0
ARC
  5
334A8
  8
0
 10
6493.7027444271707282
 20
402.2350345950421229
 30
0.0
 40
26.4438216242272084
 50
271.2699038759467953
 51
273.361436351541272
  0
ARC
  5
334A9
  8
0
 10
6494.9011291897959381
 20
381.8319728143862903
 30
0.0
 40
6.0055962593734389
 50
273.361436351541272
 51
276.1562750349128237
  0
ARC
  5
334AA
  8
0
 10
6495.4925531666622192
 20
376.3488530606683184
 30
0.0
 40
0.4906724562710378
 50
276.1562750349128237
 51
285.6253921609089161
  0
ARC
  5
334AB
  8
0
 10
6495.6153094929995859
 20
375.9099403853197146
 30
0.0
 40
0.0349165432674847
 50
285.6253921609089161
 51
319.7362366655078745
  0
ARC
  5
334AC
  8
0
 10
6495.6258802795064184
 20
375.9009871940151015
 30
0.0
 40
0.0210637037791471
 50
319.7362366655078745
 51
349.6601009280599897
  0
LINE
  5
334AD
  8
0
 10
6495.64660191477833
 20
375.8972065262764772
 30
0.0
 11
6495.6507376740646578
 21
376.0065685449051216
 31
0.0
  0
LINE
  5
334AE
  8
0
 10
6503.5547891235646603
 20
393.043200432434503
 30
0.0
 11
6503.4996459565663827
 21
393.043200432434503
 31
0.0
  0
ARC
  5
334AF
  8
0
 10
6503.4997434487313512
 20
393.0155151858211866
 30
0.0
 40
0.0276854182696579
 50
90.2017632919488932
 51
135.5497275315624108
  0
LINE
  5
334B0
  8
0
 10
6503.4799799774064013
 20
393.034903006379011
 30
0.0
 11
6503.4661996918657678
 21
390.417181873584525
 31
0.0
  0
LINE
  5
334B1
  8
0
 10
6504.5390343375647717
 20
390.4171818734844237
 30
0.0
 11
6503.3913965422661931
 21
390.4171818734844237
 31
0.0
  0
ARC
  5
334B2
  8
0
 10
6503.3913965436067883
 20
390.4053708466456101
 30
0.0
 40
0.0118110268389132
 50
90.000006508148104
 51
179.9999842878962113
  0
LINE
  5
334B3
  8
0
 10
6503.3795855167682021
 20
390.4053708498843775
 30
0.0
 11
6503.3795855167682021
 21
387.9880480152845053
 31
0.0
  0
ARC
  5
334B4
  8
0
 10
6503.3913965436049693
 20
387.988048018522079
 30
0.0
 40
0.0118110268376595
 50
180.0000157060524941
 51
269.9999934978966962
  0
LINE
  5
334B5
  8
0
 10
6503.3913965422661931
 20
387.9762369916845159
 30
0.0
 11
6503.4996459563662938
 21
387.9762369916912235
 31
0.0
  0
ARC
  5
334B6
  8
0
 10
6503.5069846177948421
 20
387.7982779719422979
 30
0.0
 40
0.1781102710725604
 50
42.6854746827410167
 51
92.3614213114887548
  0
ARC
  5
334B7
  8
0
 10
6503.5075384985466371
 20
387.7990716794224113
 30
0.0
 40
0.1771651303178651
 50
359.9999863724835905
 51
42.6182303127120434
  0
LINE
  5
334B8
  8
0
 10
6503.684703628866373
 20
387.7990716372844986
 30
0.0
 11
6503.684703628866373
 21
385.2729259919844935
 31
0.0
  0
ARC
  5
334B9
  8
0
 10
6503.6965146524653392
 20
385.2729259919844935
 30
0.0
 40
0.0118110236
 50
179.9999999999901945
 51
270.0
  0
ARC
  5
334BA
  8
0
 10
6503.6965146524653392
 20
386.54678440873829
 30
0.0
 40
1.285669440353842
 50
270.0
 51
278.3099040707285781
  0
ARC
  5
334BB
  8
0
 10
6503.7918527181964237
 20
385.8940556235189092
 30
0.0
 40
0.6260148232766668
 50
278.3099040707285781
 51
294.7079511116749018
  0
ARC
  5
334BC
  8
0
 10
6503.8358335444463592
 20
385.7984693922988981
 30
0.0
 40
0.5207958103730542
 50
294.7079511116749018
 51
323.9110712246388744
  0
ARC
  5
334BD
  8
0
 10
6503.7999905604319792
 20
385.824595938510015
 30
0.0
 40
0.5651502455501602
 50
323.9110712246414892
 51
349.0761259943845971
  0
ARC
  5
334BE
  8
0
 10
6502.8806137846149795
 20
386.0020373238106117
 30
0.0
 40
1.501493719458755
 50
349.0761259943845971
 51
356.8877131143044039
  0
ARC
  5
334BF
  8
0
 10
6494.7361140873708791
 20
386.4448793639222117
 30
0.0
 40
9.6580238880337692
 50
356.8877131143044039
 51
359.2751197662788059
  0
ARC
  5
334C0
  8
0
 10
947431.3579229556489736
 20
386.5638353027122776
 30
0.0
 40
940926.9645579401403666
 50
179.9999559485542875
 51
180.0000146838129922
  0
LINE
  5
334C1
  8
0
 10
6504.5508453611655568
 20
387.3069456530844263
 30
0.0
 11
6504.3265274187651812
 21
387.3069456530844263
 31
0.0
  0
LINE
  5
334C2
  8
0
 10
6504.3265274187651812
 20
387.3069456530844263
 30
0.0
 11
6504.3265274187651812
 21
390.4053708498843775
 31
0.0
  0
ARC
  5
334C3
  8
0
 10
6504.3130987246577206
 20
390.4053708498843775
 30
0.0
 40
0.013428694108022
 50
359.9999999999968168
 51
61.5864760098753194
  0
ARC
  5
334C4
  8
0
 10
6504.5390343371127528
 20
390.405370849532801
 30
0.0
 40
0.0118110240516352
 50
0.000001705788573
 51
89.9999978090263255
  0
LINE
  5
334C5
  8
0
 10
6504.5508453611655568
 20
390.4053708498843775
 30
0.0
 11
6504.5508453611655568
 21
387.3069456530844263
 31
0.0
  0
LINE
  5
334C6
  8
0
 10
6504.5508453611655568
 20
387.3660007711844742
 30
0.0
 11
6504.5705304004650316
 21
387.3660007711844742
 31
0.0
  0
LINE
  5
334C7
  8
0
 10
6504.5705304004650316
 20
387.3660007711844742
 30
0.0
 11
6504.5705304004650316
 21
390.3187566766844725
 31
0.0
  0
LINE
  5
334C8
  8
0
 10
6504.5705304004650316
 20
390.3187566766844725
 30
0.0
 11
6504.5508453611655568
 21
390.3187566766844725
 31
0.0
  0
LINE
  5
334C9
  8
0
 10
6504.5705304004650316
 20
390.2793865979845123
 30
0.0
 11
6504.5862784319651837
 21
390.2793865979845123
 31
0.0
  0
LINE
  5
334CA
  8
0
 10
6504.5862784319651837
 20
390.2793865979845123
 30
0.0
 11
6504.5862784319651837
 21
387.4053708498843775
 31
0.0
  0
LINE
  5
334CB
  8
0
 10
6504.5862784319651837
 20
387.4053708498843775
 30
0.0
 11
6504.5705304004650316
 21
387.4053708498843775
 31
0.0
  0
LINE
  5
334CC
  8
0
 10
6504.3741524477645726
 20
387.3069456530844263
 30
0.0
 11
6504.3739602700479736
 21
387.2874514910532184
 31
0.0
  0
LINE
  5
334CD
  8
0
 10
6504.3739602700479736
 20
387.2874514910532184
 30
0.0
 11
6504.3933652934074416
 21
387.2872601919294766
 31
0.0
  0
LINE
  5
334CE
  8
0
 10
6504.3933652934074416
 20
387.2872601919294766
 30
0.0
 11
6504.3741524477645726
 21
387.3064730394843878
 31
0.0
  0
LINE
  5
334CF
  8
0
 10
6503.684703628866373
 20
385.3589733773844728
 30
0.0
 11
6503.5647622882652286
 21
385.3547849333845079
 31
0.0
  0
ARC
  5
334D0
  8
0
 10
6503.5646248886723697
 20
385.3587195428715972
 30
0.0
 40
0.0039370078060295
 50
179.9999983575970077
 51
272.0000000440634835
  0
LINE
  5
334D1
  8
0
 10
6503.5606878808666806
 20
385.3587195429843746
 30
0.0
 11
6503.5606879556617059
 21
387.9680373204844273
 31
0.0
  0
LINE
  5
334D2
  8
0
 10
6503.4778045846651366
 20
387.9762369916845159
 30
0.0
 11
6503.4799799773645645
 21
385.3585158589315256
 31
0.0
  0
ARC
  5
334D3
  8
0
 10
6503.4996642587648239
 20
385.3778039532845128
 30
0.0
 40
0.0275590551000296
 50
224.4175601735018972
 51
269.9619489941603092
  0
LINE
  5
334D4
  8
0
 10
6503.4996459563762983
 20
385.3502449042618991
 30
0.0
 11
6503.5547823690658333
 21
385.3502451817843735
 31
0.0
  0
ARC
  5
334D5
  8
0
 10
6503.5547823690658333
 20
385.3541821896844795
 30
0.0
 40
0.0039370079000047
 50
270.000000000104194
 51
359.9999999999217835
  0
LINE
  5
334D6
  8
0
 10
6503.5587193769652004
 20
385.3541821896844795
 30
0.0
 11
6503.5587193769679288
 21
387.9686483461845228
 31
0.0
  0
LINE
  5
334D7
  8
0
 10
6503.4661996918657678
 20
387.9762369916845159
 30
0.0
 11
6503.4661996918657678
 21
387.5572810926843772
 31
0.0
  0
ARC
  5
334D8
  8
0
 10
6503.4780107154419966
 20
387.5572810926843772
 30
0.0
 40
0.0118110235759623
 50
179.9999999999934914
 51
268.9999998501324967
  0
LINE
  5
334D9
  8
0
 10
6503.4778045846260284
 20
387.5454718679852135
 30
0.0
 11
6503.4781625666100808
 21
387.5454656193854817
 31
0.0
  0
LINE
  5
334DA
  8
0
 10
6503.4784608419704455
 20
387.1865411294712089
 30
0.0
 11
6503.4778045846651366
 21
387.1865296744845182
 31
0.0
  0
ARC
  5
334DB
  8
0
 10
6503.4780107149526884
 20
387.1747204502644877
 30
0.0
 40
0.0118110230873915
 50
90.9999976324568536
 51
180.0000028141629116
  0
LINE
  5
334DC
  8
0
 10
6503.4661996918657678
 20
387.1747204496845143
 30
0.0
 11
6503.4661997330204031
 21
386.3368086517845086
 31
0.0
  0
ARC
  5
334DD
  8
0
 10
6503.478010758019991
 20
386.3368086523645957
 30
0.0
 40
0.0118110249991475
 50
180.0000028141629116
 51
268.9997935777104772
  0
LINE
  5
334DE
  8
0
 10
6503.4778045846651366
 20
386.3249994269845047
 30
0.0
 11
6503.479176824809656
 21
386.3249754694983267
 31
0.0
  0
ARC
  5
334DF
  8
0
 10
6503.5547361835815536
 20
393.0392175449310912
 30
0.0
 40
0.0039832393233292
 50
0.2751805309423724
 51
89.2384773687406465
  0
LINE
  5
334E0
  8
0
 10
6503.5587193769652004
 20
393.0392366755845046
 30
0.0
 11
6503.5587193769679288
 21
390.417181873584525
 31
0.0
  0
LINE
  5
334E1
  8
0
 10
6503.5606878808666806
 20
390.4171818734844237
 30
0.0
 11
6503.5606878807648172
 21
393.0346993221843945
 31
0.0
  0
ARC
  5
334E2
  8
0
 10
6503.5646248886650937
 20
393.0346993221846219
 30
0.0
 40
0.0039370078998537
 50
87.9999999137014157
 51
180.0000000021852884
  0
LINE
  5
334E3
  8
0
 10
6503.5647622882652286
 20
393.0386339317653892
 30
0.0
 11
6503.6402320164606863
 21
393.0359984706697105
 31
0.0
  0
ARC
  5
334E4
  8
0
 10
6503.640096511126103
 20
393.0321181057585136
 30
0.0
 40
0.0038827301656854
 50
0.241629603743131
 51
87.9999999137014157
  0
LINE
  5
334E5
  8
0
 10
6503.643979206764925
 20
393.0321344800843804
 30
0.0
 11
6503.6463562053049827
 21
392.8959563292094117
 31
0.0
  0
ARC
  5
334E6
  8
0
 10
6503.7443791849518675
 20
392.8986233432377162
 30
0.0
 40
0.0980592550587415
 50
181.5585218695773051
 51
202.0775980970273054
  0
ARC
  5
334E7
  8
0
 10
6503.8050687677286987
 20
392.9232391903818211
 30
0.0
 40
0.1635509750563056
 50
202.0775980970273054
 51
219.9605757166596902
  0
ARC
  5
334E8
  8
0
 10
6503.8679818602313389
 20
392.9698613903171918
 30
0.0
 40
0.2417617385333318
 50
218.8534435809862941
 51
237.3258111963791066
  0
ARC
  5
334E9
  8
0
 10
6503.8946119169586382
 20
393.0103068820458248
 30
0.0
 40
0.2901840531874191
 50
237.2069285427656098
 51
251.1300735922183947
  0
ARC
  5
334EA
  8
0
 10
6503.8959627295862447
 20
393.0116749979758879
 30
0.0
 40
0.2919167172798709
 50
250.9660397043946034
 51
263.779054187784709
  0
ARC
  5
334EB
  8
0
 10
6503.8964183332691391
 20
393.0158546693223798
 30
0.0
 40
0.2961211467632203
 50
263.779054187784709
 51
277.3211644987833893
  0
ARC
  5
334EC
  8
0
 10
6503.9099850586799221
 20
392.9102593097127851
 30
0.0
 40
0.1896578384853643
 50
277.3211644987833893
 51
288.9245204619552965
  0
ARC
  5
334ED
  8
0
 10
6503.9256742414090695
 20
392.8644988707293919
 30
0.0
 40
0.1412825531561501
 50
288.9245204619552965
 51
303.7324007853637795
  0
ARC
  5
334EE
  8
0
 10
6503.9609756220534109
 20
392.8116314743641055
 30
0.0
 40
0.0777125203280012
 50
303.7324007853637795
 51
324.0351408372749233
  0
ARC
  5
334EF
  8
0
 10
6503.965936659325962
 20
392.8080317165940869
 30
0.0
 40
0.0715830711821747
 50
324.0351408372749233
 51
349.2369316820384029
  0
ARC
  5
334F0
  8
0
 10
6503.9335620532783651
 20
392.8141858782653912
 30
0.0
 40
0.1045374157008982
 50
349.2369316820384029
 51
353.9420768301558837
  0
LINE
  5
334F1
  8
0
 10
6504.0375157021653649
 20
392.8031536452845103
 30
0.0
 11
6504.0403507077653558
 21
392.9577826753845216
 31
0.0
  0
ARC
  5
334F2
  8
0
 10
6504.0442899943836892
 20
392.9577245460554877
 30
0.0
 40
0.0039397037356383
 50
60.2317671135682176
 51
178.9340270105192019
  0
ARC
  5
334F3
  8
0
 10
6503.8382365574616415
 20
392.5974719553311729
 30
0.0
 40
0.4189577129721262
 50
34.7964892729790165
 51
60.2317671135682176
  0
ARC
  5
334F4
  8
0
 10
6503.6627549364511651
 20
392.5081092297264718
 30
0.0
 40
0.6146391762641285
 50
1.8130157445845181
 51
32.301390528785511
  0
ARC
  5
334F5
  8
0
 10
6498.6322268114372491
 20
392.080061654023325
 30
0.0
 40
5.6625692401819734
 50
1.132454118708748
 51
4.5326150617354042
  0
ARC
  5
334F6
  8
0
 10
6511.7658375252285623
 20
391.6817748261184988
 30
0.0
 40
7.5193124116393726
 50
185.0407892458592869
 51
186.5053497880942928
  0
ARC
  5
334F7
  8
0
 10
6501.1502273007381518
 20
390.745413630279927
 30
0.0
 40
3.1375141670098361
 50
5.0407892458593704
 51
9.1281102929409883
  0
ARC
  5
334F8
  8
0
 10
6505.851933160804947
 20
391.5008709988453006
 30
0.0
 40
1.6244973649281
 50
174.4076965364494072
 51
189.1281102929376914
  0
ARC
  5
334F9
  8
0
 10
6510.2138411597215963
 20
391.0737737402096741
 30
0.0
 40
6.0072651501693386
 50
171.8877209332461007
 51
174.4076965364494072
  0
ARC
  5
334FA
  8
0
 10
6500.1604554482491949
 20
392.4260076910605903
 30
0.0
 40
4.1371119459286962
 50
352.9952388629179154
 51
355.1682107936564989
  0
ARC
  5
334FB
  8
0
 10
6394.0890252492226864
 20
402.5584415217803098
 30
0.0
 40
110.6911548381098953
 50
354.5667509558369943
 51
354.6262513768294866
  0
LINE
  5
334FC
  8
0
 10
6504.2927819569658823
 20
392.1823619345844918
 30
0.0
 11
6504.3030175136645994
 21
392.1821832722844761
 31
0.0
  0
ARC
  5
334FD
  8
0
 10
6504.3028114247090343
 20
392.1703764434518007
 30
0.0
 40
0.0118086273437012
 50
1.3957519782062
 51
89.0000000379141767
  0
ARC
  5
334FE
  8
0
 10
-299.2371004658180027
 20
391.7546265686652873
 30
0.0
 40
6803.5517297345886618
 50
359.9923844691754198
 51
0.0035036396271339
  0
ARC
  5
334FF
  8
0
 10
6504.3028178513586681
 20
390.8513776594862179
 30
0.0
 40
0.0117983640348509
 50
270.9815724572205227
 51
354.8816894812559894
  0
LINE
  5
33500
  8
0
 10
6504.3030199671657101
 20
390.839581026784515
 30
0.0
 11
6504.2938567317378329
 21
390.8394196958274733
 31
0.0
  0
LINE
  5
33501
  8
0
 10
6504.2949398502651093
 20
390.8298669237847776
 30
0.0
 11
6504.2948608905662695
 21
390.6461202570844762
 31
0.0
  0
LINE
  5
33502
  8
0
 10
6504.2693162697642038
 20
390.6503448500844797
 30
0.0
 11
6504.285533985164875
 21
390.6500613785844962
 31
0.0
  0
ARC
  5
33503
  8
0
 10
6504.2852968255820088
 20
390.6364932187328236
 30
0.0
 40
0.0135702323645324
 50
45.1880087464095368
 51
88.9986217905115353
  0
ARC
  5
33504
  8
0
 10
6504.2813262150893934
 20
390.6324964642595887
 30
0.0
 40
0.019204040491727
 50
15.4910176336464591
 51
45.1880087464095368
  0
ARC
  5
33505
  8
0
 10
6504.168945972356596
 20
390.6013496369045015
 30
0.0
 40
0.1358206937213467
 50
6.5427853756092622
 51
15.4910176336464591
  0
ARC
  5
33506
  8
0
 10
6501.9517096916570154
 20
390.4439789493113153
 30
0.0
 40
2.3585145581144529
 50
359.3490011335823056
 51
4.2027632356926832
  0
ARC
  5
33507
  8
0
 10
6504.2443953020610934
 20
390.6419406467068143
 30
0.0
 40
0.0349186424799536
 50
13.6605708223729998
 51
23.2839364294827007
  0
ARC
  5
33508
  8
0
 10
6504.2709677647453645
 20
390.6533757264983819
 30
0.0
 40
0.0059901647651767
 50
23.2839364294707387
 51
58.8821659393699477
  0
ARC
  5
33509
  8
0
 10
6504.3060489651988973
 20
390.6344332251518949
 30
0.0
 40
0.0400308720607809
 50
143.0366612064711944
 51
156.5790245973194033
  0
ARC
  5
3350A
  8
0
 10
6504.8526659149556508
 20
390.4089289871166102
 30
0.0
 40
0.6313306798938072
 50
157.5180663840523039
 51
166.4699251757604088
  0
ARC
  5
3350B
  8
0
 10
6504.8001040128192471
 20
390.414119821251802
 30
0.0
 40
0.5790584824514634
 50
165.7525066783476859
 51
179.6970193986421123
  0
ARC
  5
3350C
  8
0
 10
6504.6178374670271296
 20
390.4927388092585829
 30
0.0
 40
0.3548168478960832
 50
154.795485023116413
 51
165.4454268889791138
  0
ARC
  5
3350D
  8
0
 10
6505.134216285767252
 20
390.3586693005444204
 30
0.0
 40
0.8883163489354423
 50
165.4454268889791138
 51
172.3985552852986984
  0
ARC
  5
3350E
  8
0
 10
6504.8030028182611204
 20
390.4170437463415055
 30
0.0
 40
0.5524702996297898
 50
173.855616195035509
 51
179.9856747297712047
  0
ARC
  5
3350F
  8
0
 10
6541.1287312954473236
 20
388.2352901173762234
 30
0.0
 40
37.0238254723912732
 50
173.8988383068511894
 51
174.4222724043150095
  0
ARC
  5
33510
  8
0
 10
6508.9096073777946003
 20
391.258782301650001
 30
0.0
 40
4.6649852724209513
 50
172.9188465733458884
 51
174.8217845276076901
  0
ARC
  5
33511
  8
0
 10
6506.1073610510038634
 20
391.5118773919845125
 30
0.0
 40
1.851332882120593
 50
174.7954295094336885
 51
183.384679920894996
  0
ARC
  5
33512
  8
0
 10
6513.4994825200956257
 20
392.1885288955432998
 30
0.0
 40
9.2735904627990848
 50
184.8617507336983863
 51
186.8738884321398928
  0
ARC
  5
33513
  8
0
 10
6517.3451971809336101
 20
392.2222799991236002
 30
0.0
 40
13.1026534181571908
 50
185.0073905814211059
 51
186.0103534311195972
  0
LINE
  5
33514
  8
0
 10
6503.6492705580649272
 20
393.0305787982845231
 30
0.0
 11
6503.6492705579776157
 21
392.8948156983744866
 31
0.0
  0
ARC
  5
33515
  8
0
 10
6503.7182730947515665
 20
392.8948156983302056
 30
0.0
 40
0.0690025367732261
 50
179.9999999631874061
 51
200.0694193817425059
  0
ARC
  5
33516
  8
0
 10
6503.777637228596177
 20
392.9165039656699037
 30
0.0
 40
0.1322044459798929
 50
200.0694193817425059
 51
217.5285900447375127
  0
ARC
  5
33517
  8
0
 10
6503.8380746462344177
 20
392.962927159924277
 30
0.0
 40
0.208413332702127
 50
217.5285900447348979
 51
231.3908405937364137
  0
ARC
  5
33518
  8
0
 10
6503.876192378846099
 20
393.0106607663614113
 30
0.0
 40
0.2694989997846256
 50
231.3908405937364137
 51
244.9085624955147011
  0
ARC
  5
33519
  8
0
 10
6503.892764453127711
 20
393.0460521241503216
 30
0.0
 40
0.3085781739341123
 50
244.9085624955160938
 51
253.9042248978510088
  0
ARC
  5
3351A
  8
0
 10
6503.8947400974047923
 20
393.0528987991253871
 30
0.0
 40
0.3157041916521842
 50
253.9042248978510088
 51
268.2051400831157935
  0
ARC
  5
3351B
  8
0
 10
6503.8940016896385714
 20
393.029334949992915
 30
0.0
 40
0.2921287758134845
 50
268.2051400831157935
 51
277.9540043461144023
  0
ARC
  5
3351C
  8
0
 10
6503.9065737215423724
 20
392.9393562397497135
 30
0.0
 40
0.2012760142529788
 50
277.9540043461144023
 51
288.7388021335744952
  0
ARC
  5
3351D
  8
0
 10
6503.926933670903054
 20
392.8793392293071065
 30
0.0
 40
0.1378996063364698
 50
288.7388021335744952
 51
302.1998810785576097
  0
ARC
  5
3351E
  8
0
 10
6503.9574023496643349
 20
392.8309555658123031
 30
0.0
 40
0.0807216448595517
 50
302.199881078559315
 51
322.8520652842660184
  0
ARC
  5
3351F
  8
0
 10
6503.9692892985976869
 20
392.8219498939379832
 30
0.0
 40
0.0658085069971196
 50
322.8520652842660184
 51
0.2179099222862608
  0
LINE
  5
33520
  8
0
 10
6504.0350973296472148
 20
392.8222001792503875
 30
0.0
 11
6504.0350973295662698
 21
392.9690063481845073
 31
0.0
  0
ARC
  5
33521
  8
0
 10
6504.0232863065866695
 20
392.9690053884742724
 30
0.0
 40
0.0118110230175324
 50
0.0046555950054924
 51
63.3266920579952028
  0
ARC
  5
33522
  8
0
 10
6503.6610815815993192
 20
393.0305780567795182
 30
0.0
 40
0.0118110236341148
 50
89.1231098960149239
 51
179.9964029774795904
  0
ARC
  5
33523
  8
0
 10
6503.6070767241144495
 20
389.5021897227723002
 30
0.0
 40
3.540612627605447
 50
87.0681465373408656
 51
89.1231098960149239
  0
ARC
  5
33524
  8
0
 10
6503.751721679156617
 20
392.3264477800885857
 30
0.0
 40
0.7126529855073485
 50
75.5872207359101225
 51
87.0681465373408656
  0
ARC
  5
33525
  8
0
 10
6503.8032474147012181
 20
392.5269416122799839
 30
0.0
 40
0.5056441012286064
 50
65.5660107851111036
 51
75.5872207359101225
  0
ARC
  5
33526
  8
0
 10
6503.8233408160749605
 20
392.5711846204760036
 30
0.0
 40
0.4570520391447545
 50
63.3160900062903096
 51
65.5651237020592959
  0
LINE
  5
33527
  8
0
 10
6503.6492565586440833
 20
392.8748052100817176
 30
0.0
 11
6503.6492705579776157
 21
392.8945490257968913
 31
0.0
  0
LINE
  5
33528
  8
0
 10
6504.0350973295662698
 20
392.8222040917843856
 30
0.0
 11
6504.0350973296663142
 21
392.7895719172843769
 31
0.0
  0
LINE
  5
33529
  8
0
 10
6503.5587193768651559
 20
393.0195516361844739
 30
0.0
 11
6503.5606878807648172
 21
393.0195516361844739
 31
0.0
  0
LINE
  5
3352A
  8
0
 10
6503.5587193769652004
 20
385.3738672289845226
 30
0.0
 11
6503.5606878808666806
 21
385.3738672289845226
 31
0.0
  0
LINE
  5
3352B
  8
0
 10
6493.9165360037368373
 20
357.6067094297231961
 30
0.0
 11
6483.0605600830431285
 21
357.6067094297231961
 31
0.0
  0
LINE
  5
3352C
  8
0
 10
6494.4165731579669227
 20
374.0834309092361991
 30
0.0
 11
6494.4165731579669227
 21
374.1421470672798932
 31
0.0
  0
ARC
  5
3352D
  8
0
 10
6494.3971099251557462
 20
374.0828718063223732
 30
0.0
 40
0.0194712615819309
 50
269.3561357629760096
 51
1.6454322108795909
  0
ARC
  5
3352E
  8
0
 10
6482.870996847553215
 20
374.0307454574158896
 30
0.0
 40
0.1903488662675045
 50
67.7473679826463808
 51
87.3149214910685174
  0
ARC
  5
3352F
  8
0
 10
6485.0854201747242769
 20
379.4428076343183989
 30
0.0
 40
5.657222225953058
 50
247.7473679826464092
 51
248.190245502475392
  0
ARC
  5
33530
  8
0
 10
6483.0115392205907483
 20
374.2602943611656201
 30
0.0
 40
0.0751593421867648
 50
248.190245502475392
 51
264.7287846052176974
  0
LINE
  5
33531
  8
0
 10
6483.0046343064550456
 20
374.1854528694731812
 30
0.0
 11
6483.9446908051040737
 21
374.1854528779231828
 31
0.0
  0
ARC
  5
33532
  8
0
 10
6483.9464709501153266
 20
374.2389268079492126
 30
0.0
 40
0.0535035522996275
 50
268.0933299004012724
 51
295.1984561810930927
  0
ARC
  5
33533
  8
0
 10
6484.1214664657472895
 20
373.8802602500188073
 30
0.0
 40
0.3455829709159705
 50
99.7169514994084381
 51
116.1333528375978972
  0
LINE
  5
33534
  8
0
 10
6482.5605229288130431
 20
374.0834309092361991
 30
0.0
 11
6482.5605229288130431
 21
374.1421470672798932
 31
0.0
  0
ARC
  5
33535
  8
0
 10
6482.5799861616242197
 20
374.0828718063223732
 30
0.0
 40
0.0194712615819309
 50
178.3545677891204093
 51
270.6438642370239904
  0
ARC
  5
33537
  8
0
 10
6483.4745758914914404
 20
375.3805989927232076
 30
0.0
 40
1.2266419819999881
 50
256.98741845764971
 51
283.0118533591012806
  0
ARC
  5
33538
  8
0
 10
6483.2490116970357121
 20
373.4444963849608143
 30
0.0
 40
0.8190570658365011
 50
49.080586949113119
 51
61.5989212369575228
  0
ARC
  5
33539
  8
0
 10
6493.5000899623901205
 20
375.3805988376232108
 30
0.0
 40
1.2266419820999881
 50
256.9881144396197783
 51
283.0118845303417743
  0
ARC
  5
3353A
  8
0
 10
6493.7841618269649189
 20
373.3578778622144227
 30
0.0
 40
0.9231658866788212
 50
119.040801727856703
 51
130.16017102436561
  0
ENDSEC
  0
EOF
