  0
SECTION
  2
HEADER
  9
$ACADVER
  1
AC1009
  9
$INSBASE
 10
445.3791607354945086
 20
29.1094885038071212
 30
0.0
  9
$EXTMIN
 10
438.1689741631681727
 20
29.1056976210131211
 30
-0.0000000349181948
  9
$EXTMAX
 10
452.5929940958018847
 20
58.4140822703401668
 30
0.0000000814935746
  9
$LIMMIN
 10
0.0
 20
0.0
  9
$LIMMAX
 10
11.6929133858000007
 20
8.2677165353999982
  9
$ORTHOMODE
 70
     0
  9
$REGENMODE
 70
     1
  9
$FILLMODE
 70
     1
  9
$QTEXTMODE
 70
     0
  9
$MIRRTEXT
 70
     0
  9
$DRAGMODE
 70
     2
  9
$LTSCALE
 40
0.6431102362
  9
$OSMODE
 70
  4095
  9
$ATTMODE
 70
     1
  9
$TEXTSIZE
 40
0.2
  9
$TRACEWID
 40
0.05
  9
$TEXTSTYLE
  7
STANDARD
  9
$CLAYER
  8
0
  9
$CELTYPE
  6
BYLAYER
  9
$CECOLOR
 62
   256
  9
$DIMSCALE
 40
1.0
  9
$DIMASZ
 40
0.1875
  9
$DIMEXO
 40
0.0625
  9
$DIMDLI
 40
0.4443307087
  9
$DIMRND
 40
0.0
  9
$DIMDLE
 40
0.0
  9
$DIMEXE
 40
0.125
  9
$DIMTP
 40
0.01
  9
$DIMTM
 40
0.01
  9
$DIMTXT
 40
1.0
  9
$DIMCEN
 40
0.1052362205
  9
$DIMTSZ
 40
0.0
  9
$DIMTOL
 70
     1
  9
$DIMLIM
 70
     0
  9
$DIMTIH
 70
     1
  9
$DIMTOH
 70
     1
  9
$DIMSE1
 70
     0
  9
$DIMSE2
 70
     0
  9
$DIMTAD
 70
     0
  9
$DIMZIN
 70
     0
  9
$DIMBLK
  1

  9
$DIMASO
 70
     1
  9
$DIMSHO
 70
     1
  9
$DIMPOST
  1
\X
  9
$DIMAPOST
  1

  9
$DIMALT
 70
     1
  9
$DIMALTD
 70
     2
  9
$DIMALTF
 40
25.3999999999999986
  9
$DIMLFAC
 40
1.0
  9
$DIMTOFL
 70
     0
  9
$DIMTVP
 40
0.0
  9
$DIMTIX
 70
     0
  9
$DIMSOXD
 70
     0
  9
$DIMSAH
 70
     0
  9
$DIMBLK1
  1

  9
$DIMBLK2
  1

  9
$DIMSTYLE
  2
STANDARD
  9
$DIMCLRD
 70
     0
  9
$DIMCLRE
 70
     0
  9
$DIMCLRT
 70
     0
  9
$DIMTFAC
 40
1.0
  9
$DIMGAP
 40
0.09
  9
$LUNITS
 70
     2
  9
$LUPREC
 70
     4
  9
$SKETCHINC
 40
0.1
  9
$FILLETRAD
 40
0.0
  9
$AUNITS
 70
     0
  9
$AUPREC
 70
     0
  9
$MENU
  1
.
  9
$ELEVATION
 40
0.0
  9
$PELEVATION
 40
0.0
  9
$THICKNESS
 40
0.0
  9
$LIMCHECK
 70
     0
  9
$BLIPMODE
 70
     0
  9
$CHAMFERA
 40
0.0
  9
$CHAMFERB
 40
0.0
  9
$SKPOLY
 70
     0
  9
$TDCREATE
 40
2458306.6094560190103948
  9
$TDUPDATE
 40
2459847.4107870380394161
  9
$TDINDWG
 40
0.0629164005
  9
$TDUSRTIMER
 40
0.0629164005
  9
$USRTIMER
 70
     1
  9
$ANGBASE
 50
0.0
  9
$ANGDIR
 70
     0
  9
$PDMODE
 70
     0
  9
$PDSIZE
 40
0.3125
  9
$PLINEWID
 40
0.0
  9
$COORDS
 70
     1
  9
$SPLFRAME
 70
     0
  9
$SPLINETYPE
 70
     6
  9
$SPLINESEGS
 70
     8
  9
$ATTDIA
 70
     1
  9
$ATTREQ
 70
     1
  9
$HANDLING
 70
     1
  9
$HANDSEED
  5
22E3
  9
$SURFTAB1
 70
     6
  9
$SURFTAB2
 70
     6
  9
$SURFTYPE
 70
     6
  9
$SURFU
 70
     6
  9
$SURFV
 70
     6
  9
$UCSNAME
  2

  9
$UCSORG
 10
0.0
 20
0.0
 30
0.0
  9
$UCSXDIR
 10
1.0
 20
0.0
 30
0.0
  9
$UCSYDIR
 10
0.0
 20
1.0
 30
0.0
  9
$PUCSNAME
  2

  9
$PUCSORG
 10
0.0
 20
0.0
 30
0.0
  9
$PUCSXDIR
 10
1.0
 20
0.0
 30
0.0
  9
$PUCSYDIR
 10
0.0
 20
1.0
 30
0.0
  9
$USERI1
 70
     0
  9
$USERI2
 70
     0
  9
$USERI3
 70
     0
  9
$USERI4
 70
     0
  9
$USERI5
 70
     0
  9
$USERR1
 40
0.0
  9
$USERR2
 40
0.0
  9
$USERR3
 40
0.0
  9
$USERR4
 40
0.0
  9
$USERR5
 40
0.0
  9
$WORLDVIEW
 70
     1
  9
$SHADEDGE
 70
     3
  9
$SHADEDIF
 70
    70
  9
$TILEMODE
 70
     1
  9
$MAXACTVP
 70
    64
  9
$PLIMCHECK
 70
     0
  9
$PEXTMIN
 10
1.0000000000000000E+20
 20
1.0000000000000000E+20
 30
1.0000000000000000E+20
  9
$PEXTMAX
 10
-1.0000000000000000E+20
 20
-1.0000000000000000E+20
 30
-1.0000000000000000E+20
  9
$PLIMMIN
 10
0.0
 20
0.0
  9
$PLIMMAX
 10
12.0
 20
9.0
  9
$UNITMODE
 70
     0
  9
$VISRETAIN
 70
     1
  9
$PLINEGEN
 70
     0
  9
$PSLTSCALE
 70
     1
  0
ENDSEC
  0
SECTION
  2
TABLES
  0
TABLE
  2
VPORT
 70
     1
  0
VPORT
  2
*ACTIVE
 70
     0
 10
0.0
 20
0.0
 11
1.0
 21
1.0
 12
124.7336866187410038
 22
11.2310557864979597
 13
0.0
 23
0.0
 14
1.0
 24
1.0
 15
0.0
 25
0.0
 16
0.0
 26
0.0
 36
34.7127380975078097
 17
320.6472975107441243
 27
32.5288341591786931
 37
0.0
 40
29.5088981132905204
 41
1.6198630136986301
 42
50.0
 43
0.0
 44
0.0
 50
0.0
 51
0.0
 71
     0
 72
   100
 73
     1
 74
     1
 75
     0
 76
     0
 77
     0
 78
     0
  0
ENDTAB
  0
TABLE
  2
LTYPE
 70
     2
  0
LTYPE
  2
CONTINUOUS
 70
     0
  3
Solid line
 72
    65
 73
     0
 40
0.0
  0
LTYPE
  2
PHANTOM2
 70
     0
  3
___ _ _ ___ _ _ ___ _ _ ___ _ _
 72
    65
 73
     6
 40
1.25
 49
0.625
 49
-0.125
 49
0.125
 49
-0.125
 49
0.125
 49
-0.125
  0
ENDTAB
  0
TABLE
  2
LAYER
 70
     2
  0
LAYER
  2
0
 70
     0
 62
   255
  6
CONTINUOUS
  0
LAYER
  2
DEFPOINTS
 70
     0
 62
     7
  6
CONTINUOUS
  0
ENDTAB
  0
TABLE
  2
STYLE
 70
     1
  0
STYLE
  2
STANDARD
 70
     0
 40
0.0
 41
0.8
 50
0.0
 71
     0
 42
0.2
  3
txt
  4

  0
ENDTAB
  0
TABLE
  2
VIEW
 70
     0
  0
ENDTAB
  0
TABLE
  2
UCS
 70
     0
  0
ENDTAB
  0
TABLE
  2
APPID
 70
     9
  0
APPID
  2
ACAD
 70
     0
  0
APPID
  2
ACAD_MLEADERVER
 70
     0
  0
APPID
  2
ACAD_EXEMPT_FROM_CAD_STANDARDS
 70
     0
  0
APPID
  2
ACAD_DSTYLE_DIMJAG
 70
     0
  0
APPID
  2
ACAD_DSTYLE_DIMTALN
 70
     0
  0
APPID
  2
ACAD_NAV_VCDISPLAY
 70
     0
  0
APPID
  2
ACAECLAYERSTANDARD
 70
     0
  0
APPID
  2
ACCMTRANSPARENCY
 70
     0
  0
APPID
  2
ACDBATTR
 70
     0
  0
ENDTAB
  0
TABLE
  2
DIMSTYLE
 70
     1
  0
DIMSTYLE
  2
STANDARD
 70
     0
  3

  4

  5

  6

  7

 40
1.0
 41
0.1875
 42
0.0625
 43
0.38
 44
0.125
 45
0.0
 46
0.0
 47
0.01
 48
0.01
140
0.15625
141
0.09
142
0.0
143
25.3999999999999986
144
1.0
145
0.0
146
1.0
147
0.09
 71
     1
 72
     0
 73
     1
 74
     1
 75
     0
 76
     0
 77
     0
 78
     4
170
     0
171
     2
172
     0
173
     0
174
     0
175
     0
176
     0
177
     0
178
     0
  0
ENDTAB
  0
ENDSEC
  0
SECTION
  2
BLOCKS
  0
BLOCK
  8
0
  2
$MODEL_SPACE
 70
     0
 10
0.0
 20
0.0
 30
0.0
  3
$MODEL_SPACE
  1

  0
ENDBLK
  5
21
  8
0
  0
BLOCK
 67
     1
  8
0
  2
$PAPER_SPACE
 70
     0
 10
0.0
 20
0.0
 30
0.0
  3
$PAPER_SPACE
  1

  0
ENDBLK
  5
1D
 67
     1
  8
0
  0
ENDSEC
  0
SECTION
  2
ENTITIES
  0
ATTDEF
  5
659
  8
DEFPOINTS
 10
445.3739683927013857
 20
29.1150588401632504
 30
0.0
 40
0.001
  1
K-28627K
  3

  2
MODELNUMBER
 70
     0
1001
ACDBATTR
1070
     0
1070
     1
  0
ATTDEF
  5
65A
  8
DEFPOINTS
 10
445.3739683927013857
 20
29.1133921734965817
 30
0.0
 40
0.001
  1
REACH
  3

  2
TRADENAME
 70
     0
1001
ACDBATTR
1070
     0
1070
     1
  0
ATTDEF
  5
65B
  8
DEFPOINTS
 10
445.3739683927013857
 20
29.1117255068299094
 30
0.0
 40
0.001
  1
TOILET
  3

  2
PRODUCT
 70
     0
1001
ACDBATTR
1070
     0
1070
     1
  0
LINE
  5
211D
  8
0
 10
438.480090109317473
 20
58.3228743305071191
 30
0.0
 11
452.278231361671601
 21
58.3228743305071191
 31
0.0
  0
LINE
  5
211E
  8
0
 10
438.386195714931489
 20
57.2992522833071192
 30
0.0
 11
452.3721257560575282
 21
57.2992522833071192
 31
0.0
  0
LINE
  5
211F
  8
0
 10
438.2623175539434897
 20
45.9559144882071067
 30
0.0
 11
452.4960039170455843
 21
45.9559144882071067
 31
0.0
  0
LINE
  5
2120
  8
0
 10
438.2024088578539249
 20
44.4637885039071108
 30
0.0
 11
452.343559498864181
 21
44.4637885039071108
 31
0.0
  0
LINE
  5
2121
  8
0
 10
438.2432574883438861
 20
44.7830718951404805
 30
0.0
 11
452.5150639826450742
 21
44.7830718951404805
 31
0.0
  0
LINE
  5
2122
  8
0
 10
438.2623175539434897
 20
45.215757007907122
 30
0.0
 11
452.4960039170455843
 21
45.215757007907122
 31
0.0
  0
LINE
  5
2123
  8
0
 10
438.2623175539434897
 20
45.4836874291203799
 30
0.0
 11
452.4960039170455843
 21
45.4836874291201809
 31
0.0
  0
LINE
  5
2124
  8
0
 10
440.8398868615312836
 20
29.1094885038071212
 30
0.0
 11
449.9184346094577904
 21
29.1094885038071212
 31
0.0
  0
ARC
  5
2125
  8
0
 10
401.4562209624315869
 20
34.2189468387215925
 30
0.0
 40
39.7137218619475689
 50
352.6079930419546145
 51
354.3688725063415745
  0
ARC
  5
2126
  8
0
 10
424.5206835110279826
 20
32.0189287312588533
 30
0.0
 40
16.5448537231579209
 50
354.1134155728486803
 51
354.4183122758564082
  0
ARC
  5
2127
  8
0
 10
424.5206835110279826
 20
32.0189287312588533
 30
0.0
 40
16.5448537231579209
 50
356.2035953901639118
 51
359.9830621726050026
  0
ARC
  5
2128
  8
0
 10
428.9201042883165087
 20
31.9932564763027187
 30
0.0
 40
12.1454500016318505
 50
0.0980349487118477
 51
9.2588562447814073
  0
ARC
  5
2129
  8
0
 10
429.5752393022784759
 20
32.3076470910282012
 30
0.0
 40
11.4500997444472397
 50
8.2335585272950187
 51
22.9430059577977516
  0
ARC
  5
212A
  8
0
 10
477.8037894719072938
 20
51.8288052228847818
 30
0.0
 40
40.581236464625853
 50
195.9981599152420131
 51
201.7804892261956127
  0
ARC
  5
212B
  8
0
 10
458.7076178874506809
 20
45.8760242656686898
 30
0.0
 40
20.5891456207224017
 50
184.5590520113032085
 51
194.7201734228123087
  0
LINE
  5
212C
  8
0
 10
438.2004599651609738
 20
44.3225294984224618
 30
0.0
 11
438.2067802370810909
 21
44.7806333894445672
 31
0.0
  0
ARC
  5
212D
  8
0
 10
438.4107785723057873
 20
44.2366449124329577
 30
0.0
 40
0.227178517078303
 50
88.9953112765431058
 51
179.2888521864902884
  0
LINE
  5
212E
  8
0
 10
438.1836175539435203
 20
45.8772144882071231
 30
0.0
 11
438.1836175539435203
 21
45.5623874291203776
 31
0.0
  0
LINE
  5
212F
  8
0
 10
438.1836175539435203
 20
45.1370570079071101
 30
0.0
 11
438.1836175539435203
 21
44.8347073662784581
 31
0.0
  0
LINE
  5
2130
  8
0
 10
440.587662085257989
 20
44.514969606307119
 30
0.0
 11
439.9882728481567824
 21
44.514969606307119
 31
0.0
  0
LINE
  5
2131
  8
0
 10
439.9508317635575168
 20
44.5378192768545205
 30
0.0
 11
439.8463658778342733
 21
44.741001049651139
 31
0.0
  0
LINE
  5
2132
  8
0
 10
440.6947584589418057
 20
44.6867914918746791
 30
0.0
 11
440.625802394293828
 21
44.5392447128529483
 31
0.0
  0
ARC
  5
2133
  8
0
 10
440.7569406918494792
 20
44.6488830191601025
 30
0.0
 40
0.0728263852799741
 50
125.1975470800377934
 51
148.632048180986402
  0
ARC
  5
2134
  8
0
 10
440.730324163545788
 20
44.6866177828602389
 30
0.0
 40
0.0266489885316829
 50
108.962403418069897
 51
125.1975470800347949
  0
ARC
  5
2135
  8
0
 10
440.7093186331291008
 20
44.7677185080620674
 30
0.0
 40
0.0572451020732955
 50
282.4547895675246991
 51
297.9136149887527267
  0
ARC
  5
2136
  8
0
 10
440.729250415377976
 20
44.7346505571525768
 30
0.0
 40
0.0188148282694496
 50
291.4060011382056814
 51
348.4001795363113274
  0
ARC
  5
2137
  8
0
 10
439.8874462816293089
 20
45.3115197747402974
 30
0.0
 40
0.5664062300089716
 50
258.9125412388760878
 51
265.2821680047268842
  0
ARC
  5
2138
  8
0
 10
439.9185624131811778
 20
44.0109057810011208
 30
0.0
 40
0.7578312957518282
 50
91.8701703188475989
 51
100.648925040355806
  0
ARC
  5
2139
  8
0
 10
440.2216305720119749
 20
39.1349442388513822
 30
0.0
 40
5.6429182450630204
 50
84.7479028289292273
 51
93.330214381700614
  0
ARC
  5
213A
  8
0
 10
456.4319353746099068
 20
56.564962588704347
 30
0.0
 40
19.6415119342125806
 50
216.9643391392204137
 51
217.0775861255980885
  0
ARC
  5
213B
  8
0
 10
440.7187963207090888
 20
44.7671891395929791
 30
0.0
 40
0.061358828480317
 50
263.6600905206673247
 51
314.1660216237453938
  0
ARC
  5
213C
  8
0
 10
440.7631901293163992
 20
44.7427198604889398
 30
0.0
 40
0.0196137849686667
 50
223.3833405152576859
 51
265.1958085308395994
  0
ARC
  5
213D
  8
0
 10
442.2245390285684152
 20
45.8732781363916615
 30
0.0
 40
1.8671400847233881
 50
216.7939210586339129
 51
217.7862995869415954
  0
ARC
  5
213E
  8
0
 10
440.587662085257989
 20
44.5570696063071168
 30
0.0
 40
0.0421
 50
270.0
 51
334.9509397905516153
  0
ARC
  5
213F
  8
0
 10
439.9882728481567824
 20
44.5570696063071168
 30
0.0
 40
0.0421
 50
207.2099567398335012
 51
270.0
  0
ARC
  5
2140
  8
0
 10
439.8042481170954829
 20
44.708083626068543
 30
0.0
 40
0.0534552387046365
 50
38.0096477390505427
 51
82.5613838481148719
  0
ARC
  5
2141
  8
0
 10
437.4298520858769734
 20
11.4069972002095401
 30
0.0
 40
33.4259925548185208
 50
85.8615573044950366
 51
86.868319015901875
  0
ARC
  5
2142
  8
0
 10
440.7019043720165996
 20
45.176666656793742
 30
0.0
 40
0.4752675595870162
 50
270.5550642942490072
 51
284.2271912045284807
  0
ARC
  5
2143
  8
0
 10
440.783745052302379
 20
44.8538796661244703
 30
0.0
 40
0.1422670516369872
 50
284.2271912045284807
 51
314.3571272317391845
  0
ARC
  5
2144
  8
0
 10
441.0614998977728192
 20
44.5698208685594324
 30
0.0
 40
0.2550201928806013
 50
123.2577151648274025
 51
134.3571272317392129
  0
LINE
  5
2145
  8
0
 10
438.2737611937723727
 20
44.7616212253977466
 30
0.0
 11
438.3342256197503275
 21
44.7743978039119526
 31
0.0
  0
ARC
  5
2146
  8
0
 10
438.2583175539434137
 20
44.8347073662784581
 30
0.0
 40
0.0747
 50
179.9999999999994031
 51
281.9315028557796268
  0
LINE
  5
2147
  8
0
 10
438.2516157364951255
 20
44.7818392767179034
 30
0.0
 11
439.0544564470326918
 21
44.7095196331163791
 31
0.0
  0
ARC
  5
2148
  8
0
 10
438.2583175539434137
 20
44.8562380377485113
 30
0.0
 40
0.0747
 50
179.9999999999994031
 51
264.8527061699161891
  0
LINE
  5
2149
  8
0
 10
438.4603138455070734
 20
44.7630398154225801
 30
0.0
 11
438.5028554542989809
 21
44.5803510031067418
 31
0.0
  0
LINE
  5
214A
  8
0
 10
438.999407846206509
 20
44.7144783941013131
 30
0.0
 11
438.9254690951083262
 21
44.5672335804644035
 31
0.0
  0
LINE
  5
214B
  8
0
 10
438.5604154447825067
 20
44.5346546405061616
 30
0.0
 11
438.8726539138223757
 21
44.5346546405061616
 31
0.0
  0
LINE
  5
214C
  8
0
 10
439.1813358828694049
 20
44.7830718951404805
 30
0.0
 11
439.1304003168336862
 21
44.7355642695933327
 31
0.0
  0
ARC
  5
214D
  8
0
 10
439.0632845439125163
 20
44.807522820337411
 30
0.0
 40
0.0984
 50
264.8527061699161891
 51
313.0056802960257869
  0
ARC
  5
214E
  8
0
 10
438.5604154447825067
 20
44.5937546405061624
 30
0.0
 40
0.0591
 50
193.108505759193207
 51
270.0
  0
ARC
  5
214F
  8
0
 10
438.8726539138223757
 20
44.5937546405061624
 30
0.0
 40
0.0591
 50
270.0
 51
333.3365569761078859
  0
ARC
  5
2150
  8
0
 10
439.8970766819314804
 20
43.4341879464508906
 30
0.0
 40
1.471097152832735
 50
44.4178724152142124
 51
57.4393679472874581
  0
ARC
  5
2151
  8
0
 10
438.2623175539434897
 20
45.8772144882071089
 30
0.0
 40
0.0787
 50
90.0
 51
179.9999999999994031
  0
ARC
  5
2152
  8
0
 10
438.2623175539434897
 20
45.5623874291203776
 30
0.0
 40
0.0787
 50
179.9999999999994031
 51
270.0
  0
ARC
  5
2153
  8
0
 10
438.2623175539434897
 20
45.1370570079071101
 30
0.0
 40
0.0787
 50
90.0
 51
179.9999999999994031
  0
LINE
  5
2154
  8
0
 10
438.2166811793592842
 20
45.4982702604771703
 30
0.0
 11
438.2125386663258269
 21
45.1980139791863991
 31
0.0
  0
LINE
  5
2155
  8
0
 10
438.2228486914460746
 20
45.9453019238554035
 30
0.0
 11
438.3762263444658061
 21
57.2996738160647183
 31
0.0
  0
LINE
  5
2156
  8
0
 10
438.6126572053473183
 20
44.7493167725523193
 30
0.0
 11
438.5868540769756123
 21
44.5808123909581724
 31
0.0
  0
LINE
  5
2157
  8
0
 10
438.6987895462028746
 20
44.7415579978520768
 30
0.0
 11
438.7239277307342036
 21
44.5529525398393602
 31
0.0
  0
ARC
  5
2158
  8
0
 10
438.6462620306854205
 20
44.5948518453070122
 30
0.0
 40
0.0610443383320395
 50
193.2963547116524978
 51
260.4435984139229276
  0
ARC
  5
2159
  8
0
 10
438.6906030226538746
 20
44.5712088817919394
 30
0.0
 40
0.0379977655938824
 50
285.8436493611046103
 51
331.2846612568088744
  0
LINE
  5
215A
  8
0
 10
441.1062448927743844
 20
45.2280213790511496
 30
0.0
 11
441.1062448927743844
 21
45.4836874291203372
 31
0.0
  0
LINE
  5
215B
  8
0
 10
441.0865063329828217
 20
45.2305190509951274
 30
0.0
 11
441.0842969660462813
 21
45.4836874291203372
 31
0.0
  0
LINE
  5
215C
  8
0
 10
441.6202115172819731
 20
45.215757007907122
 30
0.0
 11
441.6225497105847921
 21
45.4836874291203372
 31
0.0
  0
LINE
  5
215D
  8
0
 10
441.6390032551444733
 20
45.215757007907122
 30
0.0
 11
441.6390032551444733
 21
45.4836874291203372
 31
0.0
  0
LINE
  5
215E
  8
0
 10
440.99335056556572
 20
45.4836874291203372
 30
0.0
 11
441.0062992448786758
 21
45.2692592836432297
 31
0.0
  0
ARC
  5
215F
  8
0
 10
441.0616351160726936
 20
45.3009826465059433
 30
0.0
 40
0.063784248777639
 50
209.8251079140005118
 51
254.5390394693704081
  0
ARC
  5
2160
  8
0
 10
441.142398344032415
 20
45.5929778800114818
 30
0.0
 40
0.3667428521881207
 50
254.5390394693704081
 51
268.597394827051005
  0
ARC
  5
2161
  8
0
 10
441.2377691413890943
 20
45.7156853760372783
 30
0.0
 40
0.5003424345833987
 50
257.9624463846786853
 51
267.6688568687217185
  0
LINE
  5
2162
  8
0
 10
441.0856473741596915
 20
45.3289459843071114
 30
0.0
 11
441.1062448927743844
 21
45.3289459843071114
 31
0.0
  0
LINE
  5
2163
  8
0
 10
441.0859894476038789
 20
45.289748249607122
 30
0.0
 11
441.1062448927743844
 21
45.289748249607122
 31
0.0
  0
LINE
  5
2164
  8
0
 10
441.6211993024890035
 20
45.3289459843071114
 30
0.0
 11
441.6390032551444733
 21
45.3289459843071185
 31
0.0
  0
LINE
  5
2165
  8
0
 10
441.6208572290468055
 20
45.2897482493071166
 30
0.0
 11
441.6390032551444733
 21
45.2897482493071166
 31
0.0
  0
LINE
  5
2166
  8
0
 10
440.5068511022446955
 20
45.28268614170711
 30
0.0
 11
439.8906195648368112
 21
45.2826861417071314
 31
0.0
  0
LINE
  5
2167
  8
0
 10
440.588650385763799
 20
45.3806677594526988
 30
0.0
 11
440.5451926130127731
 21
45.3048959495291825
 31
0.0
  0
LINE
  5
2168
  8
0
 10
439.856298485629793
 20
45.2990346871299678
 30
0.0
 11
439.7222785210936991
 21
45.464186198532218
 31
0.0
  0
ARC
  5
2169
  8
0
 10
440.0820934219714786
 20
40.6993886577206823
 30
0.0
 40
4.778363984442513
 50
83.0012066235702264
 51
95.0249245790824375
  0
ARC
  5
216A
  8
0
 10
440.7908361185164949
 20
45.4357405338188372
 30
0.0
 40
0.1266686434373328
 50
177.1006198492275132
 51
192.6468072369208926
  0
ARC
  5
216B
  8
0
 10
440.5972600697484154
 20
45.519494173072232
 30
0.0
 40
0.1316302840322495
 50
268.6200120121171153
 51
302.1166832445981072
  0
ARC
  5
216C
  8
0
 10
440.6418691171035107
 20
45.3463136931424629
 30
0.0
 40
0.0633437860998227
 50
124.2324922201821948
 51
147.1567122238321872
  0
ARC
  5
216D
  8
0
 10
440.6030977404183204
 20
45.4417793241261521
 30
0.0
 40
0.0432094522162707
 50
274.1635710756543745
 51
343.9924992576738987
  0
ARC
  5
216E
  8
0
 10
440.6915708514669063
 20
45.4371748572228995
 30
0.0
 40
0.0475050469733617
 50
171.1468933007485873
 51
188.8531066992404135
  0
ARC
  5
216F
  8
0
 10
440.60091449648138
 20
45.6912354597015025
 30
0.0
 40
0.3070807747339045
 50
268.184484655449296
 51
302.0089413608610016
  0
ARC
  5
2170
  8
0
 10
441.7997448275954184
 20
43.4673195463274809
 30
0.0
 40
2.2200996857851161
 50
114.7376987206883996
 51
117.818581502930499
  0
ARC
  5
2171
  8
0
 10
440.5068511022446955
 20
45.3268861417071065
 30
0.0
 40
0.0442
 50
269.9999999999968168
 51
330.164226941188474
  0
ARC
  5
2172
  8
0
 10
439.8906195648368112
 20
45.3268861417071278
 30
0.0
 40
0.0442
 50
219.0592278471889927
 51
269.9999999999968168
  0
ARC
  5
2173
  8
0
 10
439.7605118497152148
 20
45.7667161288781728
 30
0.0
 40
0.3218455923150965
 50
252.6440969013800952
 51
265.8590543939301938
  0
ARC
  5
2174
  8
0
 10
438.0190479804754204
 20
29.0994507847874608
 30
0.0
 40
16.4328711365032909
 50
83.9873980057221843
 51
85.5907952428976557
  0
ARC
  5
2175
  8
0
 10
438.1558634001385144
 20
53.8193266629032507
 30
0.0
 40
8.6182416432162992
 50
273.3437547321134957
 51
281.0408791524550907
  0
LINE
  5
2176
  8
0
 10
438.2689264884226077
 20
57.4313357919506871
 30
0.0
 11
438.362820882808478
 21
58.2187578391506975
 31
0.0
  0
ARC
  5
2177
  8
0
 10
438.386195714931489
 20
57.4173522833071104
 30
0.0
 40
0.1181
 50
173.2000000065573033
 51
270.0
  0
ARC
  5
2178
  8
0
 10
438.480090109317473
 20
58.2047743305071208
 30
0.0
 40
0.1181
 50
90.0
 51
173.2000000065575023
  0
ARC
  5
2179
  8
0
 10
441.024907730506925
 20
30.1708148642682517
 30
0.0
 40
0.0200001297408256
 50
186.9307500314073138
 51
242.2236317141050108
  0
ARC
  5
217A
  8
0
 10
443.4152725470427754
 20
30.4691473760691487
 30
0.0
 40
2.42890979066566
 50
162.470650041579006
 51
187.1125772001786061
  0
ARC
  5
217B
  8
0
 10
441.1182477515275195
 20
31.1947669878421614
 30
0.0
 40
0.0200000614081502
 50
108.1742320384540932
 51
162.6799905925228131
  0
ARC
  5
217C
  8
0
 10
412.9685540354735167
 20
32.9621058719153908
 30
0.0
 40
28.1977086079395711
 50
354.2773719248477846
 51
356.445221753332703
  0
LINE
  5
217D
  8
0
 10
441.0257328086850066
 20
30.1504355451666797
 30
0.0
 11
441.0155872349611741
 21
30.1531192842428908
 31
0.0
  0
LINE
  5
217E
  8
0
 10
444.4736788457444732
 20
58.4094885038071183
 30
0.0
 11
446.2846426252444871
 21
58.4094885038071183
 31
0.0
  0
LINE
  5
217F
  8
0
 10
444.4342788457444726
 20
58.3700885038071178
 30
0.0
 11
444.4342788457444726
 21
58.3228743305071191
 31
0.0
  0
ARC
  5
2180
  8
0
 10
444.4736788457444732
 20
58.3700885038071178
 30
0.0
 40
0.0394
 50
89.9999999999934914
 51
180.0000000000102887
  0
ARC
  5
2181
  8
0
 10
489.3021005085573734
 20
34.2189468387215925
 30
0.0
 40
39.7137218619475689
 50
185.631127493658397
 51
187.392006958045414
  0
ARC
  5
2182
  8
0
 10
466.2376379599610914
 20
32.0189287312588533
 30
0.0
 40
16.5448537231579209
 50
185.5816877241435066
 51
185.886584427151206
  0
ARC
  5
2183
  8
0
 10
466.2376379599610914
 20
32.0189287312588533
 30
0.0
 40
16.5448537231579209
 50
180.0169378273947984
 51
183.7964046098360029
  0
ARC
  5
2184
  8
0
 10
461.8382171826725084
 20
31.9932564763027187
 30
0.0
 40
12.1454500016318505
 50
170.7411437552185873
 51
179.9019650512881014
  0
ARC
  5
2185
  8
0
 10
461.1830821687105981
 20
32.3076470910282012
 30
0.0
 40
11.4500997444472397
 50
157.0569940422022057
 51
171.766441472704912
  0
ARC
  5
2186
  8
0
 10
412.9545319990817802
 20
51.8288052228847818
 30
0.0
 40
40.581236464625853
 50
338.2195107738044157
 51
344.0018400847579869
  0
ARC
  5
2187
  8
0
 10
432.0027342831897954
 20
45.8864164033288873
 30
0.0
 40
20.638181226603681
 50
345.2857617564793031
 51
355.4092344468882061
  0
LINE
  5
2188
  8
0
 10
452.5578921606493168
 20
44.3203075856464181
 30
0.0
 11
452.5515412339079262
 21
44.7806333894445672
 31
0.0
  0
ARC
  5
2189
  8
0
 10
452.3449473269866985
 20
44.2340354788328227
 30
0.0
 40
0.2297572166389725
 50
0.1338108814527701
 51
90.346092187339238
  0
LINE
  5
218A
  8
0
 10
452.5747039170456105
 20
45.8772144882071231
 30
0.0
 11
452.5747039170456105
 21
45.5623874291203776
 31
0.0
  0
LINE
  5
218B
  8
0
 10
452.5747039170456105
 20
45.1370570079071101
 30
0.0
 11
452.5747039170456105
 21
44.8347073662784581
 31
0.0
  0
LINE
  5
218C
  8
0
 10
450.170659385731085
 20
44.514969606307119
 30
0.0
 11
450.7700486228322916
 21
44.514969606307119
 31
0.0
  0
LINE
  5
218D
  8
0
 10
450.8074897074315004
 20
44.5378192768545205
 30
0.0
 11
450.9119555931548007
 21
44.741001049651139
 31
0.0
  0
LINE
  5
218E
  8
0
 10
450.0635630120473252
 20
44.6867914918746791
 30
0.0
 11
450.1325190766951891
 21
44.5392447128529483
 31
0.0
  0
ARC
  5
218F
  8
0
 10
450.0013807791394242
 20
44.6488830191601025
 30
0.0
 40
0.0728263852799741
 50
31.3679518190135695
 51
54.8024529199621782
  0
ARC
  5
2190
  8
0
 10
450.0279973074431723
 20
44.6866177828602389
 30
0.0
 40
0.0266489885316829
 50
54.8024529199650772
 51
71.0375965819300603
  0
ARC
  5
2191
  8
0
 10
450.0490028378599732
 20
44.7677185080620674
 30
0.0
 40
0.0572451020732955
 50
242.0863850112473017
 51
257.5452104324753009
  0
ARC
  5
2192
  8
0
 10
450.029071055611098
 20
44.7346505571525768
 30
0.0
 40
0.0188148282694496
 50
191.599820463688701
 51
248.5939988617942902
  0
ARC
  5
2193
  8
0
 10
450.8708751893597082
 20
45.3115197747402974
 30
0.0
 40
0.5664062300089716
 50
274.7178319952731158
 51
281.0874587611237985
  0
ARC
  5
2194
  8
0
 10
450.8397590578078962
 20
44.0109057810011208
 30
0.0
 40
0.7578312957518282
 50
79.3510749596442224
 51
88.1298296811524153
  0
ARC
  5
2195
  8
0
 10
450.5366908989769854
 20
39.1349442388513822
 30
0.0
 40
5.6429182450630204
 50
86.6697856182994144
 51
95.2520971710707585
  0
ARC
  5
2196
  8
0
 10
434.326386096379224
 20
56.564962588704347
 30
0.0
 40
19.6415119342125806
 50
322.9224138744019115
 51
323.0356608607796147
  0
ARC
  5
2197
  8
0
 10
450.0395251502799852
 20
44.7671891395929791
 30
0.0
 40
0.061358828480317
 50
225.8339783762546915
 51
276.3399094793326753
  0
ARC
  5
2198
  8
0
 10
449.9951313416725043
 20
44.7427198604889398
 30
0.0
 40
0.0196137849686667
 50
274.8041914691604006
 51
316.6166594847422857
  0
ARC
  5
2199
  8
0
 10
448.5337824424204882
 20
45.8732781363916615
 30
0.0
 40
1.8671400847233881
 50
322.2137004130582909
 51
323.2060789413658881
  0
ARC
  5
219A
  8
0
 10
450.170659385731085
 20
44.5570696063071168
 30
0.0
 40
0.0421
 50
205.0490602094484132
 51
270.0
  0
ARC
  5
219B
  8
0
 10
450.7700486228322916
 20
44.5570696063071168
 30
0.0
 40
0.0421
 50
270.0
 51
332.7900432601664988
  0
ARC
  5
219C
  8
0
 10
450.9540733538934774
 20
44.708083626068543
 30
0.0
 40
0.0534552387046365
 50
97.4386161518851424
 51
141.9903522609494075
  0
ARC
  5
219D
  8
0
 10
453.3284693851119869
 20
11.4069972002095401
 30
0.0
 40
33.4259925548185208
 50
93.1316809840980966
 51
94.138442695505006
  0
ARC
  5
219E
  8
0
 10
450.0564170989724744
 20
45.176666656793742
 30
0.0
 40
0.4752675595870162
 50
255.7728087954714908
 51
269.4449357057509928
  0
ARC
  5
219F
  8
0
 10
449.9745764186865813
 20
44.8538796661244703
 30
0.0
 40
0.1422670516369872
 50
225.6428727682607871
 51
255.7728087954714908
  0
ARC
  5
21A0
  8
0
 10
449.696821573216198
 20
44.5698208685594324
 30
0.0
 40
0.2550201928806013
 50
45.6428727682608013
 51
56.742284835172569
  0
LINE
  5
21A1
  8
0
 10
452.4845602772167013
 20
44.7616212253977466
 30
0.0
 11
452.4240958512388033
 21
44.7743978039119526
 31
0.0
  0
ARC
  5
21A2
  8
0
 10
452.5000039170456034
 20
44.8347073662784581
 30
0.0
 40
0.0747
 50
258.0684971442203732
 51
0.0000000000006107
  0
LINE
  5
21A3
  8
0
 10
452.5067057344938917
 20
44.7818392767179034
 30
0.0
 11
451.7038650239563253
 21
44.7095196331163791
 31
0.0
  0
ARC
  5
21A4
  8
0
 10
452.5000039170456034
 20
44.8562380377485113
 30
0.0
 40
0.0747
 50
275.1472938300838109
 51
0.0000000000006107
  0
LINE
  5
21A5
  8
0
 10
452.2980076254818869
 20
44.7630398154225801
 30
0.0
 11
452.2554660166900931
 21
44.5803510031067418
 31
0.0
  0
LINE
  5
21A6
  8
0
 10
451.7589136247826218
 20
44.7144783941013131
 30
0.0
 11
451.8328523758806909
 21
44.5672335804644035
 31
0.0
  0
LINE
  5
21A7
  8
0
 10
452.1979060262065104
 20
44.5346546405061616
 30
0.0
 11
451.8856675571665846
 21
44.5346546405061616
 31
0.0
  0
LINE
  5
21A8
  8
0
 10
451.5769855881196122
 20
44.7830718951404805
 30
0.0
 11
451.6279211541552741
 21
44.7355642695933327
 31
0.0
  0
ARC
  5
21A9
  8
0
 10
451.6950369270766146
 20
44.807522820337411
 30
0.0
 40
0.0984
 50
226.9943197039742131
 51
275.1472938300838109
  0
ARC
  5
21AA
  8
0
 10
452.1979060262065104
 20
44.5937546405061624
 30
0.0
 40
0.0591
 50
270.0
 51
346.8914942408067077
  0
ARC
  5
21AB
  8
0
 10
451.8856675571665846
 20
44.5937546405061624
 30
0.0
 40
0.0591
 50
206.6634430238920004
 51
270.0
  0
ARC
  5
21AC
  8
0
 10
450.8612447890574799
 20
43.4341879464508906
 30
0.0
 40
1.471097152832735
 50
122.5606320527126059
 51
135.5821275847858089
  0
ARC
  5
21AD
  8
0
 10
452.4960039170455843
 20
45.8772144882071089
 30
0.0
 40
0.0787
 50
0.0000000000006107
 51
90.0
  0
ARC
  5
21AE
  8
0
 10
452.4960039170455843
 20
45.5623874291203776
 30
0.0
 40
0.0787
 50
270.0
 51
0.0000000000006107
  0
ARC
  5
21AF
  8
0
 10
452.4960039170455843
 20
45.1370570079071101
 30
0.0
 40
0.0787
 50
0.0000000000006107
 51
90.0
  0
LINE
  5
21B0
  8
0
 10
452.5416402916296761
 20
45.4982702604771703
 30
0.0
 11
452.545782804663304
 21
45.1980139791863991
 31
0.0
  0
LINE
  5
21B1
  8
0
 10
452.5354727795429994
 20
45.9453019238554035
 30
0.0
 11
452.3820951265232111
 21
57.2996738160647183
 31
0.0
  0
LINE
  5
21B2
  8
0
 10
452.1456642656418126
 20
44.7493167725523193
 30
0.0
 11
452.1714673940135185
 21
44.5808123909581724
 31
0.0
  0
LINE
  5
21B3
  8
0
 10
452.0595319247860857
 20
44.7415579978520768
 30
0.0
 11
452.0343937402548136
 21
44.5529525398393602
 31
0.0
  0
ARC
  5
21B4
  8
0
 10
452.1120594403035966
 20
44.5948518453070122
 30
0.0
 40
0.0610443383320395
 50
279.5564015860770155
 51
346.7036452883475022
  0
ARC
  5
21B5
  8
0
 10
452.0677184483351994
 20
44.5712088817919394
 30
0.0
 40
0.0379977655938824
 50
208.7153387431910971
 51
254.1563506388953897
  0
LINE
  5
21B6
  8
0
 10
449.6520765782146896
 20
45.2280213790511496
 30
0.0
 11
449.6520765782146896
 21
45.4836874291203372
 31
0.0
  0
LINE
  5
21B7
  8
0
 10
449.6718151380060817
 20
45.2305190509951274
 30
0.0
 11
449.674024504942679
 21
45.4836874291203372
 31
0.0
  0
LINE
  5
21B8
  8
0
 10
449.1381099537069872
 20
45.215757007907122
 30
0.0
 11
449.135771760404225
 21
45.4836874291203372
 31
0.0
  0
LINE
  5
21B9
  8
0
 10
449.119318215844487
 20
45.215757007907122
 30
0.0
 11
449.119318215844487
 21
45.4836874291203372
 31
0.0
  0
LINE
  5
21BA
  8
0
 10
449.7649709054234108
 20
45.4836874291203372
 30
0.0
 11
449.7520222261103982
 21
45.2692592836432297
 31
0.0
  0
ARC
  5
21BB
  8
0
 10
449.6966863549163236
 20
45.3009826465059433
 30
0.0
 40
0.063784248777639
 50
285.4609605306296203
 51
330.1748920859994882
  0
ARC
  5
21BC
  8
0
 10
449.6159231269564884
 20
45.5929778800114818
 30
0.0
 40
0.3667428521881207
 50
271.402605172948995
 51
285.4609605306296203
  0
ARC
  5
21BD
  8
0
 10
449.5205523295999228
 20
45.7156853760372783
 30
0.0
 40
0.5003424345833987
 50
272.3311431312782815
 51
282.0375536153213147
  0
LINE
  5
21BE
  8
0
 10
449.6726740968293257
 20
45.3289459843071114
 30
0.0
 11
449.6520765782146896
 21
45.3289459843071114
 31
0.0
  0
LINE
  5
21BF
  8
0
 10
449.6723320233853087
 20
45.289748249607122
 30
0.0
 11
449.6520765782146896
 21
45.289748249607122
 31
0.0
  0
LINE
  5
21C0
  8
0
 10
449.1371221685001274
 20
45.3289459843071114
 30
0.0
 11
449.119318215844487
 21
45.3289459843071185
 31
0.0
  0
LINE
  5
21C1
  8
0
 10
449.1374642419422116
 20
45.2897482493071166
 30
0.0
 11
449.119318215844487
 21
45.2897482493071166
 31
0.0
  0
LINE
  5
21C2
  8
0
 10
450.2514703687443216
 20
45.28268614170711
 30
0.0
 11
450.8677019061520923
 21
45.2826861417071314
 31
0.0
  0
LINE
  5
21C3
  8
0
 10
450.169671085225275
 20
45.3806677594526988
 30
0.0
 11
450.2131288579763009
 21
45.3048959495291825
 31
0.0
  0
LINE
  5
21C4
  8
0
 10
450.9020229853592241
 20
45.2990346871299678
 30
0.0
 11
451.0360429498953749
 21
45.464186198532218
 31
0.0
  0
ARC
  5
21C5
  8
0
 10
450.6762280490174817
 20
40.6993886577206823
 30
0.0
 40
4.778363984442513
 50
84.9750754209175625
 51
96.9987933764298162
  0
ARC
  5
21C6
  8
0
 10
449.9674853524725791
 20
45.4357405338188372
 30
0.0
 40
0.1266686434373328
 50
347.3531927630791074
 51
2.8993801507724499
  0
ARC
  5
21C7
  8
0
 10
450.1610614012406018
 20
45.519494173072232
 30
0.0
 40
0.1316302840322495
 50
237.8833167554018928
 51
271.3799879878828847
  0
ARC
  5
21C8
  8
0
 10
450.1164523538855065
 20
45.3463136931424629
 30
0.0
 40
0.0633437860998227
 50
32.843287776167827
 51
55.7675077798177767
  0
ARC
  5
21C9
  8
0
 10
450.155223730570583
 20
45.4417793241261521
 30
0.0
 40
0.0432094522162707
 50
196.0075007423261013
 51
265.8364289243456255
  0
ARC
  5
21CA
  8
0
 10
450.0667506195221108
 20
45.4371748572228995
 30
0.0
 40
0.0475050469733617
 50
351.1468933007594728
 51
8.8531066992514234
  0
ARC
  5
21CB
  8
0
 10
450.157406974507694
 20
45.6912354597015025
 30
0.0
 40
0.3070807747339045
 50
237.9910586391389131
 51
271.8155153445508176
  0
ARC
  5
21CC
  8
0
 10
448.9585766433935987
 20
43.4673195463274809
 30
0.0
 40
2.2200996857851161
 50
62.1814184970694868
 51
65.2623012793115294
  0
ARC
  5
21CD
  8
0
 10
450.2514703687443216
 20
45.3268861417071065
 30
0.0
 40
0.0442
 50
209.8357730588114975
 51
270.0
  0
ARC
  5
21CE
  8
0
 10
450.8677019061520923
 20
45.3268861417071278
 30
0.0
 40
0.0442
 50
270.0000000000032969
 51
320.9407721528089041
  0
ARC
  5
21CF
  8
0
 10
450.9978096212738023
 20
45.7667161288781728
 30
0.0
 40
0.3218455923150965
 50
274.1409456060698062
 51
287.35590309861999
  0
ARC
  5
21D0
  8
0
 10
452.7392734905135967
 20
29.0994507847874608
 30
0.0
 40
16.4328711365032909
 50
94.4092047571023727
 51
96.0126019942778441
  0
ARC
  5
21D1
  8
0
 10
452.6024580708505027
 20
53.8193266629032507
 30
0.0
 40
8.6182416432162992
 50
258.9591208475447957
 51
266.6562452678863906
  0
LINE
  5
21D2
  8
0
 10
452.4893949825664095
 20
57.4313357919506871
 30
0.0
 11
452.395500588180596
 21
58.2187578391506975
 31
0.0
  0
ARC
  5
21D3
  8
0
 10
452.3721257560575282
 20
57.4173522833071104
 30
0.0
 40
0.1181
 50
270.0
 51
6.7999999934426887
  0
ARC
  5
21D4
  8
0
 10
452.278231361671601
 20
58.2047743305071208
 30
0.0
 40
0.1181
 50
6.7999999934424871
 51
90.0
  0
ARC
  5
21D5
  8
0
 10
449.7334137404822059
 20
30.1708148642682517
 30
0.0
 40
0.0200001297408256
 50
297.7763682858949892
 51
353.0692499685927146
  0
ARC
  5
21D6
  8
0
 10
447.3430489239461849
 20
30.4691473760691487
 30
0.0
 40
2.42890979066566
 50
352.8874227998210813
 51
17.5293499584209691
  0
ARC
  5
21D7
  8
0
 10
449.6400737194614976
 20
31.1947669878421614
 30
0.0
 40
0.0200000614081502
 50
17.3200094074771584
 51
71.8257679615459352
  0
ARC
  5
21D8
  8
0
 10
477.7897674355155004
 20
32.9621058719153908
 30
0.0
 40
28.1977086079395711
 50
183.5547782466672118
 51
185.7226280751521017
  0
LINE
  5
21D9
  8
0
 10
449.7325886623040105
 20
30.1504355451666797
 30
0.0
 11
449.7427342360276725
 21
30.1531192842428908
 31
0.0
  0
LINE
  5
21DA
  8
0
 10
446.3240426252444877
 20
58.3700885038071178
 30
0.0
 11
446.3240426252444877
 21
58.3228743305071191
 31
0.0
  0
ARC
  5
21DB
  8
0
 10
446.2846426252444871
 20
58.3700885038071178
 30
0.0
 40
0.0394
 50
359.9999999999895977
 51
90.0000000000065086
  0
ENDSEC
  0
EOF
