  0
SECTION
  2
HEADER
  9
$ACADVER
  1
AC1009
  9
$INSBASE
 10
4441.7307294375186757
 20
614.6478507563933817
 30
0.0
  9
$EXTMIN
 10
4434.5300711289955871
 20
586.8288507563931944
 30
0.0
  9
$EXTMAX
 10
4448.9313877460417643
 20
614.6529216576768704
 30
0.0
  9
$LIMMIN
 10
0.0
 20
0.0
  9
$LIMMAX
 10
11.6929133858000007
 20
8.2677165353999982
  9
$ORTHOMODE
 70
     0
  9
$REGENMODE
 70
     1
  9
$FILLMODE
 70
     1
  9
$QTEXTMODE
 70
     0
  9
$MIRRTEXT
 70
     0
  9
$DRAGMODE
 70
     2
  9
$LTSCALE
 40
0.6431102362
  9
$OSMODE
 70
  4095
  9
$ATTMODE
 70
     1
  9
$TEXTSIZE
 40
0.2
  9
$TRACEWID
 40
0.05
  9
$TEXTSTYLE
  7
STANDARD
  9
$CLAYER
  8
0
  9
$CELTYPE
  6
BYLAYER
  9
$CECOLOR
 62
   256
  9
$DIMSCALE
 40
1.0
  9
$DIMASZ
 40
0.1875
  9
$DIMEXO
 40
0.0625
  9
$DIMDLI
 40
0.4443307087
  9
$DIMRND
 40
0.0
  9
$DIMDLE
 40
0.0
  9
$DIMEXE
 40
0.125
  9
$DIMTP
 40
0.01
  9
$DIMTM
 40
0.01
  9
$DIMTXT
 40
2.0
  9
$DIMCEN
 40
0.1052362205
  9
$DIMTSZ
 40
0.0
  9
$DIMTOL
 70
     1
  9
$DIMLIM
 70
     0
  9
$DIMTIH
 70
     1
  9
$DIMTOH
 70
     1
  9
$DIMSE1
 70
     0
  9
$DIMSE2
 70
     0
  9
$DIMTAD
 70
     0
  9
$DIMZIN
 70
     0
  9
$DIMBLK
  1

  9
$DIMASO
 70
     1
  9
$DIMSHO
 70
     1
  9
$DIMPOST
  1
\X
  9
$DIMAPOST
  1

  9
$DIMALT
 70
     1
  9
$DIMALTD
 70
     2
  9
$DIMALTF
 40
25.3999999999999986
  9
$DIMLFAC
 40
1.0
  9
$DIMTOFL
 70
     0
  9
$DIMTVP
 40
0.0
  9
$DIMTIX
 70
     0
  9
$DIMSOXD
 70
     0
  9
$DIMSAH
 70
     0
  9
$DIMBLK1
  1

  9
$DIMBLK2
  1

  9
$DIMSTYLE
  2
STANDARD
  9
$DIMCLRD
 70
     0
  9
$DIMCLRE
 70
     0
  9
$DIMCLRT
 70
     0
  9
$DIMTFAC
 40
1.0
  9
$DIMGAP
 40
0.09
  9
$LUNITS
 70
     2
  9
$LUPREC
 70
     4
  9
$SKETCHINC
 40
0.1
  9
$FILLETRAD
 40
0.0
  9
$AUNITS
 70
     0
  9
$AUPREC
 70
     0
  9
$MENU
  1
.
  9
$ELEVATION
 40
0.0
  9
$PELEVATION
 40
0.0
  9
$THICKNESS
 40
0.0
  9
$LIMCHECK
 70
     0
  9
$BLIPMODE
 70
     0
  9
$CHAMFERA
 40
0.0
  9
$CHAMFERB
 40
0.0
  9
$SKPOLY
 70
     0
  9
$TDCREATE
 40
2458060.468368056230247
  9
$TDUPDATE
 40
2459951.5301041668280959
  9
$TDINDWG
 40
0.3088033565
  9
$TDUSRTIMER
 40
0.3088033565
  9
$USRTIMER
 70
     1
  9
$ANGBASE
 50
0.0
  9
$ANGDIR
 70
     0
  9
$PDMODE
 70
     0
  9
$PDSIZE
 40
0.3125
  9
$PLINEWID
 40
0.0
  9
$COORDS
 70
     1
  9
$SPLFRAME
 70
     0
  9
$SPLINETYPE
 70
     6
  9
$SPLINESEGS
 70
     8
  9
$ATTDIA
 70
     1
  9
$ATTREQ
 70
     1
  9
$HANDLING
 70
     1
  9
$HANDSEED
  5
8FC0
  9
$SURFTAB1
 70
     6
  9
$SURFTAB2
 70
     6
  9
$SURFTYPE
 70
     6
  9
$SURFU
 70
     6
  9
$SURFV
 70
     6
  9
$UCSNAME
  2

  9
$UCSORG
 10
0.0
 20
0.0
 30
0.0
  9
$UCSXDIR
 10
1.0
 20
0.0
 30
0.0
  9
$UCSYDIR
 10
0.0
 20
1.0
 30
0.0
  9
$PUCSNAME
  2

  9
$PUCSORG
 10
0.0
 20
0.0
 30
0.0
  9
$PUCSXDIR
 10
1.0
 20
0.0
 30
0.0
  9
$PUCSYDIR
 10
0.0
 20
1.0
 30
0.0
  9
$USERI1
 70
     0
  9
$USERI2
 70
     0
  9
$USERI3
 70
     0
  9
$USERI4
 70
     0
  9
$USERI5
 70
     0
  9
$USERR1
 40
0.0
  9
$USERR2
 40
0.0
  9
$USERR3
 40
0.0
  9
$USERR4
 40
0.0
  9
$USERR5
 40
0.0
  9
$WORLDVIEW
 70
     1
  9
$SHADEDGE
 70
     3
  9
$SHADEDIF
 70
    70
  9
$TILEMODE
 70
     1
  9
$MAXACTVP
 70
    64
  9
$PLIMCHECK
 70
     0
  9
$PEXTMIN
 10
1.0000000000000000E+20
 20
1.0000000000000000E+20
 30
1.0000000000000000E+20
  9
$PEXTMAX
 10
-1.0000000000000000E+20
 20
-1.0000000000000000E+20
 30
-1.0000000000000000E+20
  9
$PLIMMIN
 10
0.0
 20
0.0
  9
$PLIMMAX
 10
12.0
 20
9.0
  9
$UNITMODE
 70
     0
  9
$VISRETAIN
 70
     1
  9
$PLINEGEN
 70
     0
  9
$PSLTSCALE
 70
     1
  0
ENDSEC
  0
SECTION
  2
TABLES
  0
TABLE
  2
VPORT
 70
     1
  0
VPORT
  2
*ACTIVE
 70
     0
 10
0.0
 20
0.0
 11
1.0
 21
1.0
 12
962.5819213375900745
 22
426.9835353284761936
 13
0.0
 23
0.0
 14
1.0
 24
1.0
 15
0.0
 25
0.0
 16
0.0
 26
0.0
 36
199.3126279314143119
 17
3491.9166259765629547
 27
176.9519653320311932
 37
0.0
 40
44.5880381371775627
 41
2.498684210526315
 42
50.0
 43
0.0
 44
0.0
 50
0.0
 51
0.0
 71
     0
 72
   100
 73
     1
 74
     1
 75
     0
 76
     0
 77
     0
 78
     0
  0
ENDTAB
  0
TABLE
  2
LTYPE
 70
     2
  0
LTYPE
  2
CONTINUOUS
 70
     0
  3
Solid line
 72
    65
 73
     0
 40
0.0
  0
LTYPE
  2
PHANTOM2
 70
     0
  3
___ _ _ ___ _ _ ___ _ _ ___ _ _
 72
    65
 73
     6
 40
1.25
 49
0.625
 49
-0.125
 49
0.125
 49
-0.125
 49
0.125
 49
-0.125
  0
ENDTAB
  0
TABLE
  2
LAYER
 70
     2
  0
LAYER
  2
0
 70
     0
 62
   255
  6
CONTINUOUS
  0
LAYER
  2
DEFPOINTS
 70
     0
 62
     7
  6
CONTINUOUS
  0
ENDTAB
  0
TABLE
  2
STYLE
 70
     1
  0
STYLE
  2
STANDARD
 70
     0
 40
0.0
 41
0.8
 50
0.0
 71
     0
 42
0.2
  3
txt
  4

  0
ENDTAB
  0
TABLE
  2
VIEW
 70
     0
  0
ENDTAB
  0
TABLE
  2
UCS
 70
     0
  0
ENDTAB
  0
TABLE
  2
APPID
 70
     9
  0
APPID
  2
ACAD
 70
     0
  0
APPID
  2
ACAD_MLEADERVER
 70
     0
  0
APPID
  2
ACAD_EXEMPT_FROM_CAD_STANDARDS
 70
     0
  0
APPID
  2
ACAD_NAV_VCDISPLAY
 70
     0
  0
APPID
  2
ACAECLAYERSTANDARD
 70
     0
  0
APPID
  2
ACCMTRANSPARENCY
 70
     0
  0
APPID
  2
ACAD_DSTYLE_DIMJAG
 70
     0
  0
APPID
  2
ACAD_DSTYLE_DIMTALN
 70
     0
  0
APPID
  2
ACDBATTR
 70
     0
  0
ENDTAB
  0
TABLE
  2
DIMSTYLE
 70
     1
  0
DIMSTYLE
  2
STANDARD
 70
     0
  3

  4

  5

  6

  7

 40
1.0
 41
0.1875
 42
0.0625
 43
0.38
 44
0.125
 45
0.0
 46
0.0
 47
0.01
 48
0.01
140
0.15625
141
0.09
142
0.0
143
25.3999999999999986
144
1.0
145
0.0
146
1.0
147
0.09
 71
     1
 72
     0
 73
     1
 74
     1
 75
     0
 76
     0
 77
     0
 78
     4
170
     0
171
     2
172
     0
173
     0
174
     0
175
     0
176
     0
177
     0
178
     0
  0
ENDTAB
  0
ENDSEC
  0
SECTION
  2
BLOCKS
  0
BLOCK
  8
0
  2
$MODEL_SPACE
 70
     0
 10
0.0
 20
0.0
 30
0.0
  3
$MODEL_SPACE
  1

  0
ENDBLK
  5
21
  8
0
  0
BLOCK
 67
     1
  8
0
  2
$PAPER_SPACE
 70
     0
 10
0.0
 20
0.0
 30
0.0
  3
$PAPER_SPACE
  1

  0
ENDBLK
  5
1D
 67
     1
  8
0
  0
BLOCK
  8
0
  2
_FILLED
 70
     0
 10
0.0
 20
0.0
 30
0.0
  3
_FILLED
  1

  0
SOLID
  5
8323
  8
0
  6
BYBLOCK
 62
     0
 10
0.0
 20
0.0
 30
0.0
 11
-1.0
 21
0.1666666667
 31
0.0
 12
-1.0
 22
-0.1666666667
 32
0.0
 13
-1.0
 23
-0.1666666667
 33
0.0
  0
ENDBLK
  5
8324
  8
0
  6
BYBLOCK
 62
     0
  0
BLOCK
  8
0
  2
*U3
 70
     1
 10
0.0
 20
0.0
 30
0.0
  3
*U3
  1

  0
TEXT
  5
8FB9
  8
0
 62
     0
 10
4489.7251512605143944
 20
562.7964113807204285
 30
0.0
 40
0.15625
  1
.980±.010
 41
0.8
  0
ENDBLK
  5
8FBB
  8
0
  0
BLOCK
  8
0
  2
*U4
 70
     1
 10
0.0
 20
0.0
 30
0.0
  3
*U4
  1

  0
TEXT
  5
8FBD
  8
0
 62
     0
 10
4428.7312262650229968
 20
614.0797257563922358
 30
0.0
 40
0.15625
  1
.980±.010
 41
0.8
  0
ENDBLK
  5
8FBF
  8
0
  0
ENDSEC
  0
SECTION
  2
ENTITIES
  0
LINE
  5
8D73
  8
0
 10
4434.9411672331198133
 20
613.6678507563932499
 30
0.0
 11
4448.5202916419184476
 21
613.6678507563932499
 31
0.0
  0
ARC
  5
8D75
  8
0
 10
4434.9424400280149712
 20
613.2707109656537341
 30
0.0
 40
0.3971418303271086
 50
90.1836268429049852
 51
174.0127786895426993
  0
ARC
  5
8D76
  8
0
 10
4441.7320421166914457
 20
680.609677342502323
 30
0.0
 40
72.8610163970090099
 50
265.3268996981501004
 51
269.9989679306519861
  0
ARC
  5
8D77
  8
0
 10
4436.0305462456990426
 20
609.4557985013784673
 30
0.0
 40
1.4835846293034489
 50
181.4919075605328089
 51
260.9041753071848007
  0
ARC
  5
8D78
  8
0
 10
4438.9085023066099893
 20
608.850298053321012
 30
0.0
 40
4.4210679398929349
 50
170.5473963090221048
 51
171.3753141611421995
  0
LINE
  5
8D79
  8
0
 10
4434.8577862722240752
 20
605.203283769993277
 30
0.0
 11
4437.389023910576725
 21
605.203283769993277
 31
0.0
  0
LINE
  5
8D7A
  8
0
 10
4434.5374284126510247
 20
609.513287301122773
 30
0.0
 11
4434.5476580075883248
 21
603.8460904353174783
 31
0.0
  0
LINE
  5
8D7B
  8
0
 10
4434.5655540428024324
 20
604.9253495153647009
 30
0.0
 11
4434.5515429639908689
 21
604.6461622872933503
 31
0.0
  0
ARC
  5
8D7C
  8
0
 10
4434.8577862722240752
 20
604.9106837699931702
 30
0.0
 40
0.2926
 50
90.0
 51
177.1270077122526914
  0
ARC
  5
8D7D
  8
0
 10
4441.7197070357506163
 20
593.2887439239285641
 30
0.0
 40
6.4665575259658468
 50
262.1839142237798796
 51
267.3985377018984764
  0
ARC
  5
8D7E
  8
0
 10
4441.6332006054772137
 20
592.5762962023333102
 30
0.0
 40
5.7489752085861676
 50
246.0442746235368929
 51
262.0724350022612157
  0
ARC
  5
8D7F
  8
0
 10
4441.7130959678343061
 20
592.7458443337236531
 30
0.0
 40
5.9363598034916194
 50
223.9613789394691992
 51
246.0040135822374054
  0
ARC
  5
8D80
  8
0
 10
4442.6924305735319649
 20
593.6276893670423078
 30
0.0
 40
7.2535858913001299
 50
207.8282078553685039
 51
223.6053787675018896
  0
ARC
  5
8D81
  8
0
 10
4446.8506697170578263
 20
595.9328525457499381
 30
0.0
 40
12.0074261487163199
 50
192.8813163121936896
 51
208.2930529291996891
  0
ARC
  5
8D82
  8
0
 10
4457.9428927004119032
 20
598.4426738974968885
 30
0.0
 40
23.3800363415514596
 50
183.8444490487669043
 51
192.8172198688527885
  0
ARC
  5
8D83
  8
0
 10
4464.8343157690160297
 20
599.0213059851569142
 30
0.0
 40
30.2949674252198804
 50
182.4585131310209931
 51
184.0624634847148116
  0
ARC
  5
8D84
  8
0
 10
4406.8253796882418101
 20
604.3807485065932497
 30
0.0
 40
27.72743360768294
 50
358.732004625293996
 51
0.5484576003540733
  0
ARC
  5
8D85
  8
0
 10
4332.9748926886377376
 20
603.219475924533981
 30
0.0
 40
101.5726075247001035
 50
358.9385664139308005
 51
0.3089492620975363
  0
ARC
  5
8D86
  8
0
 10
4411.5710007465104354
 20
597.1745710557602251
 30
0.0
 40
23.002742296598651
 50
1.3631137078964921
 51
3.5311622392060422
  0
LINE
  5
8D87
  8
0
 10
4437.4329472346580587
 20
605.1829808510218527
 30
0.0
 11
4437.4365501196107289
 21
605.0687636287641453
 31
0.0
  0
ARC
  5
8D88
  8
0
 10
4437.3848326753350193
 20
605.136553146464621
 30
0.0
 40
0.0668621161000163
 50
43.9778179549960981
 51
86.4060719294462558
  0
LINE
  5
8D89
  8
0
 10
4437.521618292952553
 20
605.0407375040933857
 30
0.0
 11
4445.9398405820838889
 21
605.0407375040933857
 31
0.0
  0
ARC
  5
8D8A
  8
0
 10
4437.4553129618270759
 20
605.075278519568883
 30
0.0
 40
0.0198617232443865
 50
199.1481784309600869
 51
242.7280706729800954
  0
ARC
  5
8D8B
  8
0
 10
4437.5133379343587876
 20
605.1938966853784905
 30
0.0
 40
0.1519077680681567
 50
243.7757314156403936
 51
266.3051210675321272
  0
ARC
  5
8D8C
  8
0
 10
4437.6379687611479312
 20
606.487236757846631
 30
0.0
 40
1.4511710865910421
 50
264.6851418019768971
 51
265.4012632407449814
  0
LINE
  5
8D8D
  8
0
 10
4437.4551392362900515
 20
605.1638837699932765
 30
0.0
 11
4437.4551392362900515
 21
605.0535796103571329
 31
0.0
  0
LINE
  5
8D8E
  8
0
 10
4437.4945392362906205
 20
605.2032837699933907
 30
0.0
 11
4437.9669502599899715
 21
605.2032837699930496
 31
0.0
  0
LINE
  5
8D8F
  8
0
 10
4437.9669502599899715
 20
605.0407375040933857
 30
0.0
 11
4437.9669502599899715
 21
605.2032837699930496
 31
0.0
  0
ARC
  5
8D90
  8
0
 10
4437.4945392362906205
 20
605.1638837699932765
 30
0.0
 40
0.0394
 50
89.9999999999478888
 51
180.0
  0
LINE
  5
8D91
  8
0
 10
4438.0299163563331604
 20
605.0458034542929227
 30
0.0
 11
4445.4315425187051005
 21
605.045803454300426
 31
0.0
  0
ARC
  5
8D92
  8
0
 10
4438.0299424317790908
 20
605.0064332629599448
 30
0.0
 40
0.039370199967978
 50
90.0379478163496287
 51
119.3870151099081056
  0
LINE
  5
8D93
  8
0
 10
4439.021363289247347
 20
605.0819948815933458
 30
0.0
 11
4444.4400955857918234
 21
605.0819948815933458
 31
0.0
  0
ARC
  5
8D94
  8
0
 10
4439.0425438246556951
 20
603.7106678659404224
 30
0.0
 40
1.3714905755926881
 50
90.8848792346003336
 51
103.2216986641348058
  0
LINE
  5
8D99
  8
0
 10
4434.5474645334434172
 20
613.3121355004418547
 30
0.0
 11
4434.5474645334434172
 21
609.4171722528765258
 31
0.0
  0
ARC
  5
8D9A
  8
0
 10
4448.5190193159523915
 20
613.2707109670700447
 30
0.0
 40
0.3971418274081899
 50
5.987221149168362
 51
89.8164408086859822
  0
ARC
  5
8D9B
  8
0
 10
4441.7294172244901347
 20
680.609677342502323
 30
0.0
 40
72.8610163970090099
 50
270.0010320693480139
 51
274.6731003018500132
  0
ARC
  5
8D9C
  8
0
 10
4447.4309130954807188
 20
609.4557985013784673
 30
0.0
 40
1.4835846293034489
 50
279.0958246928151993
 51
358.5080924394607109
  0
ARC
  5
8D9D
  8
0
 10
4444.5529570345715911
 20
608.850298053321012
 30
0.0
 40
4.4210679398929349
 50
8.6246858388577312
 51
9.4526036909778757
  0
LINE
  5
8D9E
  8
0
 10
4448.6036730689584147
 20
605.203283769993277
 30
0.0
 11
4446.0724354306048554
 21
605.203283769993277
 31
0.0
  0
LINE
  5
8D9F
  8
0
 10
4448.9240309285296462
 20
609.513287301122773
 30
0.0
 11
4448.9138013335932555
 21
603.8460904353174783
 31
0.0
  0
LINE
  5
8DA0
  8
0
 10
4448.895905298379148
 20
604.9253495153647009
 30
0.0
 11
4448.9099163771907115
 21
604.6461622872933503
 31
0.0
  0
ARC
  5
8DA1
  8
0
 10
4448.6036730689584147
 20
604.9106837699931702
 30
0.0
 40
0.2926
 50
2.8729922877472802
 51
90.0
  0
ARC
  5
8DA2
  8
0
 10
4441.7415904117124228
 20
593.2905223862784396
 30
0.0
 40
6.4683414829073991
 50
272.6021757071197271
 51
277.8153641245941117
  0
ARC
  5
8DA3
  8
0
 10
4441.8282587357043667
 20
592.5762962023333102
 30
0.0
 40
5.7489752085861676
 50
277.9275649977387843
 51
293.9557253764631923
  0
ARC
  5
8DA4
  8
0
 10
4441.7483633733472743
 20
592.7458443337236531
 30
0.0
 40
5.9363598034916194
 50
293.9959864177627082
 51
316.0386210605307724
  0
ARC
  5
8DA5
  8
0
 10
4440.769028767648706
 20
593.6276893670423078
 30
0.0
 40
7.2535858913001299
 50
316.394621232498082
 51
332.1717921446314108
  0
ARC
  5
8DA6
  8
0
 10
4436.6107896241246635
 20
595.9328525457499381
 30
0.0
 40
12.0074261487163199
 50
331.7069470708001973
 51
347.1186836878063104
  0
ARC
  5
8DA7
  8
0
 10
4425.5185666407696772
 20
598.4426738974968885
 30
0.0
 40
23.3800363415514596
 50
347.1827801311471831
 51
356.1555509512331241
  0
ARC
  5
8DA8
  8
0
 10
4418.6271435721646412
 20
599.0213059851566868
 30
0.0
 40
30.2949674252198804
 50
355.9375365152852169
 51
357.5414868689790069
  0
ARC
  5
8DA9
  8
0
 10
4476.6360796529397703
 20
604.3807485065932497
 30
0.0
 40
27.72743360768294
 50
179.4515423996458878
 51
181.2679953747058903
  0
ARC
  5
8DAA
  8
0
 10
4550.4898256056467289
 20
603.2194778376723434
 30
0.0
 40
101.5758664201125043
 50
179.6910617292905101
 51
181.0614006071349991
  0
ARC
  5
8DAB
  8
0
 10
4471.8917571281217533
 20
597.174527869034705
 30
0.0
 40
23.0040414899340107
 50
176.4689296731548893
 51
178.6368556959507998
  0
LINE
  5
8DAC
  8
0
 10
4446.0285121065217027
 20
605.1829808510218527
 30
0.0
 11
4446.0249092215708515
 21
605.0687636287641453
 31
0.0
  0
ARC
  5
8DAD
  8
0
 10
4446.0766266658456516
 20
605.136553146464621
 30
0.0
 40
0.0668621161000163
 50
93.5939280705537442
 51
136.0221820450038877
  0
ARC
  5
8DAE
  8
0
 10
4446.006146379353595
 20
605.075278519568883
 30
0.0
 40
0.0198617232443865
 50
297.2719293270197909
 51
340.8518215690398847
  0
ARC
  5
8DAF
  8
0
 10
4445.9481214068209738
 20
605.1938966853784905
 30
0.0
 40
0.1519077680681567
 50
273.6948789324678728
 51
296.2242685843594927
  0
ARC
  5
8DB0
  8
0
 10
4445.8235761841997373
 20
606.4862843084099495
 30
0.0
 40
1.4502148026019559
 50
274.5983642444837187
 51
275.3149762540787151
  0
LINE
  5
8DB1
  8
0
 10
4446.0063201048897099
 20
605.1638837699932765
 30
0.0
 11
4446.0063201048897099
 21
605.0535796103571329
 31
0.0
  0
LINE
  5
8DB2
  8
0
 10
4445.9669201048909599
 20
605.2032837699933907
 30
0.0
 11
4445.4945090811906994
 21
605.2032837699930496
 31
0.0
  0
LINE
  5
8DB3
  8
0
 10
4445.4945090811906994
 20
605.0407375040933857
 30
0.0
 11
4445.4945090811906994
 21
605.2032837699930496
 31
0.0
  0
ARC
  5
8DB4
  8
0
 10
4445.9669201048909599
 20
605.1638837699932765
 30
0.0
 40
0.0394
 50
0.0
 51
90.0000000000521254
  0
ARC
  5
8DB5
  8
0
 10
4445.431542776623246
 20
605.0065317755700107
 30
0.0
 40
0.0392716787313204
 50
60.5753408204463071
 51
90.0003762929180482
  0
ARC
  5
8DB6
  8
0
 10
4444.4189156261081735
 20
603.710668478813659
 30
0.0
 40
1.3714899539014389
 50
76.7782999364527114
 51
89.1151444188551665
  0
LINE
  5
8DB7
  8
0
 10
4448.9139948077390727
 20
613.3121355004418547
 30
0.0
 11
4448.9139948077390727
 21
609.4171722528765258
 31
0.0
  0
CIRCLE
  5
8E09
  8
0
 10
4441.7307295551399875
 20
610.9119451032934194
 30
0.0
 40
0.9448818898000004
  0
ARC
  5
8E0A
  8
0
 10
4441.7307295551399875
 20
610.9119451032934194
 30
0.0
 40
0.6822648631999968
 50
197.0801574782622936
 51
197.078261392224789
  0
ARC
  5
8E0B
  8
0
 10
4441.7307295550890558
 20
610.9119451032934194
 30
0.0
 40
0.6692913385999973
 50
277.4943510984145973
 51
82.5067431815579369
  0
ARC
  5
8E0C
  8
0
 10
4441.7307295550890558
 20
610.9119451032934194
 30
0.0
 40
0.6692913385999973
 50
86.7307093080694784
 51
273.2692907166712075
  0
ARC
  5
8E0D
  8
0
 10
4441.8987071912388274
 20
610.2850440306033306
 30
0.0
 40
0.0333271255099494
 50
231.3139199576289116
 51
280.9796381773397229
  0
ARC
  5
8E0E
  8
0
 10
4441.8987071912288229
 20
610.2850440306001474
 30
0.0
 40
0.0333271255126645
 50
289.0203618918988013
 51
338.6860800681996011
  0
ARC
  5
8E0F
  8
0
 10
4441.8160913019255531
 20
610.2704497773640924
 30
0.0
 40
0.0221631876293191
 50
183.4082402072033062
 51
275.003196397094996
  0
ARC
  5
8E10
  8
0
 10
4441.7618107204007174
 20
610.2612803032594684
 30
0.0
 40
0.0189154249636605
 50
292.0064042699244169
 51
336.6957676041058107
  0
ARC
  5
8E11
  8
0
 10
4441.7618108275282793
 20
611.5626100357718542
 30
0.0
 40
0.0189152619277436
 50
356.4257726650154723
 51
67.9937471433967744
  0
ARC
  5
8E12
  8
0
 10
4441.8162990477248968
 20
611.5532003468126732
 30
0.0
 40
0.0223860866634296
 50
85.6127774936754946
 51
175.9970287662152089
  0
ARC
  5
8E13
  8
0
 10
4438.0799926177251109
 20
610.9217541093150885
 30
0.0
 40
3.7675337195446459
 50
7.832801158692531
 51
9.6725317540210227
  0
ARC
  5
8E14
  8
0
 10
4438.3408416706379285
 20
610.9508923375024096
 30
0.0
 40
3.5051537259288752
 50
6.1296373720456803
 51
7.9420402135064014
  0
ARC
  5
8E15
  8
0
 10
4438.3596824082260355
 20
610.9436833672766625
 30
0.0
 40
3.487202547972228
 50
3.2320451601601201
 51
6.2804601171843988
  0
ARC
  5
8E16
  8
0
 10
4437.3564290489366613
 20
610.8789223665904728
 30
0.0
 40
4.4925186322344901
 50
358.8251243656422957
 51
3.335281122750053
  0
ARC
  5
8E17
  8
0
 10
4438.6842650397156831
 20
610.8840448342742775
 30
0.0
 40
3.1652321152332989
 50
353.0079841866648849
 51
358.2395751544609084
  0
ARC
  5
8E18
  8
0
 10
4437.9949569479767888
 20
610.9154704860494576
 30
0.0
 40
3.8536000019545611
 50
350.3445298158674746
 51
353.7918296687801103
  0
LINE
  5
8E19
  8
0
 10
4441.7820892310992349
 20
611.5532723136395816
 30
0.0
 11
4441.7944105757278521
 21
611.5521662640353497
 31
0.0
  0
LINE
  5
8E1A
  8
0
 10
4441.7841183015116258
 20
611.5412540814880913
 30
0.0
 11
4441.7964541005858337
 21
611.5400855592438347
 31
0.0
  0
LINE
  5
8E1B
  8
0
 10
4441.7974442698086932
 20
611.4555753284749926
 30
0.0
 11
4441.8095190047388314
 21
611.4555753475932534
 31
0.0
  0
LINE
  5
8E1C
  8
0
 10
4441.8003200659832146
 20
611.4352039350666246
 30
0.0
 11
4441.8123751819421159
 21
611.435203933768662
 31
0.0
  0
LINE
  5
8E1D
  8
0
 10
4441.8008130295565934
 20
611.4316301425933489
 30
0.0
 11
4441.8128718843818206
 21
611.4316301425933489
 31
0.0
  0
LINE
  5
8E1E
  8
0
 10
4441.7951463877398055
 20
611.4710002213934104
 30
0.0
 11
4441.8072640399386728
 21
611.4710002213934104
 31
0.0
  0
LINE
  5
8E1F
  8
0
 10
4441.7940177142800167
 20
611.4788742370933505
 30
0.0
 11
4441.8061068794104358
 21
611.4788742370933505
 31
0.0
  0
LINE
  5
8E20
  8
0
 10
4441.8269610940587881
 20
611.1796616386933465
 30
0.0
 11
4441.8388961937416752
 21
611.1796616386933465
 31
0.0
  0
LINE
  5
8E21
  8
0
 10
4441.8272107342991148
 20
611.1760878476306971
 30
0.0
 11
4441.8391367092708606
 21
611.1760887602746379
 31
0.0
  0
LINE
  5
8E22
  8
0
 10
4441.8283431624940931
 20
611.1557162689515508
 30
0.0
 11
4441.8404355354914514
 21
611.1557239559779191
 31
0.0
  0
LINE
  5
8E23
  8
0
 10
4441.8293751755318226
 20
611.1402915599933294
 30
0.0
 11
4441.8413381679392842
 21
611.1402915599933294
 31
0.0
  0
LINE
  5
8E24
  8
0
 10
4441.7841183015116258
 20
610.2826361250984064
 30
0.0
 11
4441.7964516432339224
 21
610.2838043902263507
 31
0.0
  0
LINE
  5
8E25
  8
0
 10
4441.7820892310992349
 20
610.2706178929471434
 30
0.0
 11
4441.7944106495060623
 21
610.2717239498898607
 31
0.0
  0
LINE
  5
8E26
  8
0
 10
4441.7939146926282774
 20
610.3450159693934438
 30
0.0
 11
4441.8061114580559661
 21
610.3450159693934438
 31
0.0
  0
LINE
  5
8E27
  8
0
 10
4441.7950639581404175
 20
610.3528899851934284
 30
0.0
 11
4441.8072640591390154
 21
610.3528899851934284
 31
0.0
  0
LINE
  5
8E28
  8
0
 10
4441.7974442697986888
 20
610.3683148780380634
 30
0.0
 11
4441.8095270779485872
 21
610.3683148780380634
 31
0.0
  0
LINE
  5
8E29
  8
0
 10
4441.8003200659686627
 20
610.3886862714200561
 30
0.0
 11
4441.8123816515726503
 21
610.3886862726940308
 31
0.0
  0
LINE
  5
8E2A
  8
0
 10
4441.8128730727394213
 20
610.3922600638934455
 30
0.0
 11
4441.800813029542951
 21
610.3922600638934455
 31
0.0
  0
LINE
  5
8E2B
  8
0
 10
4441.8299891628648766
 20
610.6914726622933358
 30
0.0
 11
4441.8436336953000136
 21
610.6914726622933358
 31
0.0
  0
LINE
  5
8E2C
  8
0
 10
4441.8294685810387818
 20
610.6835986465933956
 30
0.0
 11
4441.8431356544961091
 21
610.6834687081332049
 31
0.0
  0
LINE
  5
8E2D
  8
0
 10
4441.8285693881198313
 20
610.6681737937573189
 30
0.0
 11
4441.8421271762463221
 21
610.6681720245518363
 31
0.0
  0
LINE
  5
8E2E
  8
0
 10
4441.8272107342918389
 20
610.6478023588556425
 30
0.0
 11
4441.8406790095286851
 21
610.647940631705751
 31
0.0
  0
LINE
  5
8E2F
  8
0
 10
4441.8269610940506027
 20
610.6442285677933342
 30
0.0
 11
4441.8404017632319665
 21
610.6442630047353077
 31
0.0
  0
ARC
  5
8E30
  8
0
 10
4438.0200996335388481
 20
610.9119451033448058
 30
0.0
 40
3.816263398004172
 50
350.0691934607110056
 51
350.3254756022146807
  0
ARC
  5
8E31
  8
0
 10
4438.5488025562881376
 20
610.8226827688743015
 30
0.0
 40
3.2800790156263488
 50
350.3105191544964896
 51
351.7654324620617103
  0
ARC
  5
8E32
  8
0
 10
4441.2729783049544494
 20
610.4413523935106696
 30
0.0
 40
0.5295271730015961
 50
350.3831190113772891
 51
352.0719363759229168
  0
ARC
  5
8E33
  8
0
 10
4438.0200996340126949
 20
610.9119451032693178
 30
0.0
 40
3.816263397524529
 50
351.8103047560691721
 51
352.1733486737705903
  0
ARC
  5
8E34
  8
0
 10
4438.0200996338380719
 20
610.9119451032934194
 30
0.0
 40
3.8162633977011451
 50
352.1733486737705903
 51
355.9773120767251839
  0
ARC
  5
8E35
  8
0
 10
4438.0082029642317138
 20
610.912771704853867
 30
0.0
 40
3.8281887495379952
 50
355.9774618078204753
 51
356.0310804004218994
  0
ARC
  5
8E36
  8
0
 10
4438.0200996337198376
 20
610.9119451033009227
 30
0.0
 40
3.8162633978194869
 50
356.0310982253002976
 51
356.6880742536349089
  0
ARC
  5
8E37
  8
0
 10
4435.5022078312013036
 20
610.9110001660604894
 30
0.0
 40
6.3315881806720036
 50
358.0130539472140185
 51
2.004057758949195
  0
ARC
  5
8E38
  8
0
 10
4446.152388462678573
 20
611.4372760570887522
 30
0.0
 40
4.3332024730401919
 50
183.7255477515224129
 51
184.0343251715848112
  0
ARC
  5
8E39
  8
0
 10
4440.9850633495807415
 20
611.1190568906991984
 30
0.0
 40
0.8440762688491966
 50
2.489226226811601
 51
4.1173847228621501
  0
ARC
  5
8E3A
  8
0
 10
3793.7979506505489553
 20
544.0577096917924109
 30
0.0
 40
651.4959361410463998
 50
5.913530222624356
 51
5.9358085843311397
  0
ARC
  5
8E3B
  8
0
 10
4438.1218821864404163
 20
610.9262645146378645
 30
0.0
 40
3.713479038091779
 50
7.8216270109185571
 51
8.1947195562587414
  0
ARC
  5
8E3C
  8
0
 10
4443.9087947432290093
 20
611.7779917118569983
 30
0.0
 40
2.135826103848923
 50
188.0506048593144897
 51
188.6823489825277136
  0
ARC
  5
8E3D
  8
0
 10
4438.0200996338544428
 20
610.9119451032954657
 30
0.0
 40
3.8162633976851059
 50
8.5432585990555978
 51
9.7988031228054666
  0
ARC
  5
8E3E
  8
0
 10
4442.1896529916393774
 20
610.4530216666934166
 30
0.0
 40
0.0333271255000354
 50
261.3139198674668933
 51
310.9796372337946764
  0
ARC
  5
8E3F
  8
0
 10
4442.1896529916066356
 20
610.4530216666946671
 30
0.0
 40
0.0333271255322251
 50
319.0203629583131146
 51
8.6860801085974284
  0
ARC
  5
8E40
  8
0
 10
4442.3572024936020171
 20
610.7446057071410905
 30
0.0
 40
0.0340776646573385
 50
291.5945744963103721
 51
337.9340880278363102
  0
ARC
  5
8E41
  8
0
 10
4442.3572978235370101
 20
610.7437899527410536
 30
0.0
 40
0.0336979341056409
 50
350.940217168218112
 51
38.5679860389358495
  0
ARC
  5
8E42
  8
0
 10
4442.0739334585177858
 20
610.9252607752337099
 30
0.0
 40
0.3396868699332757
 50
339.1012977454699922
 51
356.3911625983407134
  0
ARC
  5
8E43
  8
0
 10
4442.0734630870074398
 20
610.8984616994754333
 30
0.0
 40
0.3401861298695601
 50
3.6944847356882842
 51
20.896834050840031
  0
ARC
  5
8E44
  8
0
 10
4442.3569752721286932
 20
611.0802720986810073
 30
0.0
 40
0.0340573279040434
 50
321.544279792508803
 51
7.7817250914000251
  0
ARC
  5
8E45
  8
0
 10
4442.3577794114071366
 20
611.0801473432384228
 30
0.0
 40
0.0330638534839738
 50
16.8775303417361009
 51
68.784800249003041
  0
ARC
  5
8E46
  8
0
 10
4442.1896529916339205
 20
611.3708685397408544
 30
0.0
 40
0.0333271255510291
 50
49.0203611906960219
 51
98.686079948083318
  0
ARC
  5
8E47
  8
0
 10
4442.1896529915884457
 20
611.3708685397883755
 30
0.0
 40
0.0333271255494488
 50
351.3139200506691964
 51
40.979638810572979
  0
ARC
  5
8E48
  8
0
 10
4441.8987071912388274
 20
611.5388461759933989
 30
0.0
 40
0.0333271254999934
 50
79.0203618203787386
 51
128.6860800509161891
  0
ARC
  5
8E49
  8
0
 10
4441.8987071912388274
 20
611.5388461759933989
 30
0.0
 40
0.0333271254999874
 50
21.3139199600292599
 51
70.9796381905586173
  0
ARC
  5
8E4A
  8
0
 10
4441.6755694127377865
 20
611.5563770303103865
 30
0.0
 40
0.0355315095758315
 50
98.1664719604652021
 51
146.8040227572500953
  0
ARC
  5
8E4B
  8
0
 10
4441.6740543236710437
 20
611.5595033379833012
 30
0.0
 40
0.032238564897331
 50
40.5509489320382031
 51
93.7480555161904761
  0
ARC
  5
8E4C
  8
0
 10
4441.3239594136293817
 20
611.4154861426841308
 30
0.0
 40
0.034958960369745
 50
130.2141052582086047
 51
181.1739589261368906
  0
ARC
  5
8E4D
  8
0
 10
4441.321871789123179
 20
611.4159827660790825
 30
0.0
 40
0.0332562486116085
 50
75.4640216481422215
 51
128.0194323739453068
  0
ARC
  5
8E4E
  8
0
 10
4441.1096678975864052
 20
611.1022840550641604
 30
0.0
 40
0.0327799527237747
 50
167.2936696614075061
 51
217.1298020197494054
  0
ARC
  5
8E4F
  8
0
 10
4441.1097930951664239
 20
611.1014106633008396
 30
0.0
 40
0.0331044545986185
 50
109.2478129598489005
 51
165.8664314726734119
  0
ARC
  5
8E50
  8
0
 10
4441.3820365980336646
 20
610.8983399497783466
 30
0.0
 40
0.3338492425301561
 50
159.3904029907444055
 51
177.6644134445234897
  0
ARC
  5
8E51
  8
0
 10
4441.3906341582905952
 20
610.9322933111119482
 30
0.0
 40
0.3443153355496688
 50
186.8550988202289886
 51
201.179010267138608
  0
ARC
  5
8E52
  8
0
 10
4441.1303034248194308
 20
610.7180222804107643
 30
0.0
 40
0.0521534561522262
 50
153.6124641577727914
 51
187.1026613800511882
  0
ARC
  5
8E53
  8
0
 10
4441.1123760881437192
 20
610.7240800421179756
 30
0.0
 40
0.0360638610259816
 50
200.2908033749706931
 51
248.4333524907835056
  0
ARC
  5
8E54
  8
0
 10
4441.3247390205106058
 20
610.4134824418961216
 30
0.0
 40
0.0393926969429765
 50
231.8519748051847955
 51
280.0221987732630282
  0
ARC
  5
8E55
  8
0
 10
4441.3224230719133629
 20
610.4069762372538435
 30
0.0
 40
0.0329189849747569
 50
177.0898423327527098
 51
228.0242747638399123
  0
ARC
  5
8E56
  8
0
 10
4441.6732541042983939
 20
610.2691746757478768
 30
0.0
 40
0.0369722930084718
 50
267.6804669177590768
 51
315.741608143970609
  0
ARC
  5
8E57
  8
0
 10
4441.6762717986648568
 20
610.2708251700488518
 30
0.0
 40
0.0388555953217443
 50
215.5955661462658099
 51
263.3285918788251934
  0
LINE
  5
8E5A
  8
0
 10
4441.4261997945168332
 20
586.8288507563934218
 30
0.0
 11
4442.0352590805223372
 21
586.8288507563934218
 31
0.0
  0
LINE
  5
8E60
  8
0
 10
4434.5300711289955871
 20
598.5913421508023475
 30
0.0
 11
4434.5300711289955871
 21
601.3378991087280383
 31
0.0
  0
LINE
  5
8E62
  8
0
 10
4448.9313877460417643
 20
598.5913421508023475
 30
0.0
 11
4448.9313877460417643
 21
601.3378991087280383
 31
0.0
  0
LINE
  5
8E7E
  8
0
 10
4434.6196643173116172
 20
609.4998614788372606
 30
0.0
 11
4434.6196643173116172
 21
613.2337843253659457
 31
0.0
  0
LINE
  5
8E81
  8
0
 10
4448.8417945577257342
 20
609.4998617592957544
 30
0.0
 11
4448.8417945577257342
 21
613.2337811915768953
 31
0.0
  0
LINE
  5
8E82
  8
0
 10
4442.4868590229662004
 20
607.8296528013934221
 30
0.0
 11
4440.9746000592122073
 21
607.8296528013934221
 31
0.0
  0
LINE
  5
8E83
  8
0
 10
4448.3844026948618193
 20
613.661336765793294
 30
0.0
 11
4435.0770561801773511
 21
613.661336765793294
 31
0.0
  0
ARC
  5
8E84
  8
0
 10
4441.2462872588512255
 20
693.8553433873073573
 30
0.0
 40
86.0346352295710375
 50
270.8262020226690083
 51
273.0955111716914985
  0
ARC
  5
8E85
  8
0
 10
4443.0003107300763077
 20
661.6349382081452859
 30
0.0
 40
53.7665256626668722
 50
273.0832099197132266
 51
274.7943067964108081
  0
ARC
  5
8E86
  8
0
 10
4447.2822412699670167
 20
609.6014990433302501
 30
0.0
 40
1.5594185078220999
 50
277.8064970078389138
 51
326.2590460631184897
  0
ARC
  5
8E87
  8
0
 10
4447.2102953918392814
 20
609.6332614874108913
 30
0.0
 40
1.636943803479036
 50
326.7332979699659177
 51
355.3256020498989756
  0
ARC
  5
8E88
  8
0
 10
4448.3686883592008598
 20
613.186092928163589
 30
0.0
 40
0.4755035704916438
 50
5.755871456234364
 51
88.1061570564652783
  0
ARC
  5
8E89
  8
0
 10
4436.1828669173210073
 20
609.6087084339654893
 30
0.0
 40
1.5669875648243681
 50
183.9831185726675926
 51
265.5116788083407187
  0
ARC
  5
8E8A
  8
0
 10
4441.9647510077011248
 20
686.0546744915982345
 30
0.0
 40
78.2312879692888998
 50
265.6714821718770168
 51
269.274804407932379
  0
ARC
  5
8E8B
  8
0
 10
4435.0950653698218957
 20
613.183637563885668
 30
0.0
 40
0.4780385532724936
 50
92.15901999067529
 51
173.9785324966373992
  0
ATTDEF
  5
8EA9
  8
DEFPOINTS
 10
4441.7314409041173349
 20
614.651921657676553
 30
0.0
 40
0.001
  1
K-28633K
  3

  2
MODELNUMBER
 70
     0
1001
ACDBATTR
1070
     0
1070
     1
  0
ATTDEF
  5
8EAA
  8
DEFPOINTS
 10
4441.7314409041173349
 20
614.6502549910097741
 30
0.0
 40
0.001
  1
REACH UP
  3

  2
TRADENAME
 70
     0
1001
ACDBATTR
1070
     0
1070
     1
  0
ATTDEF
  5
8EAB
  8
DEFPOINTS
 10
4441.7314409041173349
 20
614.6485883243432227
 30
0.0
 40
0.001
  1
TOILET
  3

  2
PRODUCT
 70
     0
1001
ACDBATTR
1070
     0
1070
     1
  0
ENDSEC
  0
EOF
