  0
SECTION
  2
HEADER
  9
$ACADVER
  1
AC1009
  9
$INSBASE
 10
4319.3017333374391455
 20
608.1391234802135841
 30
0.0
  9
$EXTMIN
 10
4316.743035925022923
 20
607.7611706191154326
 30
0.0
  9
$EXTMAX
 10
4321.8604307498526396
 20
618.3796497443745466
 30
0.0
  9
$LIMMIN
 10
0.0
 20
0.0
  9
$LIMMAX
 10
11.6929133858000007
 20
8.2677165353999982
  9
$ORTHOMODE
 70
     0
  9
$REGENMODE
 70
     1
  9
$FILLMODE
 70
     1
  9
$QTEXTMODE
 70
     0
  9
$MIRRTEXT
 70
     0
  9
$DRAGMODE
 70
     2
  9
$LTSCALE
 40
0.6431102362
  9
$OSMODE
 70
  4095
  9
$ATTMODE
 70
     1
  9
$TEXTSIZE
 40
0.2
  9
$TRACEWID
 40
0.05
  9
$TEXTSTYLE
  7
STANDARD
  9
$CLAYER
  8
0
  9
$CELTYPE
  6
BYLAYER
  9
$CECOLOR
 62
   256
  9
$DIMSCALE
 40
1.0
  9
$DIMASZ
 40
0.1875
  9
$DIMEXO
 40
0.0625
  9
$DIMDLI
 40
0.4443307087
  9
$DIMRND
 40
0.0
  9
$DIMDLE
 40
0.0
  9
$DIMEXE
 40
0.125
  9
$DIMTP
 40
0.01
  9
$DIMTM
 40
0.01
  9
$DIMTXT
 40
2.0
  9
$DIMCEN
 40
0.1052362205
  9
$DIMTSZ
 40
0.0
  9
$DIMTOL
 70
     1
  9
$DIMLIM
 70
     0
  9
$DIMTIH
 70
     1
  9
$DIMTOH
 70
     1
  9
$DIMSE1
 70
     0
  9
$DIMSE2
 70
     0
  9
$DIMTAD
 70
     0
  9
$DIMZIN
 70
     0
  9
$DIMBLK
  1

  9
$DIMASO
 70
     1
  9
$DIMSHO
 70
     1
  9
$DIMPOST
  1
\X
  9
$DIMAPOST
  1

  9
$DIMALT
 70
     1
  9
$DIMALTD
 70
     2
  9
$DIMALTF
 40
25.3999999999999986
  9
$DIMLFAC
 40
1.0
  9
$DIMTOFL
 70
     0
  9
$DIMTVP
 40
0.0
  9
$DIMTIX
 70
     0
  9
$DIMSOXD
 70
     0
  9
$DIMSAH
 70
     0
  9
$DIMBLK1
  1

  9
$DIMBLK2
  1

  9
$DIMSTYLE
  2
STANDARD
  9
$DIMCLRD
 70
     0
  9
$DIMCLRE
 70
     0
  9
$DIMCLRT
 70
     0
  9
$DIMTFAC
 40
1.0
  9
$DIMGAP
 40
0.09
  9
$LUNITS
 70
     2
  9
$LUPREC
 70
     4
  9
$SKETCHINC
 40
0.1
  9
$FILLETRAD
 40
0.0
  9
$AUNITS
 70
     0
  9
$AUPREC
 70
     0
  9
$MENU
  1
.
  9
$ELEVATION
 40
0.0
  9
$PELEVATION
 40
0.0
  9
$THICKNESS
 40
0.0
  9
$LIMCHECK
 70
     0
  9
$BLIPMODE
 70
     0
  9
$CHAMFERA
 40
0.0
  9
$CHAMFERB
 40
0.0
  9
$SKPOLY
 70
     0
  9
$TDCREATE
 40
2458060.468368056230247
  9
$TDUPDATE
 40
2460024.7637731479480863
  9
$TDINDWG
 40
4.5776228009000004
  9
$TDUSRTIMER
 40
4.5776228009000004
  9
$USRTIMER
 70
     1
  9
$ANGBASE
 50
0.0
  9
$ANGDIR
 70
     0
  9
$PDMODE
 70
     0
  9
$PDSIZE
 40
0.3125
  9
$PLINEWID
 40
0.0
  9
$COORDS
 70
     1
  9
$SPLFRAME
 70
     0
  9
$SPLINETYPE
 70
     6
  9
$SPLINESEGS
 70
     8
  9
$ATTDIA
 70
     1
  9
$ATTREQ
 70
     1
  9
$HANDLING
 70
     1
  9
$HANDSEED
  5
1EC13
  9
$SURFTAB1
 70
     6
  9
$SURFTAB2
 70
     6
  9
$SURFTYPE
 70
     6
  9
$SURFU
 70
     6
  9
$SURFV
 70
     6
  9
$UCSNAME
  2

  9
$UCSORG
 10
0.0
 20
0.0
 30
0.0
  9
$UCSXDIR
 10
1.0
 20
0.0
 30
0.0
  9
$UCSYDIR
 10
0.0
 20
1.0
 30
0.0
  9
$PUCSNAME
  2

  9
$PUCSORG
 10
0.0
 20
0.0
 30
0.0
  9
$PUCSXDIR
 10
1.0
 20
0.0
 30
0.0
  9
$PUCSYDIR
 10
0.0
 20
1.0
 30
0.0
  9
$USERI1
 70
     0
  9
$USERI2
 70
     0
  9
$USERI3
 70
     0
  9
$USERI4
 70
     0
  9
$USERI5
 70
     0
  9
$USERR1
 40
0.0
  9
$USERR2
 40
0.0
  9
$USERR3
 40
0.0
  9
$USERR4
 40
0.0
  9
$USERR5
 40
0.0
  9
$WORLDVIEW
 70
     1
  9
$SHADEDGE
 70
     3
  9
$SHADEDIF
 70
    70
  9
$TILEMODE
 70
     1
  9
$MAXACTVP
 70
    64
  9
$PLIMCHECK
 70
     0
  9
$PEXTMIN
 10
1.0000000000000000E+20
 20
1.0000000000000000E+20
 30
1.0000000000000000E+20
  9
$PEXTMAX
 10
-1.0000000000000000E+20
 20
-1.0000000000000000E+20
 30
-1.0000000000000000E+20
  9
$PLIMMIN
 10
0.0
 20
0.0
  9
$PLIMMAX
 10
12.0
 20
9.0
  9
$UNITMODE
 70
     0
  9
$VISRETAIN
 70
     1
  9
$PLINEGEN
 70
     0
  9
$PSLTSCALE
 70
     1
  0
ENDSEC
  0
SECTION
  2
TABLES
  0
TABLE
  2
VPORT
 70
     1
  0
VPORT
  2
*ACTIVE
 70
     0
 10
0.0
 20
0.0
 11
1.0
 21
1.0
 12
82.870336853063236
 22
14.3417992684616706
 13
0.0
 23
0.0
 14
1.0
 24
1.0
 15
0.0
 25
0.0
 16
0.0
 26
0.0
 36
98.7941898181710343
 17
4236.431396484375
 27
598.728610913283319
 37
0.0
 40
10.6917504536524905
 41
1.8299086757990859
 42
50.0
 43
0.0
 44
0.0
 50
0.0
 51
0.0
 71
     0
 72
   100
 73
     1
 74
     1
 75
     0
 76
     0
 77
     0
 78
     0
  0
ENDTAB
  0
TABLE
  2
LTYPE
 70
     3
  0
LTYPE
  2
CONTINUOUS
 70
     0
  3
Solid line
 72
    65
 73
     0
 40
0.0
  0
LTYPE
  2
PHANTOM2
 70
     0
  3
___ _ _ ___ _ _ ___ _ _ ___ _ _
 72
    65
 73
     6
 40
1.25
 49
0.625
 49
-0.125
 49
0.125
 49
-0.125
 49
0.125
 49
-0.125
  0
ENDTAB
  0
TABLE
  2
LAYER
 70
     2
  0
LAYER
  2
0
 70
     0
 62
   255
  6
CONTINUOUS
  0
LAYER
  2
DEFPOINTS
 70
     0
 62
     7
  6
CONTINUOUS
  0
ENDTAB
  0
TABLE
  2
STYLE
 70
     1
  0
STYLE
  2
STANDARD
 70
     0
 40
0.0
 41
0.8
 50
0.0
 71
     0
 42
0.2
  3
txt
  4

  0
ENDTAB
  0
TABLE
  2
VIEW
 70
     0
  0
ENDTAB
  0
TABLE
  2
UCS
 70
     0
  0
ENDTAB
  0
TABLE
  2
APPID
 70
     9
  0
APPID
  2
ACAD
 70
     0
  0
APPID
  2
ACAD_MLEADERVER
 70
     0
  0
APPID
  2
ACAD_EXEMPT_FROM_CAD_STANDARDS
 70
     0
  0
APPID
  2
ACAD_NAV_VCDISPLAY
 70
     0
  0
APPID
  2
ACAECLAYERSTANDARD
 70
     0
  0
APPID
  2
ACCMTRANSPARENCY
 70
     0
  0
APPID
  2
ACAD_DSTYLE_DIMJAG
 70
     0
  0
APPID
  2
ACAD_DSTYLE_DIMTALN
 70
     0
  0
APPID
  2
ACDBATTR
 70
     0
  0
ENDTAB
  0
TABLE
  2
DIMSTYLE
 70
     2
  0
DIMSTYLE
  2
STANDARD
 70
     0
  3

  4

  5

  6

  7

 40
1.0
 41
0.1875
 42
0.0625
 43
0.38
 44
0.125
 45
0.0
 46
0.0
 47
0.01
 48
0.01
140
0.15625
141
0.09
142
0.0
143
25.3999999999999986
144
1.0
145
0.0
146
1.0
147
0.09
 71
     1
 72
     0
 73
     1
 74
     1
 75
     0
 76
     0
 77
     0
 78
     4
170
     0
171
     2
172
     0
173
     0
174
     0
175
     0
176
     0
177
     0
178
     0
  0
ENDTAB
  0
ENDSEC
  0
SECTION
  2
BLOCKS
  0
BLOCK
  8
0
  2
$MODEL_SPACE
 70
     0
 10
0.0
 20
0.0
 30
0.0
  3
$MODEL_SPACE
  1

  0
ENDBLK
  5
21
  8
0
  0
BLOCK
 67
     1
  8
0
  2
$PAPER_SPACE
 70
     0
 10
0.0
 20
0.0
 30
0.0
  3
$PAPER_SPACE
  1

  0
ENDBLK
  5
1D
 67
     1
  8
0
  0
ENDSEC
  0
SECTION
  2
ENTITIES
  0
ATTDEF
  5
3930
  8
DEFPOINTS
 10
4319.2984967601350945
 20
608.1442057561249612
 30
0.0
 40
0.001
  1
K-28681T
  3

  2
MODELNUMBER
 70
     0
1001
ACDBATTR
1070
     0
1070
     1
  0
ATTDEF
  5
3931
  8
DEFPOINTS
 10
4319.2984967601350945
 20
608.1425390894584098
 30
0.0
 40
0.001
  1
SPAVIVA
  3

  2
TRADENAME
 70
     0
1001
ACDBATTR
1070
     0
1070
     1
  0
ATTDEF
  5
3932
  8
DEFPOINTS
 10
4319.2984967601350945
 20
608.1408724227917446
 30
0.0
 40
0.001
  1
HANDSHOWER
  3

  2
PRODUCT
 70
     0
1001
ACDBATTR
1070
     0
1070
     1
  0
ARC
  5
1E728
  8
0
 10
4319.3049200631876374
 20
615.7669850250174477
 30
0.0
 40
2.6126666628166508
 50
90.0698849125592034
 51
109.9353723027186049
  0
ARC
  5
1E729
  8
0
 10
4319.2945300512383255
 20
615.8212264392204816
 30
0.0
 40
2.5581478196274618
 50
110.1308285161212979
 51
136.2961876171964093
  0
ARC
  5
1E72A
  8
0
 10
4319.2717703769021682
 20
615.8429789539786725
 30
0.0
 40
2.526664892918705
 50
136.2961876171964093
 51
161.0941163831606957
  0
ARC
  5
1E72B
  8
0
 10
4319.3080629900641725
 20
615.8305490513290579
 30
0.0
 40
2.5650270650415719
 50
161.0941163831606957
 51
183.166858799356902
  0
ARC
  5
1E72C
  8
0
 10
4319.1354607374669285
 20
615.8209992332206184
 30
0.0
 40
2.3921608259216982
 50
183.166858799356902
 51
206.0745115803781005
  0
ARC
  5
1E72D
  8
0
 10
4319.2960166240764011
 20
615.8995662037279999
 30
0.0
 40
2.570909145017195
 50
206.0745115803781005
 51
222.1528511407977931
  0
ARC
  5
1E72E
  8
0
 10
4319.2255753767358328
 20
615.8357995276367092
 30
0.0
 40
2.4758925238046312
 50
222.1528511407977931
 51
244.615638963431195
  0
ARC
  5
1E72F
  8
0
 10
4319.3370991170286288
 20
616.0708335253623318
 30
0.0
 40
2.7360434890840448
 50
244.615638963431195
 51
258.8242316007357999
  0
ARC
  5
1E730
  8
0
 10
4319.3085265959416574
 20
616.0251163110581274
 30
0.0
 40
2.685723704581322
 50
259.2331936711016738
 51
269.8550761361631771
  0
ARC
  5
1E731
  8
0
 10
4319.3013315108491952
 20
615.9415353372498885
 30
0.0
 40
2.540588542353063
 50
254.8037317838164881
 51
270.0090620607618916
  0
ARC
  5
1E732
  8
0
 10
4319.296340832945134
 20
615.9231618613431465
 30
0.0
 40
2.5215493332614032
 50
243.1140288940005121
 51
254.8037317838164881
  0
ARC
  5
1E733
  8
0
 10
4319.2782773245189674
 20
615.8875351239171323
 30
0.0
 40
2.4816049374556011
 50
225.9678800924430107
 51
243.1140288940005121
  0
ARC
  5
1E734
  8
0
 10
4319.2324084780693738
 20
615.8400897997429411
 30
0.0
 40
2.4156124389378149
 50
201.785578558820788
 51
225.9678800924430107
  0
ARC
  5
1E735
  8
0
 10
4319.1723031542032913
 20
615.8160669324319088
 30
0.0
 40
2.350884175321708
 50
180.2042176942690048
 51
201.785578558820788
  0
ARC
  5
1E736
  8
0
 10
4319.1884282081673518
 20
615.8161244067398457
 30
0.0
 40
2.3670093317115031
 50
161.3753212519420117
 51
180.2042176942690048
  0
ARC
  5
1E737
  8
0
 10
4319.2097111377261172
 20
615.8089517027955253
 30
0.0
 40
2.3894684227995291
 50
137.3823098232506084
 51
161.3753212519420117
  0
ARC
  5
1E738
  8
0
 10
4319.2850830693050739
 20
615.7396006980369521
 30
0.0
 40
2.4918915155620578
 50
118.8804498522435011
 51
137.3823098232506084
  0
ARC
  5
1E739
  8
0
 10
4319.2889532258859617
 20
615.7325842640130986
 30
0.0
 40
2.499904533618015
 50
102.024588566363505
 51
118.8804498522435011
  0
ARC
  5
1E73A
  8
0
 10
4319.3074605796045944
 20
615.6456973774430708
 30
0.0
 40
2.5887406366366652
 50
92.7068777137687476
 51
102.024588566363505
  0
ARC
  5
1E73B
  8
0
 10
4319.3190911447682083
 20
614.9312364369395709
 30
0.0
 40
3.3030277540691002
 50
90.3010975847775654
 51
92.3231056522664488
  0
ARC
  5
1E73C
  8
0
 10
4319.301740348131716
 20
615.6892837989945519
 30
0.0
 40
2.5370445556304371
 50
90.0001583271220937
 51
97.9365279946761547
  0
ARC
  5
1E73D
  8
0
 10
4319.3000457153111711
 20
615.7014394306343092
 30
0.0
 40
2.524771366927026
 50
97.9365279946761547
 51
115.1116305285150929
  0
ARC
  5
1E73E
  8
0
 10
4319.277141730243784
 20
615.7503083769462364
 30
0.0
 40
2.4708013155497488
 50
115.1116305285150929
 51
138.4603942332203133
  0
ARC
  5
1E73F
  8
0
 10
4319.2143105181821738
 20
615.8059742132151086
 30
0.0
 40
2.3868582006643049
 50
138.4603942332203133
 51
163.2063678388282142
  0
ARC
  5
1E740
  8
0
 10
4319.1792521824509095
 20
615.8171691802139094
 30
0.0
 40
2.3500606096734491
 50
163.2207103360726137
 51
186.7342717928686966
  0
ARC
  5
1E741
  8
0
 10
4319.1895963583483535
 20
615.8189856209545496
 30
0.0
 40
2.360546496331966
 50
186.7486142901078949
 51
205.1117928287349912
  0
ARC
  5
1E742
  8
0
 10
4319.2366419471200061
 20
615.841035194092683
 30
0.0
 40
2.41250293095352
 50
205.1117928287349912
 51
234.0335885871463972
  0
ARC
  5
1E743
  8
0
 10
4319.309441653950671
 20
615.941359021004132
 30
0.0
 40
2.536457227211085
 50
234.0335885871463972
 51
248.0767870227562071
  0
ARC
  5
1E744
  8
0
 10
4319.2882577466743896
 20
615.8887240257276972
 30
0.0
 40
2.4797192271119148
 50
248.0767870227562071
 51
262.2144556919574256
  0
ARC
  5
1E745
  8
0
 10
4319.3077480503689003
 20
616.0312741832476604
 30
0.0
 40
2.623595630135894
 50
262.2144556919574256
 51
269.8686466909128967
  0
ARC
  5
1E746
  8
0
 10
4319.30135001558574
 20
615.7838969575187775
 30
0.0
 40
1.3272927534549841
 50
245.6629073199489142
 51
270.0165470086332107
  0
ARC
  5
1E747
  8
0
 10
4319.2511764320761358
 20
615.7287525900533183
 30
0.0
 40
1.2500373645914851
 50
174.9478972547823048
 51
214.8529546458152879
  0
ARC
  5
1E748
  8
0
 10
4319.2148616184131242
 20
615.7319630033942985
 30
0.0
 40
1.213580918725041
 50
133.2087752066072142
 51
174.9478972547823048
  0
ARC
  5
1E749
  8
0
 10
4319.2954452485482761
 20
615.6768980754868608
 30
0.0
 40
1.309057032511082
 50
101.2296492764939018
 51
134.1294379911354895
  0
ARC
  5
1E74A
  8
0
 10
4319.3017270235977776
 20
615.6551181093876721
 30
0.0
 40
1.331644719842739
 50
89.9997283384909537
 51
101.3122613302175949
  0
ARC
  5
1E74B
  8
0
 10
4319.2880100550946736
 20
615.7544031446600457
 30
0.0
 40
1.294922403706652
 50
214.8529546458152879
 51
245.6629073199489142
  0
ARC
  5
1E74C
  8
0
 10
4313.2860304863434067
 20
618.6037738913678368
 30
0.0
 40
6.7753351934101547
 50
316.8981971098245936
 51
323.5863177250079161
  0
ARC
  5
1E74D
  8
0
 10
4317.8379204517295875
 20
614.3439219334388781
 30
0.0
 40
0.541071727654015
 50
298.4035324922115251
 51
316.8981971098245936
  0
ARC
  5
1E74E
  8
0
 10
4318.0740472425723055
 20
613.9072789161984929
 30
0.0
 40
0.0446717016083428
 50
157.2606478001985977
 51
298.4035324922115251
  0
ARC
  5
1E74F
  8
0
 10
4321.0066124544528066
 20
612.7660030710642332
 30
0.0
 40
3.1914728489026651
 50
141.9622863828496122
 51
158.7147056400380052
  0
ARC
  5
1E750
  8
0
 10
4313.7834944090200224
 20
620.4287486406699372
 30
0.0
 40
7.3909625012254718
 50
303.1583179937571799
 51
309.5831014559005894
  0
ARC
  5
1E751
  8
0
 10
4317.5687771175125818
 20
614.6465636557372818
 30
0.0
 40
0.4799990239694358
 50
281.7920501581053259
 51
302.4056534332440833
  0
ARC
  5
1E752
  8
0
 10
4317.6599358703333564
 20
614.2099086591922514
 30
0.0
 40
0.0339300783752453
 50
160.786603873135391
 51
281.7920501581053259
  0
ARC
  5
1E753
  8
0
 10
4318.4690947239350862
 20
613.8443105297993725
 30
0.0
 40
0.9217195626543842
 50
135.1270108760371045
 51
155.8728998201613933
  0
ARC
  5
1E754
  8
0
 10
4321.4388106736887494
 20
611.087621644324372
 30
0.0
 40
4.97324108278716
 50
129.3397261953766986
 51
136.7592292811262098
  0
ARC
  5
1E755
  8
0
 10
4312.9962162236552103
 20
625.9514618179754279
 30
0.0
 40
12.2216933269529697
 50
292.5065816193056776
 51
295.6475824314662759
  0
ARC
  5
1E756
  8
0
 10
4317.1582715133727106
 20
615.9050702453214399
 30
0.0
 40
1.3472883036773531
 50
277.928377402949593
 51
292.532058010553385
  0
ARC
  5
1E757
  8
0
 10
4317.3390169318854532
 20
614.6072300913425579
 30
0.0
 40
0.0369227166777999
 50
140.3280148608170066
 51
277.928377402949593
  0
ARC
  5
1E758
  8
0
 10
4318.1914361062436001
 20
613.9002418412410407
 30
0.0
 40
1.1443751240502931
 50
118.3669046457365965
 51
140.3280148608170066
  0
ARC
  5
1E759
  8
0
 10
4305.7816841270760051
 20
636.8550380562205646
 30
0.0
 40
24.950157286716621
 50
298.397760636053988
 51
299.6655579772275928
  0
ARC
  5
1E75A
  8
0
 10
4316.4711788698532473
 20
622.1198418446506366
 30
0.0
 40
7.1401882523227673
 50
275.779064827970501
 51
283.4373143377811743
  0
ARC
  5
1E75B
  8
0
 10
4317.1726322800577691
 20
615.186965504301952
 30
0.0
 40
0.1719166202201533
 50
242.2351985573614002
 51
275.8464617746442968
  0
ARC
  5
1E75C
  8
0
 10
4317.1076164565447471
 20
615.0634681842440159
 30
0.0
 40
0.0323507025733398
 50
120.4360266967078985
 51
242.2351985573614002
  0
ARC
  5
1E75D
  8
0
 10
4317.9042598929227097
 20
613.9490793501679491
 30
0.0
 40
1.40207959537728
 50
105.9692011690104039
 51
125.4417824090658939
  0
ARC
  5
1E75E
  8
0
 10
4319.5814686067669754
 20
608.9117350692215496
 30
0.0
 40
6.7102934097634153
 50
103.3274737470384963
 51
107.9044560000526047
  0
ARC
  5
1E75F
  8
0
 10
4317.9544826225146608
 20
623.5787742920002756
 30
0.0
 40
8.1378591577981432
 50
263.9749476164432735
 51
270.5643421332845833
  0
ARC
  5
1E760
  8
0
 10
4317.129311437843171
 20
615.7591092425767556
 30
0.0
 40
0.2747765457307725
 50
234.2460465439700954
 51
263.9405700909096026
  0
ARC
  5
1E761
  8
0
 10
4316.9945549654048591
 20
615.5555884394541408
 30
0.0
 40
0.0323195312267343
 50
131.81601932303289
 51
217.0427094179669893
  0
ARC
  5
1E762
  8
0
 10
4317.5212021243323761
 20
614.3830120140469262
 30
0.0
 40
1.316253430968344
 50
91.519580304638481
 51
114.6126821970295993
  0
ARC
  5
1E763
  8
0
 10
4318.0482617996622139
 20
608.9838832909623534
 30
0.0
 40
6.7383933603769881
 50
90.4005324261056131
 51
94.7838783905341558
  0
ARC
  5
1E764
  8
0
 10
4319.6602414852795846
 20
623.4333252318101586
 30
0.0
 40
7.8876721375407941
 50
250.4693674005307003
 51
257.8577829141161146
  0
ARC
  5
1E765
  8
0
 10
4317.0594801450006344
 20
616.101572328014754
 30
0.0
 40
0.108304548089247
 50
209.8802452308146087
 51
250.4889305089677976
  0
ARC
  5
1E766
  8
0
 10
4316.9936188738738565
 20
616.0637306279562608
 30
0.0
 40
0.0323459982236177
 50
98.4996831254250935
 51
209.8802452308146087
  0
ARC
  5
1E767
  8
0
 10
4317.2433014374137201
 20
614.3930023783775596
 30
0.0
 40
1.7216281731357399
 50
83.0592478009428561
 51
98.4996831254250935
  0
ARC
  5
1E768
  8
0
 10
4316.6389191777334418
 20
609.4324062432357323
 30
0.0
 40
6.718906619218842
 50
78.0297703552422774
 51
83.0549821255374781
  0
ARC
  5
1E769
  8
0
 10
4321.4168940888730504
 20
623.5135636816959277
 30
0.0
 40
8.2358865625264066
 50
238.7422333551639895
 51
245.7361370317119906
  0
ARC
  5
1E76A
  8
0
 10
4317.228795405546407
 20
616.6138835665883562
 30
0.0
 40
0.1645944560168893
 50
205.9958547279424863
 51
238.7393281807945016
  0
ARC
  5
1E76B
  8
0
 10
4317.1102934419350277
 20
616.5560969096884492
 30
0.0
 40
0.0327535932488559
 50
94.3431143632869578
 51
205.9958547279424863
  0
ARC
  5
1E76C
  8
0
 10
4317.0627172092918045
 20
615.169697486483301
 30
0.0
 40
1.41977532465356
 50
68.9893610619746909
 51
88.1798278029602898
  0
ARC
  5
1E76D
  8
0
 10
4314.6959321014946909
 20
608.4108095907207598
 30
0.0
 40
8.5805479547154544
 50
66.4133890372385167
 51
70.4178971093253949
  0
ARC
  5
1E76E
  8
0
 10
4320.850659766069839
 20
620.236019431113391
 30
0.0
 40
4.8061769410268358
 50
222.5460552933622012
 51
235.5129814485756867
  0
ARC
  5
1E76F
  8
0
 10
4317.3370393040768249
 20
617.0104789303270536
 30
0.0
 40
0.0365223226625806
 50
70.8751134753551923
 51
221.7359009897242004
  0
ARC
  5
1E770
  8
0
 10
4315.8280567433539545
 20
613.2805214760959416
 30
0.0
 40
4.0601074961392021
 50
52.7513793917068625
 51
67.9999197976062106
  0
ARC
  5
1E771
  8
0
 10
4322.2493863253002928
 20
620.215389250371345
 30
0.0
 40
5.4243867713237934
 50
211.7481903701271904
 51
223.0510327931341124
  0
ARC
  5
1E772
  8
0
 10
4317.6791815326650976
 20
617.3873364132757615
 30
0.0
 40
0.0499422893295698
 50
53.5685805374382724
 51
211.6273021170748905
  0
ARC
  5
1E773
  8
0
 10
4314.6666462611256065
 20
613.2874986984785437
 30
0.0
 40
5.1375779766088394
 50
41.8184086216228792
 51
53.6905877856472102
  0
ARC
  5
1E774
  8
0
 10
4321.8355381742912869
 20
618.8892815651968249
 30
0.0
 40
3.9864451797328182
 50
197.4359935044705878
 51
213.0860087705011097
  0
ARC
  5
1E775
  8
0
 10
4318.07059843190018
 20
617.7144447911042562
 30
0.0
 40
0.0430855579064687
 50
41.0165613408533005
 51
207.1523228606299938
  0
ARC
  5
1E776
  8
0
 10
4314.8422041693365827
 20
614.7204221609513297
 30
0.0
 40
4.4460970441859811
 50
28.7900776007143904
 51
42.8252388210221397
  0
ARC
  5
1E777
  8
0
 10
4322.0942662581155673
 20
618.1931471978876971
 30
0.0
 40
3.610058499451767
 50
184.3638609553655101
 51
201.643108507780596
  0
ARC
  5
1E778
  8
0
 10
4318.541178719789059
 20
617.9219980747194541
 30
0.0
 40
0.0466397902839156
 50
50.5957059500528317
 51
184.353828931967513
  0
ARC
  5
1E779
  8
0
 10
4313.8751166800248029
 20
615.2801564123202525
 30
0.0
 40
5.4055842521623676
 50
18.0544781616104117
 51
29.6955584305395206
  0
ARC
  5
1E77A
  8
0
 10
4322.0730600999231683
 20
617.536098864691553
 30
0.0
 40
3.1131449865227401
 50
170.3769554128134018
 51
190.7492739816360938
  0
ARC
  5
1E77B
  8
0
 10
4319.0414576595558174
 20
618.0500933423980996
 30
0.0
 40
0.0382785411713725
 50
32.2504462049666785
 51
170.3518916880960035
  0
ARC
  5
1E77C
  8
0
 10
4315.2554938757375567
 20
616.7017224953971208
 30
0.0
 40
4.0562669751046814
 50
4.0295866498832664
 51
19.7217371882209314
  0
CIRCLE
  5
1E77D
  8
0
 10
4319.0593221761891982
 20
617.9017344298154057
 30
0.0
 40
0.0467511174337429
  0
ARC
  5
1E77E
  8
0
 10
4319.0593221761891982
 20
617.8961771522539266
 30
0.0
 40
0.0467511174337429
 50
176.5926342711362054
 51
3.4073657288638071
  0
CIRCLE
  5
1E77F
  8
0
 10
4319.0593221761891982
 20
617.9017344298154057
 30
0.0
 40
0.0234834011192038
  0
ARC
  5
1E780
  8
0
 10
4319.0607166618838164
 20
617.9339312305877456
 30
0.0
 40
0.0467511174337429
 50
240.0179355641687096
 51
295.0220535195109051
  0
CIRCLE
  5
1E781
  8
0
 10
4319.0832737162372723
 20
617.6969820388385415
 30
0.0
 40
0.0467511174337429
  0
ARC
  5
1E782
  8
0
 10
4319.0832737162372723
 20
617.6914247612770623
 30
0.0
 40
0.0467511174337429
 50
176.5926342711362054
 51
3.4073657288638071
  0
CIRCLE
  5
1E783
  8
0
 10
4319.0832737162372723
 20
617.6969820388385415
 30
0.0
 40
0.0234834011192038
  0
ARC
  5
1E784
  8
0
 10
4319.0846682019328
 20
617.729178839610654
 30
0.0
 40
0.0467511174337429
 50
240.0179355641687096
 51
295.0220535195109051
  0
CIRCLE
  5
1E785
  8
0
 10
4319.1140353042255811
 20
617.3915244777155067
 30
0.0
 40
0.0467511174337429
  0
ARC
  5
1E786
  8
0
 10
4319.1140353042255811
 20
617.3859672001540275
 30
0.0
 40
0.0467511174337429
 50
176.5926342711362054
 51
3.4073657288638071
  0
CIRCLE
  5
1E787
  8
0
 10
4319.1140353042255811
 20
617.3915244777155067
 30
0.0
 40
0.0234834011192038
  0
ARC
  5
1E788
  8
0
 10
4319.1154297899229277
 20
617.4237212784878466
 30
0.0
 40
0.0467511174337429
 50
240.0179355641687096
 51
295.0220535195109051
  0
CIRCLE
  5
1E789
  8
0
 10
4319.131760058627151
 20
617.2297949153794434
 30
0.0
 40
0.0467511174337429
  0
ARC
  5
1E78A
  8
0
 10
4319.131760058627151
 20
617.2242376378179642
 30
0.0
 40
0.0467511174337429
 50
176.5926342711362054
 51
3.4073657288638071
  0
CIRCLE
  5
1E78B
  8
0
 10
4319.131760058627151
 20
617.2297949153794434
 30
0.0
 40
0.0234834011192038
  0
ARC
  5
1E78C
  8
0
 10
4319.1331545443226787
 20
617.2619917161517833
 30
0.0
 40
0.0467511174337429
 50
240.0179355641687096
 51
295.0220535195109051
  0
CIRCLE
  5
1E78D
  8
0
 10
4318.7960004356245918
 20
617.1565601782191379
 30
0.0
 40
0.0467511174337429
  0
ARC
  5
1E78E
  8
0
 10
4318.7960004356245918
 20
617.1510029006575451
 30
0.0
 40
0.0467511174337429
 50
176.5926342711362054
 51
3.4073657288638071
  0
CIRCLE
  5
1E78F
  8
0
 10
4318.7960004356245918
 20
617.1565601782191379
 30
0.0
 40
0.0234834011192038
  0
ARC
  5
1E790
  8
0
 10
4318.7973949213219385
 20
617.1887569789912504
 30
0.0
 40
0.0467511174337429
 50
240.0179355641687096
 51
295.0220535195109051
  0
CIRCLE
  5
1E791
  8
0
 10
4318.7485593601286382
 20
617.3066896490402087
 30
0.0
 40
0.0467511174337429
  0
ARC
  5
1E792
  8
0
 10
4318.7485593601286382
 20
617.3011323714786158
 30
0.0
 40
0.0467511174337429
 50
176.5926342711362054
 51
3.4073657288638071
  0
CIRCLE
  5
1E793
  8
0
 10
4318.7485593601286382
 20
617.3066896490402087
 30
0.0
 40
0.0234834011192038
  0
ARC
  5
1E794
  8
0
 10
4318.7499538458250754
 20
617.3388864498124349
 30
0.0
 40
0.0467511174337429
 50
240.0179355641687096
 51
295.0220535195109051
  0
CIRCLE
  5
1E795
  8
0
 10
4318.6525707264909215
 20
617.6022282712250444
 30
0.0
 40
0.0467511174337429
  0
ARC
  5
1E796
  8
0
 10
4318.6525707264909215
 20
617.5966709936636789
 30
0.0
 40
0.0467511174337429
 50
176.5926342711362054
 51
3.4073657288638071
  0
CIRCLE
  5
1E797
  8
0
 10
4318.6525707264909215
 20
617.6022282712250444
 30
0.0
 40
0.0234834011192038
  0
ARC
  5
1E798
  8
0
 10
4318.6539652121873587
 20
617.6344250719972706
 30
0.0
 40
0.0467511174337429
 50
240.0179355641687096
 51
295.0220535195109051
  0
CIRCLE
  5
1E799
  8
0
 10
4318.5879698774442659
 20
617.7985740020328649
 30
0.0
 40
0.0467511174337429
  0
ARC
  5
1E79A
  8
0
 10
4318.5879698774442659
 20
617.793016724471272
 30
0.0
 40
0.0467511174337429
 50
176.5926342711362054
 51
3.4073657288638071
  0
CIRCLE
  5
1E79B
  8
0
 10
4318.5879698774442659
 20
617.7985740020328649
 30
0.0
 40
0.0234834011192038
  0
ARC
  5
1E79C
  8
0
 10
4318.5893643631388841
 20
617.8307708028052048
 30
0.0
 40
0.0467511174337429
 50
240.0179355641687096
 51
295.0220535195109051
  0
CIRCLE
  5
1E79D
  8
0
 10
4318.1482817273736146
 20
617.5971119859258351
 30
0.0
 40
0.0467511174337429
  0
ARC
  5
1E79E
  8
0
 10
4318.1482817273736146
 20
617.591554708364356
 30
0.0
 40
0.0467511174337429
 50
176.5926342711362054
 51
3.4073657288638071
  0
CIRCLE
  5
1E79F
  8
0
 10
4318.1482817273736146
 20
617.5971119859258351
 30
0.0
 40
0.0234834011192038
  0
ARC
  5
1E7A0
  8
0
 10
4318.1496762130709612
 20
617.6293087866979477
 30
0.0
 40
0.0467511174337429
 50
240.0179355641687096
 51
295.0220535195109051
  0
CIRCLE
  5
1E7A1
  8
0
 10
4318.2553374313547465
 20
617.4212807311383813
 30
0.0
 40
0.0467511174337429
  0
ARC
  5
1E7A2
  8
0
 10
4318.2553374313547465
 20
617.4157234535770158
 30
0.0
 40
0.0467511174337429
 50
176.5926342711362054
 51
3.4073657288638071
  0
CIRCLE
  5
1E7A3
  8
0
 10
4318.2553374313547465
 20
617.4212807311383813
 30
0.0
 40
0.0234834011192038
  0
ARC
  5
1E7A4
  8
0
 10
4318.2567319170520932
 20
617.4534775319107212
 30
0.0
 40
0.0467511174337429
 50
240.0179355641687096
 51
295.0220535195109051
  0
CIRCLE
  5
1E7A5
  8
0
 10
4318.4174947890005569
 20
617.145631530982314
 30
0.0
 40
0.0467511174337429
  0
ARC
  5
1E7A6
  8
0
 10
4318.4174947890005569
 20
617.1400742534208348
 30
0.0
 40
0.0467511174337429
 50
176.5926342711362054
 51
3.4073657288638071
  0
CIRCLE
  5
1E7A7
  8
0
 10
4318.4174947890005569
 20
617.145631530982314
 30
0.0
 40
0.0234834011192038
  0
ARC
  5
1E7A8
  8
0
 10
4318.4188892746979036
 20
617.1778283317545402
 30
0.0
 40
0.0467511174337429
 50
240.0179355641687096
 51
295.0220535195109051
  0
CIRCLE
  5
1E7A9
  8
0
 10
4318.4901295026102162
 20
617.0163148319899165
 30
0.0
 40
0.0467511174337429
  0
ARC
  5
1E7AA
  8
0
 10
4318.4901295026102162
 20
617.0107575544283236
 30
0.0
 40
0.0467511174337429
 50
176.5926342711362054
 51
3.4073657288638071
  0
CIRCLE
  5
1E7AB
  8
0
 10
4318.4901295026102162
 20
617.0163148319899165
 30
0.0
 40
0.0234834011192038
  0
ARC
  5
1E7AC
  8
0
 10
4318.4915239883057438
 20
617.0485116327621427
 30
0.0
 40
0.0467511174337429
 50
240.0179355641687096
 51
295.0220535195109051
  0
CIRCLE
  5
1E7AD
  8
0
 10
4318.2253255619880292
 20
616.8061892476677031
 30
0.0
 40
0.0467511174337429
  0
ARC
  5
1E7AE
  8
0
 10
4318.2253255619880292
 20
616.8006319701061102
 30
0.0
 40
0.0467511174337429
 50
176.5926342711362054
 51
3.4073657288638071
  0
CIRCLE
  5
1E7AF
  8
0
 10
4318.2253255619880292
 20
616.8061892476677031
 30
0.0
 40
0.0234834011192038
  0
ARC
  5
1E7B0
  8
0
 10
4318.2267200476853759
 20
616.8383860484399293
 30
0.0
 40
0.0467511174337429
 50
240.0179355641687096
 51
295.0220535195109051
  0
CIRCLE
  5
1E7B1
  8
0
 10
4318.1194033800329635
 20
616.9208802786173464
 30
0.0
 40
0.0467511174337429
  0
ARC
  5
1E7B2
  8
0
 10
4318.1194033800329635
 20
616.9153230010557536
 30
0.0
 40
0.0467511174337429
 50
176.5926342711362054
 51
3.4073657288638071
  0
CIRCLE
  5
1E7B3
  8
0
 10
4318.1194033800329635
 20
616.9208802786173464
 30
0.0
 40
0.0234834011192038
  0
ARC
  5
1E7B4
  8
0
 10
4318.1207978657303101
 20
616.9530770793896863
 30
0.0
 40
0.0467511174337429
 50
240.0179355641687096
 51
295.0220535195109051
  0
CIRCLE
  5
1E7B5
  8
0
 10
4317.9092850275737874
 20
617.1470069539858514
 30
0.0
 40
0.0467511174337429
  0
ARC
  5
1E7B6
  8
0
 10
4317.9092850275737874
 20
617.1414496764241449
 30
0.0
 40
0.0467511174337429
 50
176.5926342711362054
 51
3.4073657288638071
  0
CIRCLE
  5
1E7B7
  8
0
 10
4317.9092850275737874
 20
617.1470069539858514
 30
0.0
 40
0.0234834011192038
  0
ARC
  5
1E7B8
  8
0
 10
4317.9106795132702246
 20
617.1792037547579639
 30
0.0
 40
0.0467511174337429
 50
240.0179355641687096
 51
295.0220535195109051
  0
CIRCLE
  5
1E7B9
  8
0
 10
4317.7709745086031035
 20
617.297066861397866
 30
0.0
 40
0.0467511174337429
  0
ARC
  5
1E7BA
  8
0
 10
4317.7709745086031035
 20
617.2915095838362731
 30
0.0
 40
0.0467511174337429
 50
176.5926342711362054
 51
3.4073657288638071
  0
CIRCLE
  5
1E7BB
  8
0
 10
4317.7709745086031035
 20
617.297066861397866
 30
0.0
 40
0.0234834011192038
  0
ARC
  5
1E7BC
  8
0
 10
4317.7723689943004501
 20
617.3292636621702059
 30
0.0
 40
0.0467511174337429
 50
240.0179355641687096
 51
295.0220535195109051
  0
CIRCLE
  5
1E7BD
  8
0
 10
4317.4685935825773413
 20
616.9263537391774435
 30
0.0
 40
0.0467511174337429
  0
ARC
  5
1E7BE
  8
0
 10
4317.4685935825773413
 20
616.920796461616078
 30
0.0
 40
0.0467511174337429
 50
176.5926342711362054
 51
3.4073657288638071
  0
CIRCLE
  5
1E7BF
  8
0
 10
4317.4685935825773413
 20
616.9263537391774435
 30
0.0
 40
0.0234834011192038
  0
ARC
  5
1E7C0
  8
0
 10
4317.4699880682737785
 20
616.9585505399496697
 30
0.0
 40
0.0467511174337429
 50
240.0179355641687096
 51
295.0220535195109051
  0
CIRCLE
  5
1E7C1
  8
0
 10
4317.6355112957471647
 20
616.8139596958293396
 30
0.0
 40
0.0467511174337429
  0
ARC
  5
1E7C2
  8
0
 10
4317.6355112957471647
 20
616.8084024182677467
 30
0.0
 40
0.0467511174337429
 50
176.5926342711362054
 51
3.4073657288638071
  0
CIRCLE
  5
1E7C3
  8
0
 10
4317.6355112957471647
 20
616.8139596958293396
 30
0.0
 40
0.0234834011192038
  0
ARC
  5
1E7C4
  8
0
 10
4317.6369057814426924
 20
616.8461564966014521
 30
0.0
 40
0.0467511174337429
 50
240.0179355641687096
 51
295.0220535195109051
  0
CIRCLE
  5
1E7C5
  8
0
 10
4317.8874589545412164
 20
616.6357368014428175
 30
0.0
 40
0.0467511174337429
  0
ARC
  5
1E7C6
  8
0
 10
4317.8874589545412164
 20
616.6301795238812247
 30
0.0
 40
0.0467511174337429
 50
176.5926342711362054
 51
3.4073657288638071
  0
CIRCLE
  5
1E7C7
  8
0
 10
4317.8874589545412164
 20
616.6357368014428175
 30
0.0
 40
0.0234834011192038
  0
ARC
  5
1E7C8
  8
0
 10
4317.8888534402367441
 20
616.6679336022150437
 30
0.0
 40
0.0467511174337429
 50
240.0179355641687096
 51
295.0220535195109051
  0
CIRCLE
  5
1E7C9
  8
0
 10
4318.0092796263716082
 20
616.5432458872378447
 30
0.0
 40
0.0467511174337429
  0
ARC
  5
1E7CA
  8
0
 10
4318.0092796263716082
 20
616.5376886096762519
 30
0.0
 40
0.0467511174337429
 50
176.5926342711362054
 51
3.4073657288638071
  0
CIRCLE
  5
1E7CB
  8
0
 10
4318.0092796263716082
 20
616.5432458872378447
 30
0.0
 40
0.0234834011192038
  0
ARC
  5
1E7CC
  8
0
 10
4318.0106741120689549
 20
616.5754426880099572
 30
0.0
 40
0.0467511174337429
 50
240.0179355641687096
 51
295.0220535195109051
  0
CIRCLE
  5
1E7CD
  8
0
 10
4317.8610764331770042
 20
616.2472888463946674
 30
0.0
 40
0.0467511174337429
  0
ARC
  5
1E7CE
  8
0
 10
4317.8610764331770042
 20
616.2417315688331882
 30
0.0
 40
0.0467511174337429
 50
176.5926342711362054
 51
3.4073657288638071
  0
CIRCLE
  5
1E7CF
  8
0
 10
4317.8610764331770042
 20
616.2472888463946674
 30
0.0
 40
0.0234834011192038
  0
ARC
  5
1E7D0
  8
0
 10
4317.8624709188743509
 20
616.279485647167121
 30
0.0
 40
0.0467511174337429
 50
240.0179355641687096
 51
295.0220535195109051
  0
CIRCLE
  5
1E7D1
  8
0
 10
4317.7225204894793933
 20
616.3085768058037957
 30
0.0
 40
0.0467511174337429
  0
ARC
  5
1E7D2
  8
0
 10
4317.7225204894793933
 20
616.3030195282422028
 30
0.0
 40
0.0467511174337429
 50
176.5926342711362054
 51
3.4073657288638071
  0
CIRCLE
  5
1E7D3
  8
0
 10
4317.7225204894793933
 20
616.3085768058037957
 30
0.0
 40
0.0234834011192038
  0
ARC
  5
1E7D4
  8
0
 10
4317.723914975174921
 20
616.3407736065760218
 30
0.0
 40
0.0467511174337429
 50
240.0179355641687096
 51
295.0220535195109051
  0
CIRCLE
  5
1E7D5
  8
0
 10
4317.4428601871159117
 20
616.4284311317014726
 30
0.0
 40
0.0467511174337429
  0
ARC
  5
1E7D6
  8
0
 10
4317.4428601871159117
 20
616.4228738541398798
 30
0.0
 40
0.0467511174337429
 50
176.5926342711362054
 51
3.4073657288638071
  0
CIRCLE
  5
1E7D7
  8
0
 10
4317.4428601871159117
 20
616.4284311317014726
 30
0.0
 40
0.0234834011192038
  0
ARC
  5
1E7D8
  8
0
 10
4317.4442546728123489
 20
616.4606279324735851
 30
0.0
 40
0.0467511174337429
 50
240.0179355641687096
 51
295.0220535195109051
  0
CIRCLE
  5
1E7D9
  8
0
 10
4317.2528512402286651
 20
616.492075666587084
 30
0.0
 40
0.0467511174337429
  0
ARC
  5
1E7DA
  8
0
 10
4317.2528512402286651
 20
616.4865183890257185
 30
0.0
 40
0.0467511174337429
 50
176.5926342711362054
 51
3.4073657288638071
  0
CIRCLE
  5
1E7DB
  8
0
 10
4317.2528512402286651
 20
616.492075666587084
 30
0.0
 40
0.0234834011192038
  0
ARC
  5
1E7DC
  8
0
 10
4317.2542457259251023
 20
616.5242724673594239
 30
0.0
 40
0.0467511174337429
 50
240.0179355641687096
 51
295.0220535195109051
  0
CIRCLE
  5
1E7DD
  8
0
 10
4317.7842640693761496
 20
615.9222587421500066
 30
0.0
 40
0.0467511174337429
  0
ARC
  5
1E7DE
  8
0
 10
4317.7842640693761496
 20
615.9167014645885274
 30
0.0
 40
0.0467511174337429
 50
176.5926342711362054
 51
3.4073657288638071
  0
CIRCLE
  5
1E7DF
  8
0
 10
4317.7842640693761496
 20
615.9222587421500066
 30
0.0
 40
0.0234834011192038
  0
ARC
  5
1E7E0
  8
0
 10
4317.7856585550725868
 20
615.9544555429222328
 30
0.0
 40
0.0467511174337429
 50
240.0179355641687096
 51
295.0220535195109051
  0
CIRCLE
  5
1E7E1
  8
0
 10
4317.6388346199755688
 20
615.9506211405107479
 30
0.0
 40
0.0467511174337429
  0
ARC
  5
1E7E2
  8
0
 10
4317.6388346199755688
 20
615.945063862949155
 30
0.0
 40
0.0467511174337429
 50
176.5926342711362054
 51
3.4073657288638071
  0
CIRCLE
  5
1E7E3
  8
0
 10
4317.6388346199755688
 20
615.9506211405107479
 30
0.0
 40
0.0234834011192038
  0
ARC
  5
1E7E4
  8
0
 10
4317.640229105672006
 20
615.9828179412828604
 30
0.0
 40
0.0467511174337429
 50
240.0179355641687096
 51
295.0220535195109051
  0
CIRCLE
  5
1E7E5
  8
0
 10
4317.3484162176609971
 20
616.006230043325445
 30
0.0
 40
0.0467511174337429
  0
ARC
  5
1E7E6
  8
0
 10
4317.3484162176609971
 20
616.0006727657639658
 30
0.0
 40
0.0467511174337429
 50
176.5926342711362054
 51
3.4073657288638071
  0
CIRCLE
  5
1E7E7
  8
0
 10
4317.3484162176609971
 20
616.006230043325445
 30
0.0
 40
0.0234834011192038
  0
ARC
  5
1E7E8
  8
0
 10
4317.3498107033574342
 20
616.0384268440978985
 30
0.0
 40
0.0467511174337429
 50
240.0179355641687096
 51
295.0220535195109051
  0
CIRCLE
  5
1E7E9
  8
0
 10
4317.1514655708760984
 20
616.0372825465237838
 30
0.0
 40
0.0467511174337429
  0
ARC
  5
1E7EA
  8
0
 10
4317.1514655708760984
 20
616.0317252689623047
 30
0.0
 40
0.0467511174337429
 50
176.5926342711362054
 51
3.4073657288638071
  0
CIRCLE
  5
1E7EB
  8
0
 10
4317.1514655708760984
 20
616.0372825465237838
 30
0.0
 40
0.0234834011192038
  0
ARC
  5
1E7EC
  8
0
 10
4317.152860056573445
 20
616.06947934729601
 30
0.0
 40
0.0467511174337429
 50
240.0179355641687096
 51
295.0220535195109051
  0
CIRCLE
  5
1E7ED
  8
0
 10
4317.1499845983498744
 20
615.5777643051368386
 30
0.0
 40
0.0467511174337429
  0
ARC
  5
1E7EE
  8
0
 10
4317.1499845983498744
 20
615.5722070275753595
 30
0.0
 40
0.0467511174337429
 50
176.5926342711362054
 51
3.4073657288638071
  0
CIRCLE
  5
1E7EF
  8
0
 10
4317.1499845983498744
 20
615.5777643051368386
 30
0.0
 40
0.0234834011192038
  0
ARC
  5
1E7F0
  8
0
 10
4317.1513790840463116
 20
615.6099611059089511
 30
0.0
 40
0.0467511174337429
 50
240.0179355641687096
 51
295.0220535195109051
  0
CIRCLE
  5
1E7F1
  8
0
 10
4317.3420097010675818
 20
615.5828067040857832
 30
0.0
 40
0.0467511174337429
  0
ARC
  5
1E7F2
  8
0
 10
4317.3420097010675818
 20
615.5772494265244177
 30
0.0
 40
0.0467511174337429
 50
176.5926342711362054
 51
3.4073657288638071
  0
CIRCLE
  5
1E7F3
  8
0
 10
4317.3420097010675818
 20
615.5828067040857832
 30
0.0
 40
0.0234834011192038
  0
ARC
  5
1E7F4
  8
0
 10
4317.3434041867649285
 20
615.6150035048582367
 30
0.0
 40
0.0467511174337429
 50
240.0179355641687096
 51
295.0220535195109051
  0
CIRCLE
  5
1E7F5
  8
0
 10
4317.6420898162687081
 20
615.5884836411331662
 30
0.0
 40
0.0467511174337429
  0
ARC
  5
1E7F6
  8
0
 10
4317.6420898162687081
 20
615.5829263635715733
 30
0.0
 40
0.0467511174337429
 50
176.5926342711362054
 51
3.4073657288638071
  0
CIRCLE
  5
1E7F7
  8
0
 10
4317.6420898162687081
 20
615.5884836411331662
 30
0.0
 40
0.0234834011192038
  0
ARC
  5
1E7F8
  8
0
 10
4317.6434843019651453
 20
615.6206804419053924
 30
0.0
 40
0.0467511174337429
 50
240.0179355641687096
 51
295.0220535195109051
  0
CIRCLE
  5
1E7F9
  8
0
 10
4317.7821903139247297
 20
615.5951067185375223
 30
0.0
 40
0.0467511174337429
  0
ARC
  5
1E7FA
  8
0
 10
4317.7821903139247297
 20
615.5895494409760431
 30
0.0
 40
0.0467511174337429
 50
176.5926342711362054
 51
3.4073657288638071
  0
CIRCLE
  5
1E7FB
  8
0
 10
4317.7821903139247297
 20
615.5951067185375223
 30
0.0
 40
0.0234834011192038
  0
ARC
  5
1E7FC
  8
0
 10
4317.7835847996220764
 20
615.6273035193097485
 30
0.0
 40
0.0467511174337429
 50
240.0179355641687096
 51
295.0220535195109051
  0
CIRCLE
  5
1E7FD
  8
0
 10
4317.8611360698851058
 20
615.2654136114631456
 30
0.0
 40
0.0467511174337429
  0
ARC
  5
1E7FE
  8
0
 10
4317.8611360698851058
 20
615.2598563339015527
 30
0.0
 40
0.0467511174337429
 50
176.5926342711362054
 51
3.4073657288638071
  0
CIRCLE
  5
1E7FF
  8
0
 10
4317.8611360698851058
 20
615.2654136114631456
 30
0.0
 40
0.0234834011192038
  0
ARC
  5
1E800
  8
0
 10
4317.8625305555824525
 20
615.2976104122353718
 30
0.0
 40
0.0467511174337429
 50
240.0179355641687096
 51
295.0220535195109051
  0
CIRCLE
  5
1E801
  8
0
 10
4317.7226904555136571
 20
615.2297034405230534
 30
0.0
 40
0.0467511174337429
  0
ARC
  5
1E802
  8
0
 10
4317.7226904555136571
 20
615.2241461629613468
 30
0.0
 40
0.0467511174337429
 50
176.5926342711362054
 51
3.4073657288638071
  0
CIRCLE
  5
1E803
  8
0
 10
4317.7226904555136571
 20
615.2297034405230534
 30
0.0
 40
0.0234834011192038
  0
ARC
  5
1E804
  8
0
 10
4317.7240849412100943
 20
615.2619002412952796
 30
0.0
 40
0.0467511174337429
 50
240.0179355641687096
 51
295.0220535195109051
  0
CIRCLE
  5
1E805
  8
0
 10
4317.4424625737947281
 20
615.1553084846422053
 30
0.0
 40
0.0467511174337429
  0
ARC
  5
1E806
  8
0
 10
4317.4424625737947281
 20
615.1497512070806124
 30
0.0
 40
0.0467511174337429
 50
176.5926342711362054
 51
3.4073657288638071
  0
CIRCLE
  5
1E807
  8
0
 10
4317.4424625737947281
 20
615.1553084846422053
 30
0.0
 40
0.0234834011192038
  0
ARC
  5
1E808
  8
0
 10
4317.4438570594911653
 20
615.1875052854144315
 30
0.0
 40
0.0467511174337429
 50
240.0179355641687096
 51
295.0220535195109051
  0
CIRCLE
  5
1E809
  8
0
 10
4317.2586698773156968
 20
615.1069992416746572
 30
0.0
 40
0.0467511174337429
  0
ARC
  5
1E80A
  8
0
 10
4317.2586698773156968
 20
615.1014419641132918
 30
0.0
 40
0.0467511174337429
 50
176.5926342711362054
 51
3.4073657288638071
  0
CIRCLE
  5
1E80B
  8
0
 10
4317.2586698773156968
 20
615.1069992416746572
 30
0.0
 40
0.0234834011192038
  0
ARC
  5
1E80C
  8
0
 10
4317.2600643630130435
 20
615.1391960424469971
 30
0.0
 40
0.0467511174337429
 50
240.0179355641687096
 51
295.0220535195109051
  0
CIRCLE
  5
1E80D
  8
0
 10
4317.4668085571056508
 20
614.6828419381972708
 30
0.0
 40
0.0467511174337429
  0
ARC
  5
1E80E
  8
0
 10
4317.4668085571056508
 20
614.6772846606359053
 30
0.0
 40
0.0467511174337429
 50
176.5926342711362054
 51
3.4073657288638071
  0
CIRCLE
  5
1E80F
  8
0
 10
4317.4668085571056508
 20
614.6828419381972708
 30
0.0
 40
0.0234834011192038
  0
ARC
  5
1E810
  8
0
 10
4317.468203042802088
 20
614.7150387389696107
 30
0.0
 40
0.0467511174337429
 50
240.0179355641687096
 51
295.0220535195109051
  0
CIRCLE
  5
1E811
  8
0
 10
4317.639814409139035
 20
614.7650543446163738
 30
0.0
 40
0.0467511174337429
  0
ARC
  5
1E812
  8
0
 10
4317.639814409139035
 20
614.7594970670548946
 30
0.0
 40
0.0467511174337429
 50
176.5926342711362054
 51
3.4073657288638071
  0
CIRCLE
  5
1E813
  8
0
 10
4317.639814409139035
 20
614.7650543446163738
 30
0.0
 40
0.0234834011192038
  0
ARC
  5
1E814
  8
0
 10
4317.6412088948372912
 20
614.7972511453886
 30
0.0
 40
0.0467511174337429
 50
240.0179355641687096
 51
295.0220535195109051
  0
CIRCLE
  5
1E815
  8
0
 10
4317.8817465956517481
 20
614.9041122732747908
 30
0.0
 40
0.0467511174337429
  0
ARC
  5
1E816
  8
0
 10
4317.8817465956517481
 20
614.8985549957134253
 30
0.0
 40
0.0467511174337429
 50
176.5926342711362054
 51
3.4073657288638071
  0
CIRCLE
  5
1E817
  8
0
 10
4317.8817465956517481
 20
614.9041122732747908
 30
0.0
 40
0.0234834011192038
  0
ARC
  5
1E818
  8
0
 10
4317.8831410813490947
 20
614.9363090740472444
 30
0.0
 40
0.0467511174337429
 50
240.0179355641687096
 51
295.0220535195109051
  0
CIRCLE
  5
1E819
  8
0
 10
4318.0089999253978021
 20
614.9624476408040437
 30
0.0
 40
0.0467511174337429
  0
ARC
  5
1E81A
  8
0
 10
4318.0089999253978021
 20
614.9568903632424508
 30
0.0
 40
0.0467511174337429
 50
176.5926342711362054
 51
3.4073657288638071
  0
CIRCLE
  5
1E81B
  8
0
 10
4318.0089999253978021
 20
614.9624476408040437
 30
0.0
 40
0.0234834011192038
  0
ARC
  5
1E81C
  8
0
 10
4318.0103944110951488
 20
614.9946444415761562
 30
0.0
 40
0.0467511174337429
 50
240.0179355641687096
 51
295.0220535195109051
  0
CIRCLE
  5
1E81D
  8
0
 10
4317.7715426903869229
 20
614.3170577641805039
 30
0.0
 40
0.0467511174337429
  0
ARC
  5
1E81E
  8
0
 10
4317.7715426903869229
 20
614.3115004866189111
 30
0.0
 40
0.0467511174337429
 50
176.5926342711362054
 51
3.4073657288638071
  0
CIRCLE
  5
1E81F
  8
0
 10
4317.7715426903869229
 20
614.3170577641805039
 30
0.0
 40
0.0234834011192038
  0
ARC
  5
1E820
  8
0
 10
4317.7736476086347466
 20
614.3658228403797921
 30
0.0
 40
0.0467511174337429
 50
239.1823242054306036
 51
295.8744613631865263
  0
CIRCLE
  5
1E821
  8
0
 10
4317.9120190096937222
 20
614.4364796867256473
 30
0.0
 40
0.0467511174337429
  0
ARC
  5
1E822
  8
0
 10
4317.9120190096937222
 20
614.4309224091640544
 30
0.0
 40
0.0467511174337429
 50
176.5926342711362054
 51
3.4073657288638071
  0
CIRCLE
  5
1E823
  8
0
 10
4317.9120190096937222
 20
614.4364796867256473
 30
0.0
 40
0.0234834011192038
  0
ARC
  5
1E824
  8
0
 10
4317.9141239279415458
 20
614.4852447629249355
 30
0.0
 40
0.0467511174337429
 50
239.1823242054306036
 51
295.8744613631865263
  0
CIRCLE
  5
1E825
  8
0
 10
4318.12600443617157
 20
614.615273039718204
 30
0.0
 40
0.0467511174337429
  0
ARC
  5
1E826
  8
0
 10
4318.12600443617157
 20
614.6097157621566112
 30
0.0
 40
0.0467511174337429
 50
176.5926342711362054
 51
3.4073657288638071
  0
CIRCLE
  5
1E827
  8
0
 10
4318.12600443617157
 20
614.615273039718204
 30
0.0
 40
0.0234834011192038
  0
ARC
  5
1E828
  8
0
 10
4318.1281093544212126
 20
614.6640381159173785
 30
0.0
 40
0.0467511174337429
 50
239.1823242054306036
 51
295.8744613631865263
  0
CIRCLE
  5
1E829
  8
0
 10
4318.2226433308687774
 20
614.7011316549087496
 30
0.0
 40
0.0467511174337429
  0
ARC
  5
1E82A
  8
0
 10
4318.2226433308687774
 20
614.6955743773471568
 30
0.0
 40
0.0467511174337429
 50
176.5926342711362054
 51
3.4073657288638071
  0
CIRCLE
  5
1E82B
  8
0
 10
4318.2226433308687774
 20
614.7011316549087496
 30
0.0
 40
0.0234834011192038
  0
ARC
  5
1E82C
  8
0
 10
4318.2247482491166011
 20
614.7498967311080378
 30
0.0
 40
0.0467511174337429
 50
239.1823242054306036
 51
295.8744613631865263
  0
CIRCLE
  5
1E82D
  8
0
 10
4318.1532175409320189
 20
614.0185039464124657
 30
0.0
 40
0.0467511174337429
  0
ARC
  5
1E82E
  8
0
 10
4318.1532175409320189
 20
614.0129466688508728
 30
0.0
 40
0.0467511174337429
 50
176.5926342711362054
 51
3.4073657288638071
  0
CIRCLE
  5
1E82F
  8
0
 10
4318.1532175409320189
 20
614.0185039464124657
 30
0.0
 40
0.0234834011192038
  0
ARC
  5
1E830
  8
0
 10
4318.155322459180752
 20
614.0672690226117538
 30
0.0
 40
0.0467511174337429
 50
239.1823242054306036
 51
295.8744613631865263
  0
CIRCLE
  5
1E831
  8
0
 10
4318.252784889557006
 20
614.1677808552965416
 30
0.0
 40
0.0467511174337429
  0
ARC
  5
1E832
  8
0
 10
4318.252784889557006
 20
614.1622235777349488
 30
0.0
 40
0.0467511174337429
 50
176.5926342711362054
 51
3.4073657288638071
  0
CIRCLE
  5
1E833
  8
0
 10
4318.252784889557006
 20
614.1677808552965416
 30
0.0
 40
0.0234834011192038
  0
ARC
  5
1E834
  8
0
 10
4318.2548898078057391
 20
614.2165459314957161
 30
0.0
 40
0.0467511174337429
 50
239.1823242054306036
 51
295.8744613631865263
  0
CIRCLE
  5
1E835
  8
0
 10
4318.411001105950163
 20
614.3884604695339249
 30
0.0
 40
0.0467511174337429
  0
ARC
  5
1E836
  8
0
 10
4318.411001105950163
 20
614.3829031919724457
 30
0.0
 40
0.0467511174337429
 50
176.5926342711362054
 51
3.4073657288638071
  0
CIRCLE
  5
1E837
  8
0
 10
4318.411001105950163
 20
614.3884604695339249
 30
0.0
 40
0.0234834011192038
  0
ARC
  5
1E838
  8
0
 10
4318.4131060241979867
 20
614.437225545733213
 30
0.0
 40
0.0467511174337429
 50
239.1823242054306036
 51
295.8744613631865263
  0
CIRCLE
  5
1E839
  8
0
 10
4318.4939738823177322
 20
614.4987107337116186
 30
0.0
 40
0.0467511174337429
  0
ARC
  5
1E83A
  8
0
 10
4318.4939738823177322
 20
614.4931534561500257
 30
0.0
 40
0.0467511174337429
 50
176.5926342711362054
 51
3.4073657288638071
  0
CIRCLE
  5
1E83B
  8
0
 10
4318.4939738823177322
 20
614.4987107337116186
 30
0.0
 40
0.0234834011192038
  0
ARC
  5
1E83C
  8
0
 10
4318.4960788005673749
 20
614.547475809910793
 30
0.0
 40
0.0467511174337429
 50
239.1823242054306036
 51
295.8744613631865263
  0
ARC
  5
1E83D
  8
0
 10
4315.1866949307968753
 20
607.9380958129518149
 30
0.0
 40
3.609146141417642
 50
3.4872173298399658
 51
7.8481676621587377
  0
ARC
  5
1E83E
  8
0
 10
4322.4508869399551259
 20
608.9393885429326474
 30
0.0
 40
3.7237300117039891
 50
182.6219377295290087
 51
187.8481676621586871
  0
ARC
  5
1E83F
  8
0
 10
4318.8471867183206996
 20
608.1430603832216093
 30
0.0
 40
0.00787401610586
 50
209.9991173882542057
 51
270.000000006617995
  0
LINE
  5
1E840
  8
0
 10
4318.7310551981663593
 20
608.7690447351690182
 30
0.0
 11
4318.7310551981663593
 21
612.5407093068198492
 31
0.0
  0
ARC
  5
1E841
  8
0
 10
4318.7428551981647615
 20
612.5407093068198492
 30
0.0
 40
0.0118
 50
90.0000000000521254
 51
179.9999999999674003
  0
LINE
  5
1E842
  8
0
 10
4318.7312303820390298
 20
612.5721833226203898
 30
0.0
 11
4318.7312303820390298
 21
612.6387212911216693
 31
0.0
  0
ARC
  5
1E843
  8
0
 10
4318.743030382039251
 20
612.5721833226203898
 30
0.0
 40
0.0118
 50
180.0000000000260059
 51
270.0
  0
LINE
  5
1E844
  8
0
 10
4318.7625410340206145
 20
612.5548231632985789
 30
0.0
 11
4318.7681011932418187
 21
612.5603833226205097
 31
0.0
  0
ARC
  5
1E845
  8
0
 10
4318.7569548903993564
 20
612.5604093068199063
 30
0.0
 40
0.0079
 50
269.9999999999478746
 51
315.0000005145336104
  0
ARC
  5
1E846
  8
0
 10
4318.8088218770790263
 20
608.1588234802137549
 30
0.0
 40
0.0197
 50
183.4872173298398934
 51
270.0
  0
ARC
  5
1E847
  8
0
 10
4317.2636441049680798
 20
612.5598472035817394
 30
0.0
 40
1.469704256758434
 50
3.0763498160002598
 51
15.1085755536951005
  0
LINE
  5
1E848
  8
0
 10
4318.8088218770790263
 20
608.1391234802135841
 30
0.0
 11
4319.7946447977974458
 21
608.1391234802135841
 31
0.0
  0
LINE
  5
1E849
  8
0
 10
4318.8471867183206996
 20
608.1351863671153524
 30
0.0
 11
4319.7562799565557725
 21
608.1351863671153524
 31
0.0
  0
LINE
  5
1E84A
  8
0
 10
4318.743030382039251
 20
612.5603833226205097
 30
0.0
 11
4319.8604362928372211
 21
612.5603833226205097
 31
0.0
  0
ARC
  5
1E84B
  8
0
 10
4319.8604362928372211
 20
612.5721833226203898
 30
0.0
 40
0.0118
 50
270.0
 51
0.0
  0
LINE
  5
1E84C
  8
0
 10
4318.7428551981647615
 20
612.5525093068199567
 30
0.0
 11
4319.8606114767108011
 21
612.5525093068199567
 31
0.0
  0
LINE
  5
1E84D
  8
0
 10
4318.7625410340206145
 20
612.5548231632985789
 30
0.0
 11
4318.7681011932418187
 21
612.5603833226205097
 31
0.0
  0
ARC
  5
1E84E
  8
0
 10
4318.7569548903993564
 20
612.5604093068199063
 30
0.0
 40
0.0079
 50
269.9999999999478746
 51
315.0000005145336104
  0
ARC
  5
1E84F
  8
0
 10
4317.4632278808549017
 20
612.6064481572924478
 30
0.0
 40
1.264892417453318
 50
15.4270685180555507
 51
29.7702940315839903
  0
ARC
  5
1E850
  8
0
 10
4317.7091742142310977
 20
612.7881126382974344
 30
0.0
 40
0.9618625166657501
 50
27.6509521954763109
 51
50.5286154864144379
  0
ARC
  5
1E851
  8
0
 10
4319.3016609094584055
 20
615.8064457250435453
 30
0.0
 40
1.2205423809770961
 50
254.5344967733934993
 51
270.0033999783536842
  0
ARC
  5
1E852
  8
0
 10
4319.2974571416234539
 20
615.7912519105638012
 30
0.0
 40
1.2047777476975201
 50
229.5543485820736862
 51
254.5344967733934993
  0
ARC
  5
1E853
  8
0
 10
4319.2679766572273365
 20
615.7566683247938499
 30
0.0
 40
1.1593341192668629
 50
206.0691484001820015
 51
229.5543485820736862
  0
ARC
  5
1E854
  8
0
 10
4319.2504224232443448
 20
615.7480803120207611
 30
0.0
 40
1.1397917270351181
 50
187.9116862839537987
 51
206.0691484001820015
  0
ARC
  5
1E855
  8
0
 10
4319.1768100472836522
 20
615.7378504469410245
 30
0.0
 40
1.065471931326708
 50
168.4143324102199983
 51
187.9116862839537987
  0
ARC
  5
1E856
  8
0
 10
4319.2455463670403333
 20
615.7237588246339328
 30
0.0
 40
1.1356378452233571
 50
152.5850624412900913
 51
168.4143324102199983
  0
ARC
  5
1E857
  8
0
 10
4319.2718456094480644
 20
615.7101178923047655
 30
0.0
 40
1.165264272379273
 50
128.3915814739820007
 51
152.5850624412900913
  0
ARC
  5
1E858
  8
0
 10
4319.299595746480918
 20
615.6750953630956928
 30
0.0
 40
1.209948135882857
 50
103.6774197838087019
 51
128.3915814739820007
  0
ARC
  5
1E859
  8
0
 10
4319.3007627379320184
 20
615.6702999593328514
 30
0.0
 40
1.214883494663473
 50
89.9542250253071103
 51
103.6774197838087019
  0
ARC
  5
1E85A
  8
0
 10
4319.2975459991830576
 20
616.2607687592825414
 30
0.0
 40
1.133094989504202
 50
241.0075077353808979
 51
270.2117363131683874
  0
ARC
  5
1E85B
  8
0
 10
4319.2330266399449101
 20
616.1443367761150967
 30
0.0
 40
0.9999816752917929
 50
207.4057877533587941
 51
241.0075077353808979
  0
ARC
  5
1E85C
  8
0
 10
4319.2525588742810214
 20
616.1495770854861576
 30
0.0
 40
1.019743072814963
 50
174.5379968864675106
 51
207.1620332970123002
  0
LINE
  5
1E85D
  8
0
 10
4319.3017333374391455
 20
614.6038906757289624
 30
0.0
 11
4319.0402581361449847
 21
614.6323862684038204
 31
0.0
  0
LINE
  5
1E85E
  8
0
 10
4319.0402581361449847
 20
614.6323862684038204
 30
0.0
 11
4318.7919677395802864
 21
614.7175614290233625
 31
0.0
  0
LINE
  5
1E85F
  8
0
 10
4318.7919677395802864
 20
614.7175614290233625
 30
0.0
 11
4318.5691992215533901
 21
614.8539486835144317
 31
0.0
  0
LINE
  5
1E860
  8
0
 10
4318.5691992215533901
 20
614.8539486835144317
 30
0.0
 11
4318.383164698148903
 21
615.0352152299321915
 31
0.0
  0
LINE
  5
1E861
  8
0
 10
4318.383164698148903
 20
615.0352152299321915
 30
0.0
 11
4318.2431909824881586
 21
615.2522682572154054
 31
0.0
  0
LINE
  5
1E862
  8
0
 10
4318.2431909824881586
 20
615.2522682572154054
 30
0.0
 11
4318.1562971312159789
 21
615.4942365937273507
 31
0.0
  0
LINE
  5
1E863
  8
0
 10
4318.1562971312159789
 20
615.4942365937273507
 30
0.0
 11
4318.1268399953887638
 21
615.7489700801154413
 31
0.0
  0
LINE
  5
1E864
  8
0
 10
4318.1268399953887638
 20
615.7489700801154413
 30
0.0
 11
4318.1562750256880463
 21
616.003589804215494
 31
0.0
  0
LINE
  5
1E865
  8
0
 10
4318.1562750256880463
 20
616.003589804215494
 30
0.0
 11
4318.2374459024886164
 21
616.2466419558154485
 31
0.0
  0
LINE
  5
1E866
  8
0
 10
4319.0402581361449847
 20
614.6323862684038204
 30
0.0
 11
4319.0667715755016616
 21
615.151423267285395
 31
0.0
  0
LINE
  5
1E867
  8
0
 10
4318.7919677395802864
 20
614.7175614290233625
 30
0.0
 11
4318.8470164645623299
 21
615.2210921779967521
 31
0.0
  0
LINE
  5
1E868
  8
0
 10
4318.5691992215533901
 20
614.8539486835144317
 30
0.0
 11
4318.6428456311696209
 21
615.3370885318927321
 31
0.0
  0
ARC
  5
1E869
  8
0
 10
4367.6001548836602524
 20
605.0661452997632068
 30
0.0
 40
50.2164761626442484
 50
168.0202014623895934
 51
168.5494633167920995
  0
ARC
  5
1E86A
  8
0
 10
4318.9840888523449394
 20
615.3218429897192436
 30
0.0
 40
0.7441574409761511
 50
149.9463594689879073
 51
185.3646834298814952
  0
ARC
  5
1E86B
  8
0
 10
4318.9079310401039038
 20
615.5061229086823005
 30
0.0
 40
0.7517278879181845
 50
148.7962963888691093
 51
180.9059981326558102
  0
ARC
  5
1E86C
  8
0
 10
4319.2476569398713764
 20
615.5851581795666334
 30
0.0
 40
1.132724574554939
 50
153.4409709782065079
 51
171.684864569524791
  0
ARC
  5
1E86D
  8
0
 10
4318.9115192889303216
 20
613.950044520931101
 30
0.0
 40
0.2775388286146586
 50
192.7105290599085947
 51
329.6057122986139802
  0
ARC
  5
1E86E
  8
0
 10
4318.9711210252071396
 20
613.915084377063522
 30
0.0
 40
0.2084405028271434
 50
329.6057122986139802
 51
28.6018248900945302
  0
ARC
  5
1E86F
  8
0
 10
4318.9049952005507294
 20
613.8790286748244398
 30
0.0
 40
0.2837574222454806
 50
28.6018248900945302
 51
143.2026235750178955
  0
ARC
  5
1E870
  8
0
 10
4318.8408476927561424
 20
613.9270125607856698
 30
0.0
 40
0.203649020263218
 50
143.2026235750178955
 51
190.7638075083029037
  0
CIRCLE
  5
1E871
  8
0
 10
4319.3017333374391455
 20
611.9973958759193238
 30
0.0
 40
0.2756621219146069
  0
CIRCLE
  5
1E872
  8
0
 10
4319.3017333374391455
 20
611.9973958759193238
 30
0.0
 40
0.2545825904838797
  0
CIRCLE
  5
1E873
  8
0
 10
4319.3017333374391455
 20
611.9973958759193238
 30
0.0
 40
0.2851897439833197
  0
LINE
  5
1E874
  8
0
 10
4319.5502809003228322
 20
611.8575484624391265
 30
0.0
 11
4319.5495726514627677
 21
611.8767091745710331
 31
0.0
  0
LINE
  5
1E875
  8
0
 10
4319.3425910691876197
 20
611.7151480489487767
 30
0.0
 11
4319.3426028166431934
 21
611.7247802286647129
 31
0.0
  0
LINE
  5
1E876
  8
0
 10
4319.4215221457889129
 20
611.738583527938431
 30
0.0
 11
4319.4215742249507457
 21
611.7491464708067497
 31
0.0
  0
LINE
  5
1E877
  8
0
 10
4319.5491648861261638
 20
612.118916385185571
 30
0.0
 11
4319.550084664600945
 21
612.1375914834449077
 31
0.0
  0
LINE
  5
1E878
  8
0
 10
4319.4920393839820463
 20
612.1968281052787688
 30
0.0
 11
4319.4922898130889735
 21
612.2095783908941939
 31
0.0
  0
LINE
  5
1E879
  8
0
 10
4319.3424948505316934
 20
612.2700276871753431
 30
0.0
 11
4319.3424221562972889
 21
612.2796681028440844
 31
0.0
  0
LINE
  5
1E87A
  8
0
 10
4319.0531857745536399
 20
611.8575484624391265
 30
0.0
 11
4319.0538940234137044
 21
611.8767091745710331
 31
0.0
  0
LINE
  5
1E87B
  8
0
 10
4319.2608756056888524
 20
611.7151480489487767
 30
0.0
 11
4319.2608638582341882
 21
611.7247802286647129
 31
0.0
  0
LINE
  5
1E87C
  8
0
 10
4319.1819445290875592
 20
611.738583527938431
 30
0.0
 11
4319.1818924499257264
 21
611.7491464708067497
 31
0.0
  0
LINE
  5
1E87D
  8
0
 10
4319.0543017887503083
 20
612.118916385185571
 30
0.0
 11
4319.0533820102764366
 21
612.1375914834449077
 31
0.0
  0
LINE
  5
1E87E
  8
0
 10
4319.1114272908944258
 20
612.1968281052787688
 30
0.0
 11
4319.1111768617884081
 21
612.2095783908941939
 31
0.0
  0
LINE
  5
1E87F
  8
0
 10
4319.2609718243438692
 20
612.2700276871753431
 30
0.0
 11
4319.2610445185791832
 21
612.2796681028440844
 31
0.0
  0
ARC
  5
1E880
  8
0
 10
4319.2770920461416608
 20
615.6453427714236568
 30
0.0
 40
2.734418003079329
 50
70.5110724391497143
 51
89.483670345652726
  0
ARC
  5
1E881
  8
0
 10
4319.3089366236390561
 20
615.8212264392204816
 30
0.0
 40
2.5581478196274618
 50
43.7038123828035907
 51
69.8691714838787163
  0
ARC
  5
1E882
  8
0
 10
4319.3316962979743039
 20
615.8429789539786725
 30
0.0
 40
2.526664892918705
 50
18.9058836168392617
 51
43.7038123828035907
  0
ARC
  5
1E883
  8
0
 10
4319.2954036848122996
 20
615.8305490513290579
 30
0.0
 40
2.5650270650415719
 50
356.8331412006431265
 51
18.9058836168392617
  0
ARC
  5
1E884
  8
0
 10
4319.4680059374086341
 20
615.8209992332206184
 30
0.0
 40
2.3921608259216982
 50
333.9254884196217859
 51
356.8331412006431265
  0
ARC
  5
1E885
  8
0
 10
4319.3074500508009805
 20
615.8995662037279999
 30
0.0
 40
2.570909145017195
 50
317.8471488592020933
 51
333.9254884196217859
  0
ARC
  5
1E886
  8
0
 10
4319.3778912981406393
 20
615.8357995276367092
 30
0.0
 40
2.4758925238046312
 50
295.384361036568805
 51
317.8471488592020933
  0
ARC
  5
1E887
  8
0
 10
4319.2663675578478433
 20
616.0708335253623318
 30
0.0
 40
2.7360434890840448
 50
281.1757683992642001
 51
295.384361036568805
  0
ARC
  5
1E888
  8
0
 10
4319.2949400789348147
 20
616.0251163110581274
 30
0.0
 40
2.685723704581322
 50
270.1449238638367092
 51
280.7668063288982125
  0
ARC
  5
1E889
  8
0
 10
4319.3021351640272769
 20
615.9415353372498885
 30
0.0
 40
2.540588542353063
 50
269.9909379392381084
 51
285.1962682161836256
  0
ARC
  5
1E88A
  8
0
 10
4319.3071258419322476
 20
615.9231618613431465
 30
0.0
 40
2.5215493332614032
 50
285.1962682161836256
 51
296.8859711059994879
  0
ARC
  5
1E88B
  8
0
 10
4319.3251893503584142
 20
615.8875351239171323
 30
0.0
 40
2.4816049374556011
 50
296.8859711059994879
 51
314.0321199075568757
  0
ARC
  5
1E88C
  8
0
 10
4319.3710581968080078
 20
615.8400897997429411
 30
0.0
 40
2.4156124389378149
 50
314.0321199075568757
 51
338.2144214411791836
  0
ARC
  5
1E88D
  8
0
 10
4319.4311635206731808
 20
615.8160669324319088
 30
0.0
 40
2.350884175321708
 50
338.2144214411791836
 51
359.7957823057309952
  0
ARC
  5
1E88E
  8
0
 10
4319.4150384667100298
 20
615.8161244067398457
 30
0.0
 40
2.3670093317115031
 50
359.7957823057309952
 51
18.6246787480579208
  0
ARC
  5
1E88F
  8
0
 10
4319.3937555371512644
 20
615.8089517027955253
 30
0.0
 40
2.3894684227995291
 50
18.6246787480579208
 51
42.6176901767493774
  0
ARC
  5
1E890
  8
0
 10
4319.3183836055723077
 20
615.7396006980369521
 30
0.0
 40
2.4918915155620578
 50
42.6176901767493774
 51
61.1195501477564989
  0
ARC
  5
1E891
  8
0
 10
4319.3145134489923294
 20
615.7325842640130986
 30
0.0
 40
2.499904533618015
 50
61.1195501477564989
 51
77.9754114336364523
  0
ARC
  5
1E892
  8
0
 10
4319.2960060952718777
 20
615.6456973774430708
 30
0.0
 40
2.5887406366366652
 50
77.9754114336364523
 51
87.2931222862312666
  0
ARC
  5
1E893
  8
0
 10
4319.2309401681613963
 20
612.5982727016355511
 30
0.0
 40
5.6363904796742341
 50
88.0954517417547436
 51
89.2803450211841039
  0
ARC
  5
1E894
  8
0
 10
4319.3017263267447561
 20
615.6892837989945519
 30
0.0
 40
2.5370445556304371
 50
82.0634720053238738
 51
89.9998416727215869
  0
ARC
  5
1E895
  8
0
 10
4319.303420959565301
 20
615.7014394306343092
 30
0.0
 40
2.524771366927026
 50
64.8883694714848929
 51
82.0634720053238738
  0
ARC
  5
1E896
  8
0
 10
4319.3263249446335976
 20
615.7503083769462364
 30
0.0
 40
2.4708013155497488
 50
41.5396057667796796
 51
64.8883694714848929
  0
ARC
  5
1E897
  8
0
 10
4319.3891561566942983
 20
615.8059742132151086
 30
0.0
 40
2.3868582006643049
 50
16.7936321611718
 51
41.5396057667796796
  0
ARC
  5
1E898
  8
0
 10
4319.4242144924246531
 20
615.8171691802139094
 30
0.0
 40
2.3500606096734491
 50
353.2657282071311897
 51
16.7792896639274112
  0
ARC
  5
1E899
  8
0
 10
4319.4138703165290281
 20
615.8189856209545496
 30
0.0
 40
2.360546496331966
 50
334.8882071712649804
 51
353.2513857098920198
  0
ARC
  5
1E89A
  8
0
 10
4319.3668247277555565
 20
615.841035194092683
 30
0.0
 40
2.41250293095352
 50
305.966411412853688
 51
334.8882071712649804
  0
ARC
  5
1E89B
  8
0
 10
4319.2940250209258011
 20
615.941359021004132
 30
0.0
 40
2.536457227211085
 50
291.9232129772437929
 51
305.966411412853688
  0
ARC
  5
1E89C
  8
0
 10
4319.315208928202992
 20
615.8887240257276972
 30
0.0
 40
2.4797192271119148
 50
277.7855443080425744
 51
291.9232129772437929
  0
ARC
  5
1E89D
  8
0
 10
4319.2957186245075718
 20
616.0312741832476604
 30
0.0
 40
2.623595630135894
 50
270.1313533090871033
 51
277.7855443080425744
  0
ARC
  5
1E89E
  8
0
 10
4319.3021166592898226
 20
615.7838969575187775
 30
0.0
 40
1.3272927534549841
 50
269.9834529913667893
 51
294.3370926800511143
  0
ARC
  5
1E89F
  8
0
 10
4319.3522902428003363
 20
615.7287525900533183
 30
0.0
 40
1.2500373645914851
 50
325.1470453541846837
 51
5.0521027452177121
  0
ARC
  5
1E8A0
  8
0
 10
4319.3886050564633479
 20
615.7319630033942985
 30
0.0
 40
1.213580918725041
 50
5.0521027452177121
 51
46.7912247933927929
  0
ARC
  5
1E8A1
  8
0
 10
4319.308021426328196
 20
615.6768980754868608
 30
0.0
 40
1.309057032511082
 50
45.8705620088644324
 51
78.7703507235060982
  0
ARC
  5
1E8A2
  8
0
 10
4319.3017396512786945
 20
615.6551181093876721
 30
0.0
 40
1.331644719842739
 50
78.6877386697824051
 51
90.0002716611963791
  0
ARC
  5
1E8A3
  8
0
 10
4319.315456619780889
 20
615.7544031446600457
 30
0.0
 40
1.294922403706652
 50
294.3370926800511143
 51
325.1470453541846837
  0
ARC
  5
1E8A4
  8
0
 10
4325.3174361885339749
 20
618.6037738913678368
 30
0.0
 40
6.7753351934101547
 50
216.4136822749921123
 51
223.1018028901754064
  0
ARC
  5
1E8A5
  8
0
 10
4320.7655462231468846
 20
614.3439219334388781
 30
0.0
 40
0.541071727654015
 50
223.1018028901754064
 51
241.5964675077885033
  0
ARC
  5
1E8A6
  8
0
 10
4320.529419432305076
 20
613.9072789161984929
 30
0.0
 40
0.0446717016083428
 50
241.5964675077885033
 51
22.7393521998013988
  0
ARC
  5
1E8A7
  8
0
 10
4317.596854220422756
 20
612.7660030710642332
 30
0.0
 40
3.1914728489026651
 50
21.2852943599619913
 51
38.0377136171503167
  0
ARC
  5
1E8A8
  8
0
 10
4324.8199722658573592
 20
620.4287486406699372
 30
0.0
 40
7.3909625012254718
 50
230.4168985440994959
 51
236.8416820062427917
  0
ARC
  5
1E8A9
  8
0
 10
4321.0346895573647998
 20
614.6465636557372818
 30
0.0
 40
0.4799990239694358
 50
237.5943465667558883
 51
258.2079498418946741
  0
ARC
  5
1E8AA
  8
0
 10
4320.9435308045440252
 20
614.2099086591922514
 30
0.0
 40
0.0339300783752453
 50
258.2079498418946741
 51
19.2133961268646303
  0
ARC
  5
1E8AB
  8
0
 10
4320.1343719509413859
 20
613.8443105297993725
 30
0.0
 40
0.9217195626543842
 50
24.1271001798385392
 51
44.8729891239629026
  0
ARC
  5
1E8AC
  8
0
 10
4317.1646560011877227
 20
611.087621644324372
 30
0.0
 40
4.97324108278716
 50
43.2407707188737191
 51
50.660273804623337
  0
ARC
  5
1E8AD
  8
0
 10
4325.6072504512230807
 20
625.9514618179754279
 30
0.0
 40
12.2216933269529697
 50
244.3524175685336957
 51
247.493418380694294
  0
ARC
  5
1E8AE
  8
0
 10
4321.445195161502852
 20
615.9050702453214399
 30
0.0
 40
1.3472883036773531
 50
247.4679419894465013
 51
262.0716225970502933
  0
ARC
  5
1E8AF
  8
0
 10
4321.2644497429910189
 20
614.6072300913425579
 30
0.0
 40
0.0369227166777999
 50
262.0716225970502933
 51
39.6719851391829579
  0
ARC
  5
1E8B0
  8
0
 10
4320.412030568632872
 20
613.9002418412410407
 30
0.0
 40
1.1443751240502931
 50
39.6719851391829579
 51
61.6330953542633608
  0
ARC
  5
1E8B1
  8
0
 10
4332.8217825478013765
 20
636.8550380562205646
 30
0.0
 40
24.950157286716621
 50
240.3344420227724072
 51
241.602239363946012
  0
ARC
  5
1E8B2
  8
0
 10
4322.1322878050232248
 20
622.1198418446506366
 30
0.0
 40
7.1401882523227673
 50
256.5626856622188257
 51
264.2209351720293853
  0
ARC
  5
1E8B3
  8
0
 10
4321.430834394816884
 20
615.186965504301952
 30
0.0
 40
0.1719166202201533
 50
264.1535382253557032
 51
297.7648014426385998
  0
ARC
  5
1E8B4
  8
0
 10
4321.4958502183299061
 20
615.0634681842440159
 30
0.0
 40
0.0323507025733398
 50
297.7648014426385998
 51
59.5639733032921015
  0
ARC
  5
1E8B5
  8
0
 10
4320.6992067819537624
 20
613.9490793501679491
 30
0.0
 40
1.40207959537728
 50
54.5582175909340492
 51
74.0307988309896103
  0
ARC
  5
1E8B6
  8
0
 10
4319.0219980681113157
 20
608.9117350692215496
 30
0.0
 40
6.7102934097634153
 50
72.0955439999474095
 51
76.6725262529615179
  0
ARC
  5
1E8B7
  8
0
 10
4320.6489840523609018
 20
623.5787742920002756
 30
0.0
 40
8.1378591577981432
 50
269.4356578667154167
 51
276.0250523835567265
  0
ARC
  5
1E8B8
  8
0
 10
4321.4741552370342106
 20
615.7591092425767556
 30
0.0
 40
0.2747765457307725
 50
276.0594299090902837
 51
305.7539534560298193
  0
ARC
  5
1E8B9
  8
0
 10
4321.608911709471613
 20
615.5555884394541408
 30
0.0
 40
0.0323195312267343
 50
322.957290582032897
 51
48.18398067696711
  0
ARC
  5
1E8BA
  8
0
 10
4321.0822645505450055
 20
614.3830120140469262
 30
0.0
 40
1.316253430968344
 50
65.3873178029703581
 51
88.480419695361519
  0
ARC
  5
1E8BB
  8
0
 10
4320.5552048752160772
 20
608.9838832909623534
 30
0.0
 40
6.7383933603769881
 50
85.2161216094658585
 51
89.5994675738943869
  0
ARC
  5
1E8BC
  8
0
 10
4318.9432251895968875
 20
623.4333252318101586
 30
0.0
 40
7.8876721375407941
 50
282.1422170858838854
 51
289.5306325994694134
  0
ARC
  5
1E8BD
  8
0
 10
4321.5439865298758377
 20
616.101572328014754
 30
0.0
 40
0.108304548089247
 50
289.511069491032174
 51
330.1197547691854197
  0
ARC
  5
1E8BE
  8
0
 10
4321.6098478010017061
 20
616.0637306279562608
 30
0.0
 40
0.0323459982236177
 50
330.1197547691854197
 51
81.5003168745749207
  0
ARC
  5
1E8BF
  8
0
 10
4321.360165237462752
 20
614.3930023783775596
 30
0.0
 40
1.7216281731357399
 50
81.5003168745749207
 51
96.9407521990571155
  0
ARC
  5
1E8C0
  8
0
 10
4321.9645474971439398
 20
609.4324062432357323
 30
0.0
 40
6.718906619218842
 50
96.9450178744625077
 51
101.9702296447576941
  0
ARC
  5
1E8C1
  8
0
 10
4317.1865725860043312
 20
623.5135636816959277
 30
0.0
 40
8.2358865625264066
 50
294.2638629682879809
 51
301.2577666448360105
  0
ARC
  5
1E8C2
  8
0
 10
4321.3746712693300651
 20
616.6138835665883562
 30
0.0
 40
0.1645944560168893
 50
301.2606718192055268
 51
334.0041452720574853
  0
ARC
  5
1E8C3
  8
0
 10
4321.4931732329423539
 20
616.5560969096884492
 30
0.0
 40
0.0327535932488559
 50
334.0041452720574853
 51
85.656885636713028
  0
ARC
  5
1E8C4
  8
0
 10
4321.5407494655828486
 20
615.169697486483301
 30
0.0
 40
1.41977532465356
 50
91.820172197039696
 51
111.0106389380252949
  0
ARC
  5
1E8C5
  8
0
 10
4323.9075345733808717
 20
608.4108095907207598
 30
0.0
 40
8.5805479547154544
 50
109.5821028906746051
 51
113.5866109627614975
  0
ARC
  5
1E8C6
  8
0
 10
4317.7528069088057237
 20
620.236019431113391
 30
0.0
 40
4.8061769410268358
 50
304.4870185514242849
 51
317.4539447066376852
  0
ARC
  5
1E8C7
  8
0
 10
4321.2664273707996472
 20
617.0104789303270536
 30
0.0
 40
0.0365223226625806
 50
318.2640990102757996
 51
109.1248865246447934
  0
ARC
  5
1E8C8
  8
0
 10
4322.7754099315234271
 20
613.2805214760959416
 30
0.0
 40
4.0601074961392021
 50
112.0000802023938036
 51
127.2486206082930948
  0
ARC
  5
1E8C9
  8
0
 10
4316.3540803495770888
 20
620.215389250371345
 30
0.0
 40
5.4243867713237934
 50
316.9489672068658024
 51
328.2518096298728096
  0
ARC
  5
1E8CA
  8
0
 10
4320.9242851422095555
 20
617.3873364132757615
 30
0.0
 40
0.0499422893295698
 50
328.3726978829251948
 51
126.4314194625617063
  0
ARC
  5
1E8CB
  8
0
 10
4323.9368204137508656
 20
613.2874986984785437
 30
0.0
 40
5.1375779766088394
 50
126.309412214352804
 51
138.1815913783771066
  0
ARC
  5
1E8CC
  8
0
 10
4316.7679285005851852
 20
618.8892815651968249
 30
0.0
 40
3.9864451797328182
 50
326.9139912294987766
 51
342.5640064955293838
  0
ARC
  5
1E8CD
  8
0
 10
4320.5328682429753826
 20
617.7144447911042562
 30
0.0
 40
0.0430855579064687
 50
332.8476771393699778
 51
138.9834386591467137
  0
ARC
  5
1E8CE
  8
0
 10
4323.7612625055398894
 20
614.7204221609513297
 30
0.0
 40
4.4460970441859811
 50
137.1747611789778034
 51
151.2099223992856025
  0
ARC
  5
1E8CF
  8
0
 10
4316.5092004167590858
 20
618.1931471978876971
 30
0.0
 40
3.610058499451767
 50
338.356891492219404
 51
355.6361390446343762
  0
ARC
  5
1E8D0
  8
0
 10
4320.0622879550883226
 20
617.9219980747194541
 30
0.0
 40
0.0466397902839156
 50
355.6461710680324018
 51
129.4042940499471968
  0
ARC
  5
1E8D1
  8
0
 10
4324.7283499948507597
 20
615.2801564123202525
 30
0.0
 40
5.4055842521623676
 50
150.3044415694604936
 51
161.9455218383895954
  0
ARC
  5
1E8D2
  8
0
 10
4316.5304065749533038
 20
617.536098864691553
 30
0.0
 40
3.1131449865227401
 50
349.2507260183638778
 51
9.6230445871865733
  0
ARC
  5
1E8D3
  8
0
 10
4319.5620090153197452
 20
618.0500933423980996
 30
0.0
 40
0.0382785411713725
 50
9.6481083119039468
 51
147.7495537950333073
  0
ARC
  5
1E8D4
  8
0
 10
4323.3479727991389154
 20
616.7017224953971208
 30
0.0
 40
4.0562669751046814
 50
160.2782628117790864
 51
175.9704133501167007
  0
CIRCLE
  5
1E8D5
  8
0
 10
4319.5441444986881834
 20
617.9017344298154057
 30
0.0
 40
0.0467511174337429
  0
ARC
  5
1E8D6
  8
0
 10
4319.5441444986881834
 20
617.8961771522539266
 30
0.0
 40
0.0467511174337429
 50
176.5926342711362054
 51
3.4073657288638071
  0
CIRCLE
  5
1E8D7
  8
0
 10
4319.5441444986881834
 20
617.9017344298154057
 30
0.0
 40
0.0234834011192038
  0
ARC
  5
1E8D8
  8
0
 10
4319.5427500129908367
 20
617.9339312305877456
 30
0.0
 40
0.0467511174337429
 50
244.9779464804890949
 51
299.9820644358313189
  0
CIRCLE
  5
1E8D9
  8
0
 10
4319.5201929586401093
 20
617.6969820388385415
 30
0.0
 40
0.0467511174337429
  0
ARC
  5
1E8DA
  8
0
 10
4319.5201929586401093
 20
617.6914247612770623
 30
0.0
 40
0.0467511174337429
 50
176.5926342711362054
 51
3.4073657288638071
  0
CIRCLE
  5
1E8DB
  8
0
 10
4319.5201929586401093
 20
617.6969820388385415
 30
0.0
 40
0.0234834011192038
  0
ARC
  5
1E8DC
  8
0
 10
4319.5187984729436721
 20
617.729178839610654
 30
0.0
 40
0.0467511174337429
 50
244.9779464804890949
 51
299.9820644358313189
  0
CIRCLE
  5
1E8DD
  8
0
 10
4319.489431370650891
 20
617.3915244777155067
 30
0.0
 40
0.0467511174337429
  0
ARC
  5
1E8DE
  8
0
 10
4319.489431370650891
 20
617.3859672001540275
 30
0.0
 40
0.0467511174337429
 50
176.5926342711362054
 51
3.4073657288638071
  0
CIRCLE
  5
1E8DF
  8
0
 10
4319.489431370650891
 20
617.3915244777155067
 30
0.0
 40
0.0234834011192038
  0
ARC
  5
1E8E0
  8
0
 10
4319.4880368849544539
 20
617.4237212784878466
 30
0.0
 40
0.0467511174337429
 50
244.9779464804890949
 51
299.9820644358313189
  0
CIRCLE
  5
1E8E1
  8
0
 10
4319.4717066162502306
 20
617.2297949153794434
 30
0.0
 40
0.0467511174337429
  0
ARC
  5
1E8E2
  8
0
 10
4319.4717066162502306
 20
617.2242376378179642
 30
0.0
 40
0.0467511174337429
 50
176.5926342711362054
 51
3.4073657288638071
  0
CIRCLE
  5
1E8E3
  8
0
 10
4319.4717066162502306
 20
617.2297949153794434
 30
0.0
 40
0.0234834011192038
  0
ARC
  5
1E8E4
  8
0
 10
4319.4703121305547029
 20
617.2619917161517833
 30
0.0
 40
0.0467511174337429
 50
244.9779464804890949
 51
299.9820644358313189
  0
CIRCLE
  5
1E8E5
  8
0
 10
4319.8074662392518803
 20
617.1565601782191379
 30
0.0
 40
0.0467511174337429
  0
ARC
  5
1E8E6
  8
0
 10
4319.8074662392518803
 20
617.1510029006575451
 30
0.0
 40
0.0467511174337429
 50
176.5926342711362054
 51
3.4073657288638071
  0
CIRCLE
  5
1E8E7
  8
0
 10
4319.8074662392518803
 20
617.1565601782191379
 30
0.0
 40
0.0234834011192038
  0
ARC
  5
1E8E8
  8
0
 10
4319.8060717535554431
 20
617.1887569789912504
 30
0.0
 40
0.0467511174337429
 50
244.9779464804890949
 51
299.9820644358313189
  0
CIRCLE
  5
1E8E9
  8
0
 10
4319.8549073147478339
 20
617.3066896490402087
 30
0.0
 40
0.0467511174337429
  0
ARC
  5
1E8EA
  8
0
 10
4319.8549073147478339
 20
617.3011323714786158
 30
0.0
 40
0.0467511174337429
 50
176.5926342711362054
 51
3.4073657288638071
  0
CIRCLE
  5
1E8EB
  8
0
 10
4319.8549073147478339
 20
617.3066896490402087
 30
0.0
 40
0.0234834011192038
  0
ARC
  5
1E8EC
  8
0
 10
4319.8535128290523062
 20
617.3388864498124349
 30
0.0
 40
0.0467511174337429
 50
244.9779464804890949
 51
299.9820644358313189
  0
CIRCLE
  5
1E8ED
  8
0
 10
4319.9508959483855506
 20
617.6022282712250444
 30
0.0
 40
0.0467511174337429
  0
ARC
  5
1E8EE
  8
0
 10
4319.9508959483855506
 20
617.5966709936636789
 30
0.0
 40
0.0467511174337429
 50
176.5926342711362054
 51
3.4073657288638071
  0
CIRCLE
  5
1E8EF
  8
0
 10
4319.9508959483855506
 20
617.6022282712250444
 30
0.0
 40
0.0234834011192038
  0
ARC
  5
1E8F0
  8
0
 10
4319.9495014626900229
 20
617.6344250719972706
 30
0.0
 40
0.0467511174337429
 50
244.9779464804890949
 51
299.9820644358313189
  0
CIRCLE
  5
1E8F1
  8
0
 10
4320.0154967974340252
 20
617.7985740020328649
 30
0.0
 40
0.0467511174337429
  0
ARC
  5
1E8F2
  8
0
 10
4320.0154967974340252
 20
617.793016724471272
 30
0.0
 40
0.0467511174337429
 50
176.5926342711362054
 51
3.4073657288638071
  0
CIRCLE
  5
1E8F3
  8
0
 10
4320.0154967974340252
 20
617.7985740020328649
 30
0.0
 40
0.0234834011192038
  0
ARC
  5
1E8F4
  8
0
 10
4320.0141023117366785
 20
617.8307708028052048
 30
0.0
 40
0.0467511174337429
 50
244.9779464804890949
 51
299.9820644358313189
  0
CIRCLE
  5
1E8F5
  8
0
 10
4320.4551849475028575
 20
617.5971119859258351
 30
0.0
 40
0.0467511174337429
  0
ARC
  5
1E8F6
  8
0
 10
4320.4551849475028575
 20
617.591554708364356
 30
0.0
 40
0.0467511174337429
 50
176.5926342711362054
 51
3.4073657288638071
  0
CIRCLE
  5
1E8F7
  8
0
 10
4320.4551849475028575
 20
617.5971119859258351
 30
0.0
 40
0.0234834011192038
  0
ARC
  5
1E8F8
  8
0
 10
4320.4537904618064204
 20
617.6293087866979477
 30
0.0
 40
0.0467511174337429
 50
244.9779464804890949
 51
299.9820644358313189
  0
CIRCLE
  5
1E8F9
  8
0
 10
4320.3481292435199066
 20
617.4212807311383813
 30
0.0
 40
0.0467511174337429
  0
ARC
  5
1E8FA
  8
0
 10
4320.3481292435199066
 20
617.4157234535770158
 30
0.0
 40
0.0467511174337429
 50
176.5926342711362054
 51
3.4073657288638071
  0
CIRCLE
  5
1E8FB
  8
0
 10
4320.3481292435199066
 20
617.4212807311383813
 30
0.0
 40
0.0234834011192038
  0
ARC
  5
1E8FC
  8
0
 10
4320.3467347578252884
 20
617.4534775319107212
 30
0.0
 40
0.0467511174337429
 50
244.9779464804890949
 51
299.9820644358313189
  0
CIRCLE
  5
1E8FD
  8
0
 10
4320.1859718858740962
 20
617.145631530982314
 30
0.0
 40
0.0467511174337429
  0
ARC
  5
1E8FE
  8
0
 10
4320.1859718858740962
 20
617.1400742534208348
 30
0.0
 40
0.0467511174337429
 50
176.5926342711362054
 51
3.4073657288638071
  0
CIRCLE
  5
1E8FF
  8
0
 10
4320.1859718858740962
 20
617.145631530982314
 30
0.0
 40
0.0234834011192038
  0
ARC
  5
1E900
  8
0
 10
4320.1845774001767495
 20
617.1778283317545402
 30
0.0
 40
0.0467511174337429
 50
244.9779464804890949
 51
299.9820644358313189
  0
CIRCLE
  5
1E901
  8
0
 10
4320.1133371722662559
 20
617.0163148319899165
 30
0.0
 40
0.0467511174337429
  0
ARC
  5
1E902
  8
0
 10
4320.1133371722662559
 20
617.0107575544283236
 30
0.0
 40
0.0467511174337429
 50
176.5926342711362054
 51
3.4073657288638071
  0
CIRCLE
  5
1E903
  8
0
 10
4320.1133371722662559
 20
617.0163148319899165
 30
0.0
 40
0.0234834011192038
  0
ARC
  5
1E904
  8
0
 10
4320.1119426865698188
 20
617.0485116327621427
 30
0.0
 40
0.0467511174337429
 50
244.9779464804890949
 51
299.9820644358313189
  0
CIRCLE
  5
1E905
  8
0
 10
4320.3781411128884429
 20
616.8061892476677031
 30
0.0
 40
0.0467511174337429
  0
ARC
  5
1E906
  8
0
 10
4320.3781411128884429
 20
616.8006319701061102
 30
0.0
 40
0.0467511174337429
 50
176.5926342711362054
 51
3.4073657288638071
  0
CIRCLE
  5
1E907
  8
0
 10
4320.3781411128884429
 20
616.8061892476677031
 30
0.0
 40
0.0234834011192038
  0
ARC
  5
1E908
  8
0
 10
4320.3767466271910962
 20
616.8383860484399293
 30
0.0
 40
0.0467511174337429
 50
244.9779464804890949
 51
299.9820644358313189
  0
CIRCLE
  5
1E909
  8
0
 10
4320.4840632948444181
 20
616.9208802786173464
 30
0.0
 40
0.0467511174337429
  0
ARC
  5
1E90A
  8
0
 10
4320.4840632948444181
 20
616.9153230010557536
 30
0.0
 40
0.0467511174337429
 50
176.5926342711362054
 51
3.4073657288638071
  0
CIRCLE
  5
1E90B
  8
0
 10
4320.4840632948444181
 20
616.9208802786173464
 30
0.0
 40
0.0234834011192038
  0
ARC
  5
1E90C
  8
0
 10
4320.4826688091470714
 20
616.9530770793896863
 30
0.0
 40
0.0467511174337429
 50
244.9779464804890949
 51
299.9820644358313189
  0
CIRCLE
  5
1E90D
  8
0
 10
4320.6941816473026847
 20
617.1470069539858514
 30
0.0
 40
0.0467511174337429
  0
ARC
  5
1E90E
  8
0
 10
4320.6941816473026847
 20
617.1414496764241449
 30
0.0
 40
0.0467511174337429
 50
176.5926342711362054
 51
3.4073657288638071
  0
CIRCLE
  5
1E90F
  8
0
 10
4320.6941816473026847
 20
617.1470069539858514
 30
0.0
 40
0.0234834011192038
  0
ARC
  5
1E910
  8
0
 10
4320.692787161607157
 20
617.1792037547579639
 30
0.0
 40
0.0467511174337429
 50
244.9779464804890949
 51
299.9820644358313189
  0
CIRCLE
  5
1E911
  8
0
 10
4320.8324921662742781
 20
617.297066861397866
 30
0.0
 40
0.0467511174337429
  0
ARC
  5
1E912
  8
0
 10
4320.8324921662742781
 20
617.2915095838362731
 30
0.0
 40
0.0467511174337429
 50
176.5926342711362054
 51
3.4073657288638071
  0
CIRCLE
  5
1E913
  8
0
 10
4320.8324921662742781
 20
617.297066861397866
 30
0.0
 40
0.0234834011192038
  0
ARC
  5
1E914
  8
0
 10
4320.8310976805769315
 20
617.3292636621702059
 30
0.0
 40
0.0467511174337429
 50
244.9779464804890949
 51
299.9820644358313189
  0
CIRCLE
  5
1E915
  8
0
 10
4321.1348730922991308
 20
616.9263537391774435
 30
0.0
 40
0.0467511174337429
  0
ARC
  5
1E916
  8
0
 10
4321.1348730922991308
 20
616.920796461616078
 30
0.0
 40
0.0467511174337429
 50
176.5926342711362054
 51
3.4073657288638071
  0
CIRCLE
  5
1E917
  8
0
 10
4321.1348730922991308
 20
616.9263537391774435
 30
0.0
 40
0.0234834011192038
  0
ARC
  5
1E918
  8
0
 10
4321.1334786066017841
 20
616.9585505399496697
 30
0.0
 40
0.0467511174337429
 50
244.9779464804890949
 51
299.9820644358313189
  0
CIRCLE
  5
1E919
  8
0
 10
4320.9679553791302169
 20
616.8139596958293396
 30
0.0
 40
0.0467511174337429
  0
ARC
  5
1E91A
  8
0
 10
4320.9679553791302169
 20
616.8084024182677467
 30
0.0
 40
0.0467511174337429
 50
176.5926342711362054
 51
3.4073657288638071
  0
CIRCLE
  5
1E91B
  8
0
 10
4320.9679553791302169
 20
616.8139596958293396
 30
0.0
 40
0.0234834011192038
  0
ARC
  5
1E91C
  8
0
 10
4320.9665608934328702
 20
616.8461564966014521
 30
0.0
 40
0.0467511174337429
 50
244.9779464804890949
 51
299.9820644358313189
  0
CIRCLE
  5
1E91D
  8
0
 10
4320.7160077203352557
 20
616.6357368014428175
 30
0.0
 40
0.0467511174337429
  0
ARC
  5
1E91E
  8
0
 10
4320.7160077203352557
 20
616.6301795238812247
 30
0.0
 40
0.0467511174337429
 50
176.5926342711362054
 51
3.4073657288638071
  0
CIRCLE
  5
1E91F
  8
0
 10
4320.7160077203352557
 20
616.6357368014428175
 30
0.0
 40
0.0234834011192038
  0
ARC
  5
1E920
  8
0
 10
4320.714613234637909
 20
616.6679336022150437
 30
0.0
 40
0.0467511174337429
 50
244.9779464804890949
 51
299.9820644358313189
  0
CIRCLE
  5
1E921
  8
0
 10
4320.5941870485039544
 20
616.5432458872378447
 30
0.0
 40
0.0467511174337429
  0
ARC
  5
1E922
  8
0
 10
4320.5941870485039544
 20
616.5376886096762519
 30
0.0
 40
0.0467511174337429
 50
176.5926342711362054
 51
3.4073657288638071
  0
CIRCLE
  5
1E923
  8
0
 10
4320.5941870485039544
 20
616.5432458872378447
 30
0.0
 40
0.0234834011192038
  0
ARC
  5
1E924
  8
0
 10
4320.5927925628066077
 20
616.5754426880099572
 30
0.0
 40
0.0467511174337429
 50
244.9779464804890949
 51
299.9820644358313189
  0
CIRCLE
  5
1E925
  8
0
 10
4320.7423902417003774
 20
616.2472888463946674
 30
0.0
 40
0.0467511174337429
  0
ARC
  5
1E926
  8
0
 10
4320.7423902417003774
 20
616.2417315688331882
 30
0.0
 40
0.0467511174337429
 50
176.5926342711362054
 51
3.4073657288638071
  0
CIRCLE
  5
1E927
  8
0
 10
4320.7423902417003774
 20
616.2472888463946674
 30
0.0
 40
0.0234834011192038
  0
ARC
  5
1E928
  8
0
 10
4320.7409957560030307
 20
616.279485647167121
 30
0.0
 40
0.0467511174337429
 50
244.9779464804890949
 51
299.9820644358313189
  0
CIRCLE
  5
1E929
  8
0
 10
4320.8809461853970788
 20
616.3085768058037957
 30
0.0
 40
0.0467511174337429
  0
ARC
  5
1E92A
  8
0
 10
4320.8809461853970788
 20
616.3030195282422028
 30
0.0
 40
0.0467511174337429
 50
176.5926342711362054
 51
3.4073657288638071
  0
CIRCLE
  5
1E92B
  8
0
 10
4320.8809461853970788
 20
616.3085768058037957
 30
0.0
 40
0.0234834011192038
  0
ARC
  5
1E92C
  8
0
 10
4320.8795516996997321
 20
616.3407736065760218
 30
0.0
 40
0.0467511174337429
 50
244.9779464804890949
 51
299.9820644358313189
  0
CIRCLE
  5
1E92D
  8
0
 10
4321.1606064877605604
 20
616.4284311317014726
 30
0.0
 40
0.0467511174337429
  0
ARC
  5
1E92E
  8
0
 10
4321.1606064877605604
 20
616.4228738541398798
 30
0.0
 40
0.0467511174337429
 50
176.5926342711362054
 51
3.4073657288638071
  0
CIRCLE
  5
1E92F
  8
0
 10
4321.1606064877605604
 20
616.4284311317014726
 30
0.0
 40
0.0234834011192038
  0
ARC
  5
1E930
  8
0
 10
4321.1592120020641232
 20
616.4606279324735851
 30
0.0
 40
0.0467511174337429
 50
244.9779464804890949
 51
299.9820644358313189
  0
CIRCLE
  5
1E931
  8
0
 10
4321.350615434647807
 20
616.492075666587084
 30
0.0
 40
0.0467511174337429
  0
ARC
  5
1E932
  8
0
 10
4321.350615434647807
 20
616.4865183890257185
 30
0.0
 40
0.0467511174337429
 50
176.5926342711362054
 51
3.4073657288638071
  0
CIRCLE
  5
1E933
  8
0
 10
4321.350615434647807
 20
616.492075666587084
 30
0.0
 40
0.0234834011192038
  0
ARC
  5
1E934
  8
0
 10
4321.3492209489522793
 20
616.5242724673594239
 30
0.0
 40
0.0467511174337429
 50
244.9779464804890949
 51
299.9820644358313189
  0
CIRCLE
  5
1E935
  8
0
 10
4320.819202605501232
 20
615.9222587421500066
 30
0.0
 40
0.0467511174337429
  0
ARC
  5
1E936
  8
0
 10
4320.819202605501232
 20
615.9167014645885274
 30
0.0
 40
0.0467511174337429
 50
176.5926342711362054
 51
3.4073657288638071
  0
CIRCLE
  5
1E937
  8
0
 10
4320.819202605501232
 20
615.9222587421500066
 30
0.0
 40
0.0234834011192038
  0
ARC
  5
1E938
  8
0
 10
4320.8178081198038853
 20
615.9544555429222328
 30
0.0
 40
0.0467511174337429
 50
244.9779464804890949
 51
299.9820644358313189
  0
CIRCLE
  5
1E939
  8
0
 10
4320.9646320549009033
 20
615.9506211405107479
 30
0.0
 40
0.0467511174337429
  0
ARC
  5
1E93A
  8
0
 10
4320.9646320549009033
 20
615.945063862949155
 30
0.0
 40
0.0467511174337429
 50
176.5926342711362054
 51
3.4073657288638071
  0
CIRCLE
  5
1E93B
  8
0
 10
4320.9646320549009033
 20
615.9506211405107479
 30
0.0
 40
0.0234834011192038
  0
ARC
  5
1E93C
  8
0
 10
4320.9632375692053756
 20
615.9828179412828604
 30
0.0
 40
0.0467511174337429
 50
244.9779464804890949
 51
299.9820644358313189
  0
CIRCLE
  5
1E93D
  8
0
 10
4321.2550504572163845
 20
616.006230043325445
 30
0.0
 40
0.0467511174337429
  0
ARC
  5
1E93E
  8
0
 10
4321.2550504572163845
 20
616.0006727657639658
 30
0.0
 40
0.0467511174337429
 50
176.5926342711362054
 51
3.4073657288638071
  0
CIRCLE
  5
1E93F
  8
0
 10
4321.2550504572163845
 20
616.006230043325445
 30
0.0
 40
0.0234834011192038
  0
ARC
  5
1E940
  8
0
 10
4321.2536559715199473
 20
616.0384268440978985
 30
0.0
 40
0.0467511174337429
 50
244.9779464804890949
 51
299.9820644358313189
  0
CIRCLE
  5
1E941
  8
0
 10
4321.4520011040003737
 20
616.0372825465237838
 30
0.0
 40
0.0467511174337429
  0
ARC
  5
1E942
  8
0
 10
4321.4520011040003737
 20
616.0317252689623047
 30
0.0
 40
0.0467511174337429
 50
176.5926342711362054
 51
3.4073657288638071
  0
CIRCLE
  5
1E943
  8
0
 10
4321.4520011040003737
 20
616.0372825465237838
 30
0.0
 40
0.0234834011192038
  0
ARC
  5
1E944
  8
0
 10
4321.4506066183039366
 20
616.06947934729601
 30
0.0
 40
0.0467511174337429
 50
244.9779464804890949
 51
299.9820644358313189
  0
CIRCLE
  5
1E945
  8
0
 10
4321.4534820765265977
 20
615.5777643051368386
 30
0.0
 40
0.0467511174337429
  0
ARC
  5
1E946
  8
0
 10
4321.4534820765265977
 20
615.5722070275753595
 30
0.0
 40
0.0467511174337429
 50
176.5926342711362054
 51
3.4073657288638071
  0
CIRCLE
  5
1E947
  8
0
 10
4321.4534820765265977
 20
615.5777643051368386
 30
0.0
 40
0.0234834011192038
  0
ARC
  5
1E948
  8
0
 10
4321.45208759083107
 20
615.6099611059089511
 30
0.0
 40
0.0467511174337429
 50
244.9779464804890949
 51
299.9820644358313189
  0
CIRCLE
  5
1E949
  8
0
 10
4321.2614569738079808
 20
615.5828067040857832
 30
0.0
 40
0.0467511174337429
  0
ARC
  5
1E94A
  8
0
 10
4321.2614569738079808
 20
615.5772494265244177
 30
0.0
 40
0.0467511174337429
 50
176.5926342711362054
 51
3.4073657288638071
  0
CIRCLE
  5
1E94B
  8
0
 10
4321.2614569738079808
 20
615.5828067040857832
 30
0.0
 40
0.0234834011192038
  0
ARC
  5
1E94C
  8
0
 10
4321.2600624881133626
 20
615.6150035048582367
 30
0.0
 40
0.0467511174337429
 50
244.9779464804890949
 51
299.9820644358313189
  0
CIRCLE
  5
1E94D
  8
0
 10
4320.961376858607764
 20
615.5884836411331662
 30
0.0
 40
0.0467511174337429
  0
ARC
  5
1E94E
  8
0
 10
4320.961376858607764
 20
615.5829263635715733
 30
0.0
 40
0.0467511174337429
 50
176.5926342711362054
 51
3.4073657288638071
  0
CIRCLE
  5
1E94F
  8
0
 10
4320.961376858607764
 20
615.5884836411331662
 30
0.0
 40
0.0234834011192038
  0
ARC
  5
1E950
  8
0
 10
4320.9599823729122363
 20
615.6206804419053924
 30
0.0
 40
0.0467511174337429
 50
244.9779464804890949
 51
299.9820644358313189
  0
CIRCLE
  5
1E951
  8
0
 10
4320.8212763609508329
 20
615.5951067185375223
 30
0.0
 40
0.0467511174337429
  0
ARC
  5
1E952
  8
0
 10
4320.8212763609508329
 20
615.5895494409760431
 30
0.0
 40
0.0467511174337429
 50
176.5926342711362054
 51
3.4073657288638071
  0
CIRCLE
  5
1E953
  8
0
 10
4320.8212763609508329
 20
615.5951067185375223
 30
0.0
 40
0.0234834011192038
  0
ARC
  5
1E954
  8
0
 10
4320.8198818752553052
 20
615.6273035193097485
 30
0.0
 40
0.0467511174337429
 50
244.9779464804890949
 51
299.9820644358313189
  0
CIRCLE
  5
1E955
  8
0
 10
4320.7423306049913663
 20
615.2654136114631456
 30
0.0
 40
0.0467511174337429
  0
ARC
  5
1E956
  8
0
 10
4320.7423306049913663
 20
615.2598563339015527
 30
0.0
 40
0.0467511174337429
 50
176.5926342711362054
 51
3.4073657288638071
  0
CIRCLE
  5
1E957
  8
0
 10
4320.7423306049913663
 20
615.2654136114631456
 30
0.0
 40
0.0234834011192038
  0
ARC
  5
1E958
  8
0
 10
4320.7409361192940196
 20
615.2976104122353718
 30
0.0
 40
0.0467511174337429
 50
244.9779464804890949
 51
299.9820644358313189
  0
CIRCLE
  5
1E959
  8
0
 10
4320.880776219362815
 20
615.2297034405230534
 30
0.0
 40
0.0467511174337429
  0
ARC
  5
1E95A
  8
0
 10
4320.880776219362815
 20
615.2241461629613468
 30
0.0
 40
0.0467511174337429
 50
176.5926342711362054
 51
3.4073657288638071
  0
CIRCLE
  5
1E95B
  8
0
 10
4320.880776219362815
 20
615.2297034405230534
 30
0.0
 40
0.0234834011192038
  0
ARC
  5
1E95C
  8
0
 10
4320.8793817336645589
 20
615.2619002412952796
 30
0.0
 40
0.0467511174337429
 50
244.9779464804890949
 51
299.9820644358313189
  0
CIRCLE
  5
1E95D
  8
0
 10
4321.161004101081744
 20
615.1553084846422053
 30
0.0
 40
0.0467511174337429
  0
ARC
  5
1E95E
  8
0
 10
4321.161004101081744
 20
615.1497512070806124
 30
0.0
 40
0.0467511174337429
 50
176.5926342711362054
 51
3.4073657288638071
  0
CIRCLE
  5
1E95F
  8
0
 10
4321.161004101081744
 20
615.1553084846422053
 30
0.0
 40
0.0234834011192038
  0
ARC
  5
1E960
  8
0
 10
4321.1596096153853068
 20
615.1875052854144315
 30
0.0
 40
0.0467511174337429
 50
244.9779464804890949
 51
299.9820644358313189
  0
CIRCLE
  5
1E961
  8
0
 10
4321.3447967975607753
 20
615.1069992416746572
 30
0.0
 40
0.0467511174337429
  0
ARC
  5
1E962
  8
0
 10
4321.3447967975607753
 20
615.1014419641132918
 30
0.0
 40
0.0467511174337429
 50
176.5926342711362054
 51
3.4073657288638071
  0
CIRCLE
  5
1E963
  8
0
 10
4321.3447967975607753
 20
615.1069992416746572
 30
0.0
 40
0.0234834011192038
  0
ARC
  5
1E964
  8
0
 10
4321.3434023118643381
 20
615.1391960424469971
 30
0.0
 40
0.0467511174337429
 50
244.9779464804890949
 51
299.9820644358313189
  0
CIRCLE
  5
1E965
  8
0
 10
4321.1366581177708213
 20
614.6828419381972708
 30
0.0
 40
0.0467511174337429
  0
ARC
  5
1E966
  8
0
 10
4321.1366581177708213
 20
614.6772846606359053
 30
0.0
 40
0.0467511174337429
 50
176.5926342711362054
 51
3.4073657288638071
  0
CIRCLE
  5
1E967
  8
0
 10
4321.1366581177708213
 20
614.6828419381972708
 30
0.0
 40
0.0234834011192038
  0
ARC
  5
1E968
  8
0
 10
4321.1352636320752936
 20
614.7150387389696107
 30
0.0
 40
0.0467511174337429
 50
244.9779464804890949
 51
299.9820644358313189
  0
CIRCLE
  5
1E969
  8
0
 10
4320.9636522657374371
 20
614.7650543446163738
 30
0.0
 40
0.0467511174337429
  0
ARC
  5
1E96A
  8
0
 10
4320.9636522657374371
 20
614.7594970670548946
 30
0.0
 40
0.0467511174337429
 50
176.5926342711362054
 51
3.4073657288638071
  0
CIRCLE
  5
1E96B
  8
0
 10
4320.9636522657374371
 20
614.7650543446163738
 30
0.0
 40
0.0234834011192038
  0
ARC
  5
1E96C
  8
0
 10
4320.9622577800400904
 20
614.7972511453886
 30
0.0
 40
0.0467511174337429
 50
244.9779464804890949
 51
299.9820644358313189
  0
CIRCLE
  5
1E96D
  8
0
 10
4320.721720079224724
 20
614.9041122732747908
 30
0.0
 40
0.0467511174337429
  0
ARC
  5
1E96E
  8
0
 10
4320.721720079224724
 20
614.8985549957134253
 30
0.0
 40
0.0467511174337429
 50
176.5926342711362054
 51
3.4073657288638071
  0
CIRCLE
  5
1E96F
  8
0
 10
4320.721720079224724
 20
614.9041122732747908
 30
0.0
 40
0.0234834011192038
  0
ARC
  5
1E970
  8
0
 10
4320.7203255935282868
 20
614.9363090740472444
 30
0.0
 40
0.0467511174337429
 50
244.9779464804890949
 51
299.9820644358313189
  0
CIRCLE
  5
1E971
  8
0
 10
4320.59446674947867
 20
614.9624476408040437
 30
0.0
 40
0.0467511174337429
  0
ARC
  5
1E972
  8
0
 10
4320.59446674947867
 20
614.9568903632424508
 30
0.0
 40
0.0467511174337429
 50
176.5926342711362054
 51
3.4073657288638071
  0
CIRCLE
  5
1E973
  8
0
 10
4320.59446674947867
 20
614.9624476408040437
 30
0.0
 40
0.0234834011192038
  0
ARC
  5
1E974
  8
0
 10
4320.5930722637831423
 20
614.9946444415761562
 30
0.0
 40
0.0467511174337429
 50
244.9779464804890949
 51
299.9820644358313189
  0
CIRCLE
  5
1E975
  8
0
 10
4320.8319239844895492
 20
614.3170577641805039
 30
0.0
 40
0.0467511174337429
  0
ARC
  5
1E976
  8
0
 10
4320.8319239844895492
 20
614.3115004866189111
 30
0.0
 40
0.0467511174337429
 50
176.5926342711362054
 51
3.4073657288638071
  0
CIRCLE
  5
1E977
  8
0
 10
4320.8319239844895492
 20
614.3170577641805039
 30
0.0
 40
0.0234834011192038
  0
ARC
  5
1E978
  8
0
 10
4320.8298190662417255
 20
614.3658228403797921
 30
0.0
 40
0.0467511174337429
 50
244.1255386368133884
 51
300.8176757945694249
  0
CIRCLE
  5
1E979
  8
0
 10
4320.6914476651818404
 20
614.4364796867256473
 30
0.0
 40
0.0467511174337429
  0
ARC
  5
1E97A
  8
0
 10
4320.6914476651818404
 20
614.4309224091640544
 30
0.0
 40
0.0467511174337429
 50
176.5926342711362054
 51
3.4073657288638071
  0
CIRCLE
  5
1E97B
  8
0
 10
4320.6914476651818404
 20
614.4364796867256473
 30
0.0
 40
0.0234834011192038
  0
ARC
  5
1E97C
  8
0
 10
4320.6893427469331073
 20
614.4852447629249355
 30
0.0
 40
0.0467511174337429
 50
244.1255386368133884
 51
300.8176757945694249
  0
CIRCLE
  5
1E97D
  8
0
 10
4320.4774622387049021
 20
614.615273039718204
 30
0.0
 40
0.0467511174337429
  0
ARC
  5
1E97E
  8
0
 10
4320.4774622387049021
 20
614.6097157621566112
 30
0.0
 40
0.0467511174337429
 50
176.5926342711362054
 51
3.4073657288638071
  0
CIRCLE
  5
1E97F
  8
0
 10
4320.4774622387049021
 20
614.615273039718204
 30
0.0
 40
0.0234834011192038
  0
ARC
  5
1E980
  8
0
 10
4320.475357320456169
 20
614.6640381159173785
 30
0.0
 40
0.0467511174337429
 50
244.1255386368133884
 51
300.8176757945694249
  0
CIRCLE
  5
1E981
  8
0
 10
4320.3808233440076947
 20
614.7011316549087496
 30
0.0
 40
0.0467511174337429
  0
ARC
  5
1E982
  8
0
 10
4320.3808233440076947
 20
614.6955743773471568
 30
0.0
 40
0.0467511174337429
 50
176.5926342711362054
 51
3.4073657288638071
  0
CIRCLE
  5
1E983
  8
0
 10
4320.3808233440076947
 20
614.7011316549087496
 30
0.0
 40
0.0234834011192038
  0
ARC
  5
1E984
  8
0
 10
4320.3787184257589615
 20
614.7498967311080378
 30
0.0
 40
0.0467511174337429
 50
244.1255386368133884
 51
300.8176757945694249
  0
CIRCLE
  5
1E985
  8
0
 10
4320.4502491339444532
 20
614.0185039464124657
 30
0.0
 40
0.0467511174337429
  0
ARC
  5
1E986
  8
0
 10
4320.4502491339444532
 20
614.0129466688508728
 30
0.0
 40
0.0467511174337429
 50
176.5926342711362054
 51
3.4073657288638071
  0
CIRCLE
  5
1E987
  8
0
 10
4320.4502491339444532
 20
614.0185039464124657
 30
0.0
 40
0.0234834011192038
  0
ARC
  5
1E988
  8
0
 10
4320.44814421569572
 20
614.0672690226117538
 30
0.0
 40
0.0467511174337429
 50
244.1255386368133884
 51
300.8176757945694249
  0
CIRCLE
  5
1E989
  8
0
 10
4320.3506817853203756
 20
614.1677808552965416
 30
0.0
 40
0.0467511174337429
  0
ARC
  5
1E98A
  8
0
 10
4320.3506817853203756
 20
614.1622235777349488
 30
0.0
 40
0.0467511174337429
 50
176.5926342711362054
 51
3.4073657288638071
  0
CIRCLE
  5
1E98B
  8
0
 10
4320.3506817853203756
 20
614.1677808552965416
 30
0.0
 40
0.0234834011192038
  0
ARC
  5
1E98C
  8
0
 10
4320.348576867070733
 20
614.2165459314957161
 30
0.0
 40
0.0467511174337429
 50
244.1255386368133884
 51
300.8176757945694249
  0
CIRCLE
  5
1E98D
  8
0
 10
4320.1924655689272186
 20
614.3884604695339249
 30
0.0
 40
0.0467511174337429
  0
ARC
  5
1E98E
  8
0
 10
4320.1924655689272186
 20
614.3829031919724457
 30
0.0
 40
0.0467511174337429
 50
176.5926342711362054
 51
3.4073657288638071
  0
CIRCLE
  5
1E98F
  8
0
 10
4320.1924655689272186
 20
614.3884604695339249
 30
0.0
 40
0.0234834011192038
  0
ARC
  5
1E990
  8
0
 10
4320.1903606506775759
 20
614.437225545733213
 30
0.0
 40
0.0467511174337429
 50
244.1255386368133884
 51
300.8176757945694249
  0
CIRCLE
  5
1E991
  8
0
 10
4320.1094927925587399
 20
614.4987107337116186
 30
0.0
 40
0.0467511174337429
  0
ARC
  5
1E992
  8
0
 10
4320.1094927925587399
 20
614.4931534561500257
 30
0.0
 40
0.0467511174337429
 50
176.5926342711362054
 51
3.4073657288638071
  0
CIRCLE
  5
1E993
  8
0
 10
4320.1094927925587399
 20
614.4987107337116186
 30
0.0
 40
0.0234834011192038
  0
ARC
  5
1E994
  8
0
 10
4320.1073878743100067
 20
614.547475809910793
 30
0.0
 40
0.0467511174337429
 50
244.1255386368133884
 51
300.8176757945694249
  0
ARC
  5
1E995
  8
0
 10
4323.4167717440795968
 20
607.9380958129518149
 30
0.0
 40
3.609146141417642
 50
172.1518323378411992
 51
176.5127826701599929
  0
ARC
  5
1E996
  8
0
 10
4316.1525797349222557
 20
608.9393885429326474
 30
0.0
 40
3.7237300117039891
 50
352.1518323378411992
 51
357.3780622704708776
  0
ARC
  5
1E997
  8
0
 10
4319.7562799565521345
 20
608.1430603832252473
 30
0.0
 40
0.0078740161098949
 50
270.0000000264719802
 51
330.0008826049215145
  0
LINE
  5
1E998
  8
0
 10
4319.8724114767110223
 20
608.7690447351690182
 30
0.0
 11
4319.8724114767110223
 21
612.5407093068198492
 31
0.0
  0
ARC
  5
1E999
  8
0
 10
4319.8606114767108011
 20
612.5407093068198492
 30
0.0
 40
0.0118
 50
0.0
 51
90.0
  0
LINE
  5
1E99A
  8
0
 10
4319.8722362928374423
 20
612.5721833226203898
 30
0.0
 11
4319.8722362928374423
 21
612.6387212911216693
 31
0.0
  0
LINE
  5
1E99B
  8
0
 10
4319.8409256408558576
 20
612.5548231632985789
 30
0.0
 11
4319.8353654816337439
 21
612.5603833226205097
 31
0.0
  0
ARC
  5
1E99C
  8
0
 10
4319.8465117844780252
 20
612.5604093068199063
 30
0.0
 40
0.0079
 50
224.9999994854663896
 51
270.0000000000521254
  0
ARC
  5
1E99D
  8
0
 10
4319.7946447977974458
 20
608.1588234802137549
 30
0.0
 40
0.0197
 50
270.0
 51
356.5127826701599929
  0
ARC
  5
1E99E
  8
0
 10
4321.3398225699102113
 20
612.5598472035817394
 30
0.0
 40
1.469704256758434
 50
164.8914244463049101
 51
176.9236501839997118
  0
LINE
  5
1E99F
  8
0
 10
4319.8409256408558576
 20
612.5548231632985789
 30
0.0
 11
4319.8353654816337439
 21
612.5603833226205097
 31
0.0
  0
ARC
  5
1E9A0
  8
0
 10
4319.8465117844780252
 20
612.5604093068199063
 30
0.0
 40
0.0079
 50
224.9999994854663896
 51
270.0000000000521254
  0
ARC
  5
1E9A1
  8
0
 10
4321.1402387940215704
 20
612.6064481572924478
 30
0.0
 40
1.264892417453318
 50
150.229705968415999
 51
164.5729314819444085
  0
ARC
  5
1E9A2
  8
0
 10
4320.8942924606453744
 20
612.7881126382974344
 30
0.0
 40
0.9618625166657501
 50
129.471384513585491
 51
152.3490478045235932
  0
ARC
  5
1E9A3
  8
0
 10
4319.3018057654189761
 20
615.8064457250435453
 30
0.0
 40
1.2205423809770961
 50
269.9966000216463158
 51
285.4655032266064723
  0
ARC
  5
1E9A4
  8
0
 10
4319.3060095332530182
 20
615.7912519105638012
 30
0.0
 40
1.2047777476975201
 50
285.4655032266064723
 51
310.4456514179262854
  0
ARC
  5
1E9A5
  8
0
 10
4319.3354900176491356
 20
615.7566683247938499
 30
0.0
 40
1.1593341192668629
 50
310.4456514179262854
 51
333.9308515998179132
  0
ARC
  5
1E9A6
  8
0
 10
4319.3530442516330368
 20
615.7480803120207611
 30
0.0
 40
1.1397917270351181
 50
333.9308515998179132
 51
352.0883137160461729
  0
ARC
  5
1E9A7
  8
0
 10
4319.4266566275937294
 20
615.7378504469410245
 30
0.0
 40
1.065471931326708
 50
352.0883137160461729
 51
11.5856675897799697
  0
ARC
  5
1E9A8
  8
0
 10
4319.3579203078370483
 20
615.7237588246339328
 30
0.0
 40
1.1356378452233571
 50
11.5856675897799697
 51
27.4149375587098412
  0
ARC
  5
1E9A9
  8
0
 10
4319.3316210654293172
 20
615.7101178923047655
 30
0.0
 40
1.165264272379273
 50
27.4149375587098412
 51
51.6084185260179424
  0
ARC
  5
1E9AA
  8
0
 10
4319.3038709283946446
 20
615.6750953630956928
 30
0.0
 40
1.209948135882857
 50
51.6084185260179424
 51
76.3225802161912696
  0
ARC
  5
1E9AB
  8
0
 10
4319.3027039369453632
 20
615.6702999593328514
 30
0.0
 40
1.214883494663473
 50
76.3225802161912696
 51
90.0457749746929039
  0
ARC
  5
1E9AC
  8
0
 10
4319.305920675694324
 20
616.2607687592825414
 30
0.0
 40
1.133094989504202
 50
269.7882636868316126
 51
298.9924922646189884
  0
ARC
  5
1E9AD
  8
0
 10
4319.370440034931562
 20
616.1443367761150967
 30
0.0
 40
0.9999816752917929
 50
298.9924922646189884
 51
332.5942122466412911
  0
ARC
  5
1E9AE
  8
0
 10
4319.3509078005954507
 20
616.1495770854861576
 30
0.0
 40
1.019743072814963
 50
332.8379667029877282
 51
5.462003113532468
  0
LINE
  5
1E9AF
  8
0
 10
4319.3017333374391455
 20
614.6038906757289624
 30
0.0
 11
4319.5632085387305779
 21
614.6323862684038204
 31
0.0
  0
LINE
  5
1E9B0
  8
0
 10
4319.5632085387305779
 20
614.6323862684038204
 30
0.0
 11
4319.8114989352970952
 21
614.7175614290233625
 31
0.0
  0
LINE
  5
1E9B1
  8
0
 10
4319.8114989352970952
 20
614.7175614290233625
 30
0.0
 11
4320.0342674533239915
 21
614.8539486835144317
 31
0.0
  0
LINE
  5
1E9B2
  8
0
 10
4320.0342674533239915
 20
614.8539486835144317
 30
0.0
 11
4320.2203019767275691
 21
615.0352152299321915
 31
0.0
  0
LINE
  5
1E9B3
  8
0
 10
4320.2203019767275691
 20
615.0352152299321915
 30
0.0
 11
4320.3602756923883135
 21
615.2522682572154054
 31
0.0
  0
LINE
  5
1E9B4
  8
0
 10
4320.3602756923883135
 20
615.2522682572154054
 30
0.0
 11
4320.4471695436595837
 21
615.4942365937273507
 31
0.0
  0
LINE
  5
1E9B5
  8
0
 10
4320.4471695436595837
 20
615.4942365937273507
 30
0.0
 11
4320.4766266794877083
 21
615.7489700801154413
 31
0.0
  0
LINE
  5
1E9B6
  8
0
 10
4320.4766266794877083
 20
615.7489700801154413
 30
0.0
 11
4320.4471916491884258
 21
616.003589804215494
 31
0.0
  0
LINE
  5
1E9B7
  8
0
 10
4320.4471916491884258
 20
616.003589804215494
 30
0.0
 11
4320.3660207723887652
 21
616.2466419558154485
 31
0.0
  0
LINE
  5
1E9B8
  8
0
 10
4319.5632085387305779
 20
614.6323862684038204
 30
0.0
 11
4319.5366950993748105
 21
615.151423267285395
 31
0.0
  0
LINE
  5
1E9B9
  8
0
 10
4319.8114989352970952
 20
614.7175614290233625
 30
0.0
 11
4319.7564502103150517
 21
615.2210921779967521
 31
0.0
  0
LINE
  5
1E9BA
  8
0
 10
4320.0342674533239915
 20
614.8539486835144317
 30
0.0
 11
4319.9606210437068512
 21
615.3370885318927321
 31
0.0
  0
ARC
  5
1E9BB
  8
0
 10
4271.0033117912153102
 20
605.0661452997632068
 30
0.0
 40
50.2164761626442484
 50
11.4505366832078508
 51
11.9797985376103995
  0
ARC
  5
1E9BC
  8
0
 10
4319.6193778225324422
 20
615.3218429897192436
 30
0.0
 40
0.7441574409761511
 50
354.6353165701185048
 51
30.0536405310121211
  0
ARC
  5
1E9BD
  8
0
 10
4319.6955356347707493
 20
615.5061229086823005
 30
0.0
 40
0.7517278879181845
 50
359.0940018673442182
 51
31.2037036111309298
  0
ARC
  5
1E9BE
  8
0
 10
4319.3558097350060052
 20
615.5851581795666334
 30
0.0
 40
1.132724574554939
 50
8.3151354304751361
 51
26.5590290217934886
  0
ARC
  5
1E9BF
  8
0
 10
4319.69194738594706
 20
613.950044520931101
 30
0.0
 40
0.2775388286146586
 50
210.3942877013859913
 51
347.2894709400914053
  0
ARC
  5
1E9C0
  8
0
 10
4319.632345649668423
 20
613.915084377063522
 30
0.0
 40
0.2084405028271434
 50
151.3981751099055089
 51
210.3942877013859913
  0
ARC
  5
1E9C1
  8
0
 10
4319.6984714743257427
 20
613.8790286748244398
 30
0.0
 40
0.2837574222454806
 50
36.7973764249820476
 51
151.3981751099055089
  0
ARC
  5
1E9C2
  8
0
 10
4319.7626189821212392
 20
613.9270125607856698
 30
0.0
 40
0.203649020263218
 50
349.2361924916971248
 51
36.7973764249820476
  0
LINE
  5
1E9C3
  8
0
 10
4318.9434656208886736
 20
607.7729816427154219
 30
0.0
 11
4318.9434656208886736
 21
607.786589467515455
 31
0.0
  0
LINE
  5
1E9C4
  8
0
 10
4318.9434656208886736
 20
607.8493197720817989
 30
0.0
 11
4318.9434656208886736
 21
607.8580178644155012
 31
0.0
  0
LINE
  5
1E9C5
  8
0
 10
4318.9434656208886736
 20
607.920748027989589
 30
0.0
 11
4318.9434656208886736
 21
607.9294244461154904
 31
0.0
  0
LINE
  5
1E9C6
  8
0
 10
4318.9434656208886736
 20
607.992154176673921
 30
0.0
 11
4318.9434656208886736
 21
608.0008522687154482
 31
0.0
  0
LINE
  5
1E9C7
  8
0
 10
4318.9434656208886736
 20
608.0635829896172027
 30
0.0
 11
4318.9434656208886736
 21
608.0957863671153518
 31
0.0
  0
LINE
  5
1E9C8
  8
0
 10
4318.9552766444876397
 20
607.7611706191154326
 30
0.0
 11
4319.6481900303879229
 21
607.7611706191154326
 31
0.0
  0
LINE
  5
1E9C9
  8
0
 10
4318.9552766444876397
 20
607.7611706191154326
 30
0.0
 11
4318.9434656208886736
 21
607.7729816427154219
 31
0.0
  0
ARC
  5
1E9CA
  8
0
 10
4318.9040656208881046
 20
608.0957863671153518
 30
0.0
 40
0.0394
 50
0.0
 51
90.0
  0
LINE
  5
1E9CB
  8
0
 10
4318.8982056555878444
 20
608.0270192341448592
 30
0.0
 11
4318.8982056555878444
 21
608.0374162279077837
 31
0.0
  0
LINE
  5
1E9CC
  8
0
 10
4318.8982056555878444
 20
607.9659870579629342
 30
0.0
 11
4318.8982056555878444
 21
607.9555912733914056
 31
0.0
  0
LINE
  5
1E9CD
  8
0
 10
4318.8982056555878444
 20
607.8945811999008129
 30
0.0
 11
4318.8982056555878444
 21
607.8841848880415455
 31
0.0
  0
LINE
  5
1E9CE
  8
0
 10
4318.8982056555878444
 20
607.8231527121547515
 30
0.0
 11
4318.8982056555878444
 21
607.8127562278710911
 31
0.0
  0
LINE
  5
1E9CF
  8
0
 10
4318.8982056555878444
 20
608.0374162279077837
 30
0.0
 11
4318.9434656208886736
 21
608.0635829896172027
 31
0.0
  0
LINE
  5
1E9D0
  8
0
 10
4318.9434656208886736
 20
608.0008522687154482
 30
0.0
 11
4318.8982056555878444
 21
608.0270192341448592
 31
0.0
  0
LINE
  5
1E9D1
  8
0
 10
4318.8982056555878444
 20
607.9659870579629342
 30
0.0
 11
4318.9434656208886736
 21
607.992154176673921
 31
0.0
  0
LINE
  5
1E9D2
  8
0
 10
4318.9434656208886736
 20
607.9294244461154904
 30
0.0
 11
4318.8982056555878444
 21
607.9555912733914056
 31
0.0
  0
LINE
  5
1E9D3
  8
0
 10
4318.8982056555878444
 20
607.8945811999008129
 30
0.0
 11
4318.9434656208886736
 21
607.920748027989589
 31
0.0
  0
LINE
  5
1E9D4
  8
0
 10
4318.9434656208886736
 20
607.8580178644155012
 30
0.0
 11
4318.8982056555878444
 21
607.8841848880415455
 31
0.0
  0
LINE
  5
1E9D5
  8
0
 10
4318.8982056555878444
 20
607.8231527121547515
 30
0.0
 11
4318.9434656208886736
 21
607.8493197720817989
 31
0.0
  0
LINE
  5
1E9D6
  8
0
 10
4318.9434656208886736
 20
607.786589467515455
 30
0.0
 11
4318.8982056555878444
 21
607.8127562278710911
 31
0.0
  0
LINE
  5
1E9D7
  8
0
 10
4319.6600010539877985
 20
607.7729816427154219
 30
0.0
 11
4319.6600010539877985
 21
607.8231449515745908
 31
0.0
  0
LINE
  5
1E9D8
  8
0
 10
4319.6600010539877985
 20
607.8858752561409347
 30
0.0
 11
4319.6600010539877985
 21
607.8945733484744096
 31
0.0
  0
LINE
  5
1E9D9
  8
0
 10
4319.6600010539877985
 20
607.9573035120487248
 30
0.0
 11
4319.6600010539877985
 21
607.9659799301745124
 31
0.0
  0
LINE
  5
1E9DA
  8
0
 10
4319.6600010539877985
 20
608.0287096607329431
 30
0.0
 11
4319.6600010539877985
 21
608.0374077527744703
 31
0.0
  0
LINE
  5
1E9DB
  8
0
 10
4319.6481900303879229
 20
607.7611706191154326
 30
0.0
 11
4319.6600010539877985
 21
607.7729816427154219
 31
0.0
  0
ARC
  5
1E9DC
  8
0
 10
4319.6994010539883675
 20
608.0957863671153518
 30
0.0
 40
0.0394
 50
90.0
 51
175.0359752034970029
  0
LINE
  5
1E9DD
  8
0
 10
4319.7052610192877182
 20
608.0635747182038813
 30
0.0
 11
4319.7052610192877182
 21
608.0739717119669194
 31
0.0
  0
LINE
  5
1E9DE
  8
0
 10
4319.7052610192877182
 20
608.0025425420219563
 30
0.0
 11
4319.7052610192877182
 21
607.9921467574505414
 31
0.0
  0
LINE
  5
1E9DF
  8
0
 10
4319.7052610192877182
 20
607.9311366839599486
 30
0.0
 11
4319.7052610192877182
 21
607.9207403721006813
 31
0.0
  0
LINE
  5
1E9E0
  8
0
 10
4319.7052610192877182
 20
607.859708196214001
 30
0.0
 11
4319.7052610192877182
 21
607.8493117119303406
 31
0.0
  0
LINE
  5
1E9E1
  8
0
 10
4319.7052610192877182
 20
608.0739717119669194
 30
0.0
 11
4319.6601488345013422
 21
608.09919565814414
 31
0.0
  0
LINE
  5
1E9E2
  8
0
 10
4319.6600010539877985
 20
608.0374077527744703
 30
0.0
 11
4319.7052610192877182
 21
608.0635747182038813
 31
0.0
  0
LINE
  5
1E9E3
  8
0
 10
4319.7052610192877182
 20
608.0025425420219563
 30
0.0
 11
4319.6600010539877985
 21
608.0287096607329431
 31
0.0
  0
LINE
  5
1E9E4
  8
0
 10
4319.6600010539877985
 20
607.9659799301745124
 30
0.0
 11
4319.7052610192877182
 21
607.9921467574505414
 31
0.0
  0
LINE
  5
1E9E5
  8
0
 10
4319.7052610192877182
 20
607.9311366839599486
 30
0.0
 11
4319.6600010539877985
 21
607.9573035120487248
 31
0.0
  0
LINE
  5
1E9E6
  8
0
 10
4319.6600010539877985
 20
607.8945733484744096
 30
0.0
 11
4319.7052610192877182
 21
607.9207403721006813
 31
0.0
  0
LINE
  5
1E9E7
  8
0
 10
4319.7052610192877182
 20
607.859708196214001
 30
0.0
 11
4319.6600010539877985
 21
607.8858752561409347
 31
0.0
  0
LINE
  5
1E9E8
  8
0
 10
4319.6600010539877985
 20
607.8231449515745908
 30
0.0
 11
4319.7052610192877182
 21
607.8493117119303406
 31
0.0
  0
LINE
  5
1E9E9
  8
0
 10
4318.9434656208886736
 20
607.7729816427154219
 30
0.0
 11
4319.6600010539877985
 21
607.7729816427154219
 31
0.0
  0
LINE
  5
1E9EA
  8
0
 10
4318.8982056555878444
 20
608.0322177310263214
 30
0.0
 11
4319.7052610192877182
 21
608.0687732150853435
 31
0.0
  0
LINE
  5
1E9EB
  8
0
 10
4319.6601488345013422
 20
608.09919565814414
 30
0.0
 11
4318.9434656208886736
 21
608.0635829896172027
 31
0.0
  0
LINE
  5
1E9EC
  8
0
 10
4318.9434656208886736
 20
607.9965032226946278
 30
0.0
 11
4319.6600010539877985
 21
608.0330587067536499
 31
0.0
  0
LINE
  5
1E9ED
  8
0
 10
4319.7052610192877182
 20
607.9973446497363057
 30
0.0
 11
4318.8982056555878444
 21
607.9607891656770562
 31
0.0
  0
LINE
  5
1E9EE
  8
0
 10
4318.9434656208886736
 20
607.9250862370524828
 30
0.0
 11
4319.6600010539877985
 21
607.9616417211116186
 31
0.0
  0
LINE
  5
1E9EF
  8
0
 10
4319.7052610192877182
 20
607.925938528030315
 30
0.0
 11
4318.8982056555878444
 21
607.8893830439712929
 31
0.0
  0
LINE
  5
1E9F0
  8
0
 10
4318.9434656208886736
 20
607.8536688182484795
 30
0.0
 11
4319.6600010539877985
 21
607.890224302307729
 31
0.0
  0
LINE
  5
1E9F1
  8
0
 10
4319.7052610192877182
 20
607.8545099540721139
 30
0.0
 11
4318.8982056555878444
 21
607.8179544700128645
 31
0.0
  0
LINE
  5
1E9F2
  8
0
 10
4318.9434656208886736
 20
607.786589467515455
 30
0.0
 11
4319.6600010539877985
 21
607.8231449515745908
 31
0.0
  0
LINE
  5
1EA3A
  8
0
 10
4319.3017333374391455
 20
614.6038906757289624
 30
0.0
 11
4319.2975459991830576
 21
615.1276737697783119
 31
0.0
  0
VIEWPORT
  5
7BC8
 67
     1
  8
0
 10
8.4975296442687753
 20
4.5
 30
0.0
 40
16.9950592885375507
 41
9.0
 68
     1
 69
     1
1001
ACAD
1000
MVIEW
1002
{
1070
    16
1010
0.0
1020
0.0
1030
0.0
1010
0.0
1020
0.0
1030
1.0
1040
0.0
1040
9.0
1040
8.4975296442687753
1040
4.5
1040
50.0
1040
0.0
1040
0.0
1070
     0
1070
   100
1070
     1
1070
     1
1070
     0
1070
     0
1070
     0
1070
     0
1040
0.0
1040
0.0
1040
0.0
1040
1.0
1040
1.0
1040
0.0
1040
0.0
1070
     0
1002
{
1002
}
1002
}
  0
ENDSEC
  0
EOF
