  0
SECTION
  2
HEADER
  9
$ACADVER
  1
AC1009
  9
$INSBASE
 10
4942.4213605843578989
 20
320.7129078857252011
 30
0.0
  9
$EXTMIN
 10
4939.6272134680666568
 20
317.6016544440182088
 30
-0.0000000000112498
  9
$EXTMAX
 10
4959.9539622475949727
 20
321.2845329504651204
 30
0.0000000000002956
  9
$LIMMIN
 10
0.0
 20
0.0
  9
$LIMMAX
 10
11.6929133858000007
 20
8.2677165353999982
  9
$ORTHOMODE
 70
     0
  9
$REGENMODE
 70
     1
  9
$FILLMODE
 70
     1
  9
$QTEXTMODE
 70
     0
  9
$MIRRTEXT
 70
     0
  9
$DRAGMODE
 70
     2
  9
$LTSCALE
 40
0.6431102362
  9
$OSMODE
 70
  4095
  9
$ATTMODE
 70
     1
  9
$TEXTSIZE
 40
0.2
  9
$TRACEWID
 40
0.05
  9
$TEXTSTYLE
  7
STANDARD
  9
$CLAYER
  8
0
  9
$CELTYPE
  6
BYLAYER
  9
$CECOLOR
 62
   256
  9
$DIMSCALE
 40
1.0
  9
$DIMASZ
 40
0.1875
  9
$DIMEXO
 40
0.0625
  9
$DIMDLI
 40
0.4443307087
  9
$DIMRND
 40
0.0
  9
$DIMDLE
 40
0.0
  9
$DIMEXE
 40
0.125
  9
$DIMTP
 40
0.01
  9
$DIMTM
 40
0.01
  9
$DIMTXT
 40
2.0
  9
$DIMCEN
 40
0.1052362205
  9
$DIMTSZ
 40
0.0
  9
$DIMTOL
 70
     1
  9
$DIMLIM
 70
     0
  9
$DIMTIH
 70
     1
  9
$DIMTOH
 70
     1
  9
$DIMSE1
 70
     0
  9
$DIMSE2
 70
     0
  9
$DIMTAD
 70
     0
  9
$DIMZIN
 70
     0
  9
$DIMBLK
  1

  9
$DIMASO
 70
     1
  9
$DIMSHO
 70
     1
  9
$DIMPOST
  1
\X
  9
$DIMAPOST
  1

  9
$DIMALT
 70
     1
  9
$DIMALTD
 70
     2
  9
$DIMALTF
 40
25.3999999999999986
  9
$DIMLFAC
 40
1.0
  9
$DIMTOFL
 70
     0
  9
$DIMTVP
 40
0.0
  9
$DIMTIX
 70
     0
  9
$DIMSOXD
 70
     0
  9
$DIMSAH
 70
     0
  9
$DIMBLK1
  1

  9
$DIMBLK2
  1

  9
$DIMSTYLE
  2
STANDARD
  9
$DIMCLRD
 70
     0
  9
$DIMCLRE
 70
     0
  9
$DIMCLRT
 70
     0
  9
$DIMTFAC
 40
1.0
  9
$DIMGAP
 40
0.09
  9
$LUNITS
 70
     2
  9
$LUPREC
 70
     4
  9
$SKETCHINC
 40
0.1
  9
$FILLETRAD
 40
0.0
  9
$AUNITS
 70
     0
  9
$AUPREC
 70
     0
  9
$MENU
  1
.
  9
$ELEVATION
 40
0.0
  9
$PELEVATION
 40
0.0
  9
$THICKNESS
 40
0.0
  9
$LIMCHECK
 70
     0
  9
$BLIPMODE
 70
     0
  9
$CHAMFERA
 40
0.0
  9
$CHAMFERB
 40
0.0
  9
$SKPOLY
 70
     0
  9
$TDCREATE
 40
2458060.468368056230247
  9
$TDUPDATE
 40
2460326.7015856481157243
  9
$TDINDWG
 40
0.6111760417
  9
$TDUSRTIMER
 40
0.6111760417
  9
$USRTIMER
 70
     1
  9
$ANGBASE
 50
0.0
  9
$ANGDIR
 70
     0
  9
$PDMODE
 70
     0
  9
$PDSIZE
 40
0.3125
  9
$PLINEWID
 40
0.0
  9
$COORDS
 70
     1
  9
$SPLFRAME
 70
     0
  9
$SPLINETYPE
 70
     6
  9
$SPLINESEGS
 70
     8
  9
$ATTDIA
 70
     1
  9
$ATTREQ
 70
     1
  9
$HANDLING
 70
     1
  9
$HANDSEED
  5
1F3FB
  9
$SURFTAB1
 70
     6
  9
$SURFTAB2
 70
     6
  9
$SURFTYPE
 70
     6
  9
$SURFU
 70
     6
  9
$SURFV
 70
     6
  9
$UCSNAME
  2

  9
$UCSORG
 10
0.0
 20
0.0
 30
0.0
  9
$UCSXDIR
 10
1.0
 20
0.0
 30
0.0
  9
$UCSYDIR
 10
0.0
 20
1.0
 30
0.0
  9
$PUCSNAME
  2

  9
$PUCSORG
 10
0.0
 20
0.0
 30
0.0
  9
$PUCSXDIR
 10
1.0
 20
0.0
 30
0.0
  9
$PUCSYDIR
 10
0.0
 20
1.0
 30
0.0
  9
$USERI1
 70
     0
  9
$USERI2
 70
     0
  9
$USERI3
 70
     0
  9
$USERI4
 70
     0
  9
$USERI5
 70
     0
  9
$USERR1
 40
0.0
  9
$USERR2
 40
0.0
  9
$USERR3
 40
0.0
  9
$USERR4
 40
0.0
  9
$USERR5
 40
0.0
  9
$WORLDVIEW
 70
     1
  9
$SHADEDGE
 70
     3
  9
$SHADEDIF
 70
    70
  9
$TILEMODE
 70
     1
  9
$MAXACTVP
 70
    64
  9
$PLIMCHECK
 70
     0
  9
$PEXTMIN
 10
1.0000000000000000E+20
 20
1.0000000000000000E+20
 30
1.0000000000000000E+20
  9
$PEXTMAX
 10
-1.0000000000000000E+20
 20
-1.0000000000000000E+20
 30
-1.0000000000000000E+20
  9
$PLIMMIN
 10
0.0
 20
0.0
  9
$PLIMMAX
 10
12.0
 20
9.0
  9
$UNITMODE
 70
     0
  9
$VISRETAIN
 70
     1
  9
$PLINEGEN
 70
     0
  9
$PSLTSCALE
 70
     1
  0
ENDSEC
  0
SECTION
  2
TABLES
  0
TABLE
  2
VPORT
 70
     1
  0
VPORT
  2
*ACTIVE
 70
     0
 10
0.0
 20
0.0
 11
1.0
 21
1.0
 12
1146.2465204750189969
 22
193.4478315004917022
 13
0.0
 23
0.0
 14
1.0
 24
1.0
 15
0.0
 25
0.0
 16
0.0
 26
0.0
 36
17.1152628219792007
 17
3803.5440673828129547
 27
125.9952621967499056
 37
0.0
 40
9.6186150468303868
 41
2.1211111111111101
 42
50.0
 43
0.0
 44
0.0
 50
0.0
 51
0.0
 71
     0
 72
   100
 73
     1
 74
     1
 75
     0
 76
     0
 77
     0
 78
     0
  0
ENDTAB
  0
TABLE
  2
LTYPE
 70
     2
  0
LTYPE
  2
CONTINUOUS
 70
     0
  3
Solid line
 72
    65
 73
     0
 40
0.0
  0
LTYPE
  2
PHANTOM2
 70
     0
  3
___ _ _ ___ _ _ ___ _ _ ___ _ _
 72
    65
 73
     6
 40
1.25
 49
0.625
 49
-0.125
 49
0.125
 49
-0.125
 49
0.125
 49
-0.125
  0
ENDTAB
  0
TABLE
  2
LAYER
 70
     2
  0
LAYER
  2
0
 70
     0
 62
   255
  6
CONTINUOUS
  0
LAYER
  2
DEFPOINTS
 70
     0
 62
     7
  6
CONTINUOUS
  0
ENDTAB
  0
TABLE
  2
STYLE
 70
     1
  0
STYLE
  2
STANDARD
 70
     0
 40
0.0
 41
0.8
 50
0.0
 71
     0
 42
0.2
  3
txt
  4

  0
ENDTAB
  0
TABLE
  2
VIEW
 70
     0
  0
ENDTAB
  0
TABLE
  2
UCS
 70
     0
  0
ENDTAB
  0
TABLE
  2
APPID
 70
    10
  0
APPID
  2
ACAD
 70
     0
  0
APPID
  2
ACAD_MLEADERVER
 70
     0
  0
APPID
  2
ACAD_EXEMPT_FROM_CAD_STANDARDS
 70
     0
  0
APPID
  2
ACAD_NAV_VCDISPLAY
 70
     0
  0
APPID
  2
ACAECLAYERSTANDARD
 70
     0
  0
APPID
  2
ACCMTRANSPARENCY
 70
     0
  0
APPID
  2
ACAD_DSTYLE_DIMJAG
 70
     0
  0
APPID
  2
ACAD_DSTYLE_DIMTALN
 70
     0
  0
APPID
  2
ACDBATTR
 70
     0
  0
APPID
  2
ACADANNOTATIVE
 70
     0
  0
ENDTAB
  0
TABLE
  2
DIMSTYLE
 70
     1
  0
DIMSTYLE
  2
STANDARD
 70
     0
  3

  4

  5

  6

  7

 40
1.0
 41
0.1875
 42
0.0625
 43
0.38
 44
0.125
 45
0.0
 46
0.0
 47
0.01
 48
0.01
140
0.15625
141
0.09
142
0.0
143
25.3999999999999986
144
1.0
145
0.0
146
1.0
147
0.09
 71
     1
 72
     0
 73
     1
 74
     1
 75
     0
 76
     0
 77
     0
 78
     4
170
     0
171
     2
172
     0
173
     0
174
     0
175
     0
176
     0
177
     0
178
     0
  0
ENDTAB
  0
ENDSEC
  0
SECTION
  2
BLOCKS
  0
BLOCK
  8
0
  2
$MODEL_SPACE
 70
     0
 10
0.0
 20
0.0
 30
0.0
  3
$MODEL_SPACE
  1

  0
ENDBLK
  5
21
  8
0
  0
BLOCK
 67
     1
  8
0
  2
$PAPER_SPACE
 70
     0
 10
0.0
 20
0.0
 30
0.0
  3
$PAPER_SPACE
  1

  0
ENDBLK
  5
1D
 67
     1
  8
0
  0
ENDSEC
  0
SECTION
  2
ENTITIES
  0
ATTDEF
  5
3930
  8
DEFPOINTS
 10
4942.4158592690191654
 20
320.7115336528823946
 30
0.0
 40
0.001
  1
K-28682T
  3

  2
MODELNUMBER
 70
     0
1001
ACDBATTR
1070
     0
1070
     1
  0
ATTDEF
  5
3931
  8
DEFPOINTS
 10
4942.4158592690191654
 20
320.7098669862156726
 30
0.0
 40
0.001
  1
SPAVIVA
  3

  2
TRADENAME
 70
     0
1001
ACDBATTR
1070
     0
1070
     1
  0
ATTDEF
  5
3932
  8
DEFPOINTS
 10
4942.4158592690191654
 20
320.7082003195491211
 30
0.0
 40
0.001
  1
GROOMING HANDSHOWER KIT
  3

  2
PRODUCT
 70
     0
1001
ACDBATTR
1070
     0
1070
     1
  0
LINE
  5
1EFC5
  8
0
 10
4945.5687373367200053
 20
318.8606908924140839
 30
0.0
 11
4947.630604428362858
 21
318.8606908924140839
 31
0.0
  0
LINE
  5
1EFC6
  8
0
 10
4945.4780825533189272
 20
318.4079367696140821
 30
0.0
 11
4947.7212589289183597
 21
318.4079367696140821
 31
0.0
  0
LINE
  5
1EFC7
  8
0
 10
4945.576629972119008
 20
318.3157646155136717
 30
0.0
 11
4947.622711510118279
 21
318.3157646155136717
 31
0.0
  0
ARC
  5
1EFC8
  8
0
 10
4946.599670741117734
 20
329.423194767568873
 30
0.0
 40
11.1544438228815892
 50
264.737666021397672
 51
275.2623339786022143
  0
ARC
  5
1EFC9
  8
0
 10
4945.5858709793756134
 20
318.3939384231239274
 30
0.0
 40
0.078718107265209
 50
180.0050685090444915
 51
263.2582925686659223
  0
ARC
  5
1EFCA
  8
0
 10
4945.4784313570244194
 20
318.4479345228323268
 30
0.0
 40
0.0399992740750018
 50
180.8562658269441101
 51
269.500360094542998
  0
LINE
  5
1EFCB
  8
0
 10
4945.5071528724183736
 20
318.3939314595493215
 30
0.0
 11
4945.5071528724183736
 21
318.4079367667179099
 31
0.0
  0
ARC
  5
1EFCC
  8
0
 10
4946.7825275660643456
 20
318.4231908308281049
 30
0.0
 40
1.3443078839275211
 50
163.3553048883651115
 51
178.9708200028217107
  0
ARC
  5
1EFCD
  8
0
 10
4945.5687373367200053
 20
318.7819908924141146
 30
0.0
 40
0.0787
 50
90.0
 51
160.5098050432827108
  0
ARC
  5
1EFCE
  8
0
 10
4947.6134705028616736
 20
318.3939384231239274
 30
0.0
 40
0.078718107265209
 50
276.7417074313340777
 51
359.9949314909554232
  0
ARC
  5
1EFCF
  8
0
 10
4947.7210186200300086
 20
318.4478160295619205
 30
0.0
 40
0.0398799839812665
 50
270.3452551140813966
 51
359.3114281762565838
  0
LINE
  5
1EFD0
  8
0
 10
4947.6921886098189134
 20
318.3939314595493215
 30
0.0
 11
4947.6921886098189134
 21
318.4079367667179099
 31
0.0
  0
ARC
  5
1EFD1
  8
0
 10
4946.4775348550010676
 20
318.4326637609556201
 30
0.0
 40
1.2834447466187959
 50
0.6550494564079373
 51
17.0159709061619111
  0
ARC
  5
1EFD2
  8
0
 10
4947.630604428362858
 20
318.7819912925581889
 30
0.0
 40
0.0786995998563727
 50
19.4899890364849604
 51
90.0002059202087565
  0
LINE
  5
1EFD3
  8
0
 10
4957.435802888507169
 20
318.1675137440141157
 30
0.0
 11
4959.6367503412348015
 21
318.1675137440141157
 31
0.0
  0
LINE
  5
1EFD4
  8
0
 10
4957.3232414268022694
 20
318.2771680116587163
 30
0.0
 11
4957.316116755207986
 21
318.5494145314140724
 31
0.0
  0
LINE
  5
1EFD5
  8
0
 10
4957.3279167380342187
 20
318.561214531414123
 30
0.0
 11
4959.7446349579813614
 21
318.561214531414123
 31
0.0
  0
ARC
  5
1EFD6
  8
0
 10
4957.327904790183311
 20
318.5494264964215745
 30
0.0
 40
0.0117880410473724
 50
89.9419274498848438
 51
180.0581559352320937
  0
ARC
  5
1EFD7
  8
0
 10
4957.435802888507169
 20
318.2801137440141019
 30
0.0
 40
0.1126
 50
181.4990878278163109
 51
270.0
  0
LINE
  5
1EFD8
  8
0
 10
4959.7493102686667044
 20
318.2771680116587163
 30
0.0
 11
4959.7564349408066846
 21
318.5494145314140724
 31
0.0
  0
ARC
  5
1EFD9
  8
0
 10
4959.7446559808704478
 20
318.5494355714462813
 30
0.0
 40
0.0117789787293488
 50
359.8976561790717028
 51
90.1022630875520463
  0
ARC
  5
1EFDA
  8
0
 10
4959.6367488069627143
 20
318.2801137440141019
 30
0.0
 40
0.1126
 50
270.0
 51
358.5009121721836891
  0
LINE
  5
1EFDB
  8
0
 10
4959.1920432459573931
 20
318.1580539015141085
 30
0.0
 11
4959.1920432459573931
 21
318.1675137440141157
 31
0.0
  0
ARC
  5
1EFDC
  8
0
 10
4959.1802432459580814
 20
318.1580539015141085
 30
0.0
 40
0.0118
 50
270.0
 51
0.0
  0
LINE
  5
1EFDD
  8
0
 10
4959.1566101750577218
 20
318.1580539015141085
 30
0.0
 11
4959.1566101750577218
 21
318.1675137440141157
 31
0.0
  0
LINE
  5
1EFDE
  8
0
 10
4959.1802432459580814
 20
318.1462539015141147
 30
0.0
 11
4959.168410175057943
 21
318.1462539015141147
 31
0.0
  0
ARC
  5
1EFDF
  8
0
 10
4959.168410175057943
 20
318.1580539015141085
 30
0.0
 40
0.0118
 50
180.0
 51
270.0
  0
LINE
  5
1EFE0
  8
0
 10
4959.0534809414066331
 20
318.1580539014141209
 30
0.0
 11
4959.0534809414066331
 21
318.1675137439141281
 31
0.0
  0
ARC
  5
1EFE1
  8
0
 10
4959.0416809414073214
 20
318.1580539014141209
 30
0.0
 40
0.0118
 50
270.0
 51
0.0
  0
LINE
  5
1EFE2
  8
0
 10
4959.0180478705069618
 20
318.1580539014141209
 30
0.0
 11
4959.0180478705069618
 21
318.1675137439141281
 31
0.0
  0
LINE
  5
1EFE3
  8
0
 10
4959.0416809414073214
 20
318.1462539014141271
 30
0.0
 11
4959.0298478705080925
 21
318.1462539014141271
 31
0.0
  0
ARC
  5
1EFE4
  8
0
 10
4959.0298478705080925
 20
318.1580539014141209
 30
0.0
 40
0.0118
 50
180.0
 51
270.0
  0
LINE
  5
1EFE5
  8
0
 10
4953.38066134582823
 20
318.8722381534141164
 30
0.0
 11
4955.4620551844873262
 21
318.8722381534141164
 31
0.0
  0
ARC
  5
1EFE6
  8
0
 10
4955.0644614555576482
 20
318.4084350264141108
 30
0.0
 40
1.8059774032999041
 50
167.117414385992106
 51
176.6052303396010075
  0
ARC
  5
1EFE7
  8
0
 10
4953.4352137985670197
 20
318.5125688890327069
 30
0.0
 40
0.1735833911634317
 50
179.0732582213900059
 51
204.5804274174919044
  0
LINE
  5
1EFE8
  8
0
 10
4953.2773608363449966
 20
318.4403633767421979
 30
0.0
 11
4953.3164512375578852
 21
318.3527963587141016
 31
0.0
  0
LINE
  5
1EFE9
  8
0
 10
4953.3164512375578852
 20
318.3527963587141016
 30
0.0
 11
4953.3206106179568451
 21
318.3499815726141264
 31
0.0
  0
ARC
  5
1EFEA
  8
0
 10
4953.4631824387333836
 20
318.4680261250032913
 30
0.0
 40
0.1850802433504445
 50
219.6248159354776988
 51
229.2116053374624016
  0
LINE
  5
1EFEB
  8
0
 10
4953.2773608363449966
 20
318.4403633767421979
 30
0.0
 11
4955.5653521404756248
 21
318.4403554165060086
 31
0.0
  0
ARC
  5
1EFEC
  8
0
 10
4953.38066134582823
 20
318.7935381534140902
 30
0.0
 40
0.0787
 50
90.0
 51
167.1174143859952892
  0
ARC
  5
1EFED
  8
0
 10
4954.5595322458902956
 20
319.0145870183301895
 30
0.0
 40
1.394879737443411
 50
204.309495520678496
 51
209.2750040635393134
  0
ARC
  5
1EFEE
  8
0
 10
4954.5369944098702035
 20
319.0151182099447169
 30
0.0
 40
1.3540130481376029
 50
205.1179228468747056
 51
209.37840315011141
  0
ARC
  5
1EFEF
  8
0
 10
4954.3480128840947145
 20
318.8845646408888115
 30
0.0
 40
1.0936812704919421
 50
203.9633922237526917
 51
209.3281556467821076
  0
ARC
  5
1EFF0
  8
0
 10
4954.4483638744168275
 20
318.9318995016199096
 30
0.0
 40
1.1640698151822011
 50
204.9771825611722136
 51
211.695914308752009
  0
ARC
  5
1EFF1
  8
0
 10
4954.5555049818267435
 20
318.9615370244022756
 30
0.0
 40
1.2212809784154779
 50
205.2611339306241973
 51
215.2061771880790957
  0
ARC
  5
1EFF2
  8
0
 10
4954.526800045507116
 20
318.8575077563892251
 30
0.0
 40
1.0821022618577421
 50
202.6745437515014032
 51
243.6198120996506873
  0
ARC
  5
1EFF3
  8
0
 10
4954.9203941859941551
 20
319.0738958023748069
 30
0.0
 40
1.4666329184877569
 50
205.592358936830891
 51
233.2435500640856105
  0
ARC
  5
1EFF4
  8
0
 10
4955.0964885801240598
 20
319.1003567383194195
 30
0.0
 40
1.5580617481558661
 50
205.0621373119844861
 51
226.7733381032593059
  0
ARC
  5
1EFF5
  8
0
 10
4955.3596597263058356
 20
319.1564018008086805
 30
0.0
 40
1.7338483324337861
 50
204.392079093584897
 51
219.1617424082755861
  0
ARC
  5
1EFF6
  8
0
 10
4955.6441193417576869
 20
319.2007704194139137
 30
0.0
 40
1.918168847299591
 50
203.3549235457460043
 51
212.9230599185590052
  0
ARC
  5
1EFF7
  8
0
 10
4955.9526438865586897
 20
319.2326145013147993
 30
0.0
 40
2.115051036801666
 50
201.9983732838227866
 51
208.2087796012561114
  0
ARC
  5
1EFF8
  8
0
 10
4956.3085667452596681
 20
319.2587974141151221
 30
0.0
 40
2.350874341902609
 50
200.3737665561370136
 51
204.410161251920897
  0
ARC
  5
1EFF9
  8
0
 10
4956.7494856532612175
 20
319.2858747009157128
 30
0.0
 40
2.665724918304675
 50
198.4925513957053056
 51
201.0502334827326933
  0
ARC
  5
1EFFA
  8
0
 10
4957.4208778125575918
 20
319.3458092166141
 30
0.0
 40
3.21094033449975
 50
196.3790213586943878
 51
198.0450023811806091
  0
ARC
  5
1EFFB
  8
0
 10
4951.6221284031444156
 20
317.8435923330898163
 30
0.0
 40
3.016757234020909
 50
9.1280210664561441
 51
11.4089563154374005
  0
ARC
  5
1EFFC
  8
0
 10
4951.8280183120314177
 20
317.8341223090891958
 30
0.0
 40
2.9285978918579709
 50
8.2372590841605433
 51
11.9468057389324507
  0
ARC
  5
1EFFD
  8
0
 10
4952.6831820496081491
 20
318.0549561138507784
 30
0.0
 40
2.1554102697453712
 50
1.5601942495561569
 51
10.3000977588122993
  0
ARC
  5
1EFFE
  8
0
 10
4951.7501866706406872
 20
318.2275354685872912
 30
0.0
 40
3.1783610751554421
 50
357.4213776316327085
 51
3.8393824238138068
  0
ARC
  5
1EFFF
  8
0
 10
4953.778255074757908
 20
318.4084350264141108
 30
0.0
 40
1.8059774032999041
 50
3.3947696603989521
 51
12.8825856140078905
  0
ARC
  5
1F000
  8
0
 10
4955.4620551844873262
 20
318.7935381534140902
 30
0.0
 40
0.0787
 50
12.8825856140047197
 51
90.0
  0
ARC
  5
1F001
  8
0
 10
4953.3685585520088352
 20
318.3272046187947808
 30
0.0
 40
0.0262920898188935
 50
115.7602032279734061
 51
203.1190724439111079
  0
ARC
  5
1F002
  8
0
 10
4953.3731380487515708
 20
318.2824377354364174
 30
0.0
 40
0.0702876894047012
 50
76.509480644493209
 51
103.1823944513798068
  0
ARC
  5
1F003
  8
0
 10
4953.1490489194738984
 20
317.719736795983124
 30
0.0
 40
0.6753197727112764
 50
51.8010285074655314
 51
69.1386897207972169
  0
ARC
  5
1F004
  8
0
 10
4950.9034947854288475
 20
315.0427042281377226
 30
0.0
 40
4.1691834200710352
 50
45.5347198954837609
 51
50.2995029049878823
  0
ARC
  5
1F005
  8
0
 10
4954.3716730710448246
 20
318.5093236977339757
 30
0.0
 40
0.7359073517013592
 50
221.9121662292832013
 51
231.4231709604985099
  0
ARC
  5
1F006
  8
0
 10
4953.9988472993672985
 20
318.0419053539189918
 30
0.0
 40
0.1380119058567888
 50
231.4231709604985099
 51
252.6406038547814035
  0
ARC
  5
1F007
  8
0
 10
4954.2379775542576681
 20
318.5191540363530862
 30
0.0
 40
0.6703897985232032
 50
245.2836037044104955
 51
253.7314596730649896
  0
ARC
  5
1F008
  8
0
 10
4954.4419961211087866
 20
318.0137653867760719
 30
0.0
 40
0.4154655951616079
 50
148.110098714675587
 51
203.9964578047529926
  0
ARC
  5
1F009
  8
0
 10
4954.4229473541072366
 20
318.0248149609660118
 30
0.0
 40
0.4029520140666606
 50
206.5341464145224961
 51
269.7740467279683116
  0
ARC
  5
1F00A
  8
0
 10
4954.4045921659180749
 20
318.0371841234828025
 30
0.0
 40
0.4156563232814191
 50
272.3117353377426184
 51
343.0289923958217173
  0
ARC
  5
1F00B
  8
0
 10
4954.4232486840392085
 20
317.8466883002994905
 30
0.0
 40
0.5075125490258606
 50
49.3964672809601524
 51
90.2134198929632021
  0
ARC
  5
1F00C
  8
0
 10
4954.4241374309749517
 20
317.8300931453405838
 30
0.0
 40
0.5241115516748494
 50
90.3038193255713253
 51
129.7164059191206888
  0
ARC
  5
1F00D
  8
0
 10
4954.2330567958433676
 20
318.069534064493098
 30
0.0
 40
0.2179144647564233
 50
131.2987746553332045
 51
198.8126555008869047
  0
ARC
  5
1F00E
  8
0
 10
4953.9683105995509322
 20
317.9210087081893903
 30
0.0
 40
0.2889882490255147
 50
283.6371463809496731
 51
313.8109163126031831
  0
ARC
  5
1F00F
  8
0
 10
4953.9452779100647604
 20
317.8265633353983048
 30
0.0
 40
0.207497040898983
 50
261.3104314343437977
 51
336.1944787731956126
  0
ARC
  5
1F010
  8
0
 10
4953.8847367748712713
 20
317.8394931051159915
 30
0.0
 40
0.2199905200270778
 50
240.9060350815454967
 51
345.9990624352902273
  0
ARC
  5
1F011
  8
0
 10
4953.8154504211106541
 20
317.9084864786823914
 30
0.0
 40
0.2639301586831491
 50
257.57807756177192
 51
343.2613760125170757
  0
ARC
  5
1F012
  8
0
 10
4953.6090545323886545
 20
318.0040130774883096
 30
0.0
 40
0.3822940233356162
 50
304.8800389068392178
 51
342.3099519905427996
  0
ARC
  5
1F013
  8
0
 10
4953.6054433051876913
 20
318.2014873768005145
 30
0.0
 40
0.5573138828946079
 50
293.5001723073880839
 51
321.058267345754075
  0
ARC
  5
1F014
  8
0
 10
4953.6104437646908991
 20
317.9880496941490833
 30
0.0
 40
0.3684906126835725
 50
268.4214169171175968
 51
306.1223534214124129
  0
ARC
  5
1F015
  8
0
 10
4953.6117769131951718
 20
318.0364250095482248
 30
0.0
 40
0.4168842943464835
 50
222.1578242093229107
 51
268.4214169171175968
  0
ARC
  5
1F016
  8
0
 10
4953.6083053312149787
 20
318.0147831019065165
 30
0.0
 40
0.4000204230247942
 50
191.7706964588041103
 51
220.1932852840955093
  0
LINE
  5
1F017
  8
0
 10
4953.2469118798762793
 20
318.1339526261144215
 30
0.0
 11
4953.2588826121964303
 21
318.1339526261144215
 31
0.0
  0
ARC
  5
1F018
  8
0
 10
4953.2589241050236524
 20
318.0975352825296909
 30
0.0
 40
0.0383473136835517
 50
108.2550886803184937
 51
162.6913663478831893
  0
ARC
  5
1F019
  8
0
 10
4953.556732713823294
 20
318.0086153198510033
 30
0.0
 40
0.3491450215009813
 50
163.3002548991755987
 51
178.9137643115601861
  0
ARC
  5
1F01A
  8
0
 10
4953.6809283675620463
 20
318.0230832622524986
 30
0.0
 40
0.4733430147782595
 50
180.950138846222103
 51
189.4096811308154997
  0
ARC
  5
1F01B
  8
0
 10
4953.2894169536266418
 20
317.9558934465881066
 30
0.0
 40
0.0761485575245325
 50
187.6965358772800982
 51
220.0226679303947037
  0
ARC
  5
1F01C
  8
0
 10
4953.2519752063881242
 20
317.9247809119440262
 30
0.0
 40
0.02746902251491
 50
220.5499039491184874
 51
259.5684183840680248
  0
LINE
  5
1F01D
  8
0
 10
4953.2470016304077944
 20
317.8977659024141076
 30
0.0
 11
4953.2588852405860962
 21
317.8977659024141076
 31
0.0
  0
ARC
  5
1F01E
  8
0
 10
4953.216606822279573
 20
318.0980252686197218
 30
0.0
 40
0.0554737771629358
 50
26.2660917950503894
 51
40.2750676842437798
  0
ARC
  5
1F01F
  8
0
 10
4952.9907479287230672
 20
318.0237900199005026
 30
0.0
 40
0.2927737653961218
 50
358.5717116969868243
 51
19.71912425257878
  0
ARC
  5
1F020
  8
0
 10
4953.0379079845870365
 20
317.9997538382511948
 30
0.0
 40
0.2460926630947225
 50
339.3917535892863953
 51
3.9001193481779359
  0
ARC
  5
1F021
  8
0
 10
4953.212312969732011
 20
317.9366916524878093
 30
0.0
 40
0.0606975323330171
 50
320.1106544428247958
 51
337.1637709885720824
  0
ARC
  5
1F022
  8
0
 10
4953.2453593591408207
 20
318.1240665921707205
 30
0.0
 40
0.0167514787508082
 50
36.1682836420130087
 51
87.5222972870673459
  0
ARC
  5
1F023
  8
0
 10
4953.2455093631951968
 20
318.1275332070489981
 30
0.0
 40
0.0132816199739914
 50
87.5222972870673459
 51
147.6874032473371017
  0
ARC
  5
1F024
  8
0
 10
4953.354804224279178
 20
318.0555385583762131
 30
0.0
 40
0.144155814842244
 50
146.724082703404008
 51
180.3096879229755984
  0
ARC
  5
1F025
  8
0
 10
4953.2440818075856441
 20
317.9094042392728738
 30
0.0
 40
0.0188306270061724
 50
277.4592309658974045
 51
321.8258628808987964
  0
ARC
  5
1F026
  8
0
 10
4953.2450778474021718
 20
317.9017967400731095
 30
0.0
 40
0.011158199789706
 50
213.8473235519500975
 51
277.4592309658974045
  0
ARC
  5
1F027
  8
0
 10
4953.3111143854557668
 20
317.9575217525166977
 30
0.0
 40
0.0975048794969524
 50
194.4561220883796864
 51
219.4384922243582992
  0
ARC
  5
1F028
  8
0
 10
4953.5911797650678636
 20
318.020402064710197
 30
0.0
 40
0.382905973557763
 50
151.9469471663535103
 51
170.0282962928019117
  0
ARC
  5
1F029
  8
0
 10
4953.6033692828941639
 20
318.0202846795472169
 30
0.0
 40
0.3937588173659641
 50
122.9186754832771982
 51
152.7660501091546905
  0
LINE
  5
1F02A
  8
0
 10
4953.9615902344276037
 20
317.8561371191103717
 30
0.0
 11
4954.0602380620912299
 21
317.8498372161095062
 31
0.0
  0
LINE
  5
1F02B
  8
0
 10
4954.0544094974611653
 20
317.8641382838411005
 30
0.0
 11
4953.9834225518070525
 21
317.8817078401141885
 31
0.0
  0
ARC
  5
1F02C
  8
0
 10
4954.0065523291423233
 20
317.9314194834101954
 30
0.0
 40
0.0548291353090334
 50
202.0959471318496981
 51
245.048436203058202
  0
LINE
  5
1F02D
  8
0
 10
4954.00440348203756
 20
317.8670516980807861
 30
0.0
 11
4954.0567642061214428
 21
317.8581760798222717
 31
0.0
  0
ARC
  5
1F02E
  8
0
 10
4953.9951466429010907
 20
317.8655993809708207
 30
0.0
 40
0.0158372866837868
 50
320.8861102275179178
 51
1.2210238384959311
  0
ARC
  5
1F02F
  8
0
 10
4954.0228340986368494
 20
317.8688230332286935
 30
0.0
 40
0.0202921996791121
 50
185.9323484203337955
 51
220.6341641194815963
  0
ARC
  5
1F030
  8
0
 10
4954.0074746597392732
 20
317.8706451641061221
 30
0.0
 40
0.0191382276842037
 50
191.2765998093780127
 51
233.9622447091992115
  0
ARC
  5
1F031
  8
0
 10
4953.9887059030988894
 20
317.8669027673313963
 30
0.0
 40
0.0139457917045365
 50
302.7050391214461911
 51
359.2727149379031175
  0
ARC
  5
1F032
  8
0
 10
4953.974123378544391
 20
317.8692218952185726
 30
0.0
 40
0.0147657839800225
 50
291.1023735975675777
 51
350.9636564694241088
  0
ARC
  5
1F033
  8
0
 10
4953.987599589941965
 20
317.8739509121980973
 30
0.0
 40
0.0202238828083146
 50
198.8827236233038036
 51
246.2038616767831058
  0
ARC
  5
1F034
  8
0
 10
4954.2157656047611454
 20
317.7054940654873008
 30
0.0
 40
0.2955900025075431
 50
146.7866717554487082
 51
149.172002087678095
  0
ARC
  5
1F035
  8
0
 10
4954.5869863326352061
 20
318.2236773266282057
 30
0.0
 40
0.6830699940317069
 50
210.3862002361684063
 51
211.4727081327802125
  0
ARC
  5
1F036
  8
0
 10
4954.0341570270029479
 20
317.8660883483690895
 30
0.0
 40
0.0224384688349295
 50
180.7071016634403975
 51
204.3357045041632887
  0
LINE
  5
1F037
  8
0
 10
4954.0137122910700782
 20
317.8568418540986045
 30
0.0
 11
4954.0586707265456425
 21
317.8535364797521083
 31
0.0
  0
LINE
  5
1F038
  8
0
 10
4954.0074346906067149
 20
317.8556082082141074
 30
0.0
 11
4954.0592462243448608
 21
317.8521665709059789
 31
0.0
  0
ARC
  5
1F039
  8
0
 10
4953.5371406365748044
 20
318.0636010782868084
 30
0.0
 40
0.3160909030282044
 50
157.9458948462819876
 51
169.57380727799179
  0
ARC
  5
1F03A
  8
0
 10
4953.6273243881141752
 20
318.0358204365422807
 30
0.0
 40
0.4039338829373295
 50
145.7468475334275979
 51
165.4796308592212881
  0
ARC
  5
1F03B
  8
0
 10
4953.6193354382594407
 20
318.0247568902805142
 30
0.0
 40
0.3908355681063733
 50
124.3925640647453008
 51
162.7277874171554117
  0
ARC
  5
1F03C
  8
0
 10
4953.6499814722074007
 20
317.9745247835140844
 30
0.0
 40
0.4259879794000061
 50
121.9024153394938992
 51
157.5961918287482888
  0
ARC
  5
1F03D
  8
0
 10
4953.6585482641394265
 20
317.9039948249446184
 30
0.0
 40
0.4508359386468044
 50
114.6656335091340964
 51
150.7133437787639139
  0
ARC
  5
1F03E
  8
0
 10
4953.6616920651131295
 20
317.7882617606607027
 30
0.0
 40
0.5012154127221159
 50
104.5550712292200046
 51
140.968472431655897
  0
ARC
  5
1F03F
  8
0
 10
4953.6723942634753257
 20
317.5549642479924159
 30
0.0
 40
0.6554309654641597
 50
94.8545815755532828
 51
126.9584009942732052
  0
ARC
  5
1F040
  8
0
 10
4953.700315519961805
 20
316.8381238688918984
 30
0.0
 40
1.281130857126664
 50
89.2394129520696282
 51
109.037914440049704
  0
ARC
  5
1F041
  8
0
 10
4953.7057282886598841
 20
319.2960097659973258
 30
0.0
 40
1.3796226577700601
 50
252.1746623547215052
 51
278.7216411581210878
  0
ARC
  5
1F042
  8
0
 10
4953.6848974830745647
 20
318.5350819997349276
 30
0.0
 40
0.7112473325733056
 50
235.2131104254956995
 51
293.8216079351157077
  0
ARC
  5
1F043
  8
0
 10
4953.6643570800179077
 20
318.257431004884495
 30
0.0
 40
0.5121346280032513
 50
220.1707487941033889
 51
304.0310975635417208
  0
ARC
  5
1F044
  8
0
 10
4953.6574855387470961
 20
318.1275414333908884
 30
0.0
 40
0.4491756652510427
 50
209.2838458936030861
 51
300.6950063870457939
  0
ARC
  5
1F045
  8
0
 10
4953.650187536735757
 20
318.0591576078497269
 30
0.0
 40
0.4264706006501755
 50
202.6051735730283951
 51
243.22361380480001
  0
ARC
  5
1F046
  8
0
 10
4953.6307757716176638
 20
318.0206894582785253
 30
0.0
 40
0.3833821433044999
 50
243.22361380480001
 51
303.1912896254306133
  0
ARC
  5
1F047
  8
0
 10
4953.6136279897746135
 20
317.9990784106191199
 30
0.0
 40
0.3797564182586583
 50
196.4781475647085074
 51
265.6905819026455902
  0
ARC
  5
1F048
  8
0
 10
4953.6798140712126042
 20
318.014209931118728
 30
0.0
 40
0.4590834726331547
 50
195.1100205632812106
 51
211.2546122200376999
  0
LINE
  5
1F049
  8
0
 10
4953.283434838109315
 20
318.0166590467983951
 30
0.0
 11
4953.82500939746933
 21
318.0166590467983951
 31
0.0
  0
CIRCLE
  5
1F04A
  8
0
 10
4954.4213582651082106
 20
318.015857605014105
 30
0.0
 40
0.1249479776999998
  0
CIRCLE
  5
1F04B
  8
0
 10
4954.4213582651082106
 20
318.015857605014105
 30
0.0
 40
0.1153111245999998
  0
LINE
  5
1F04C
  8
0
 10
4954.2426854387804269
 20
318.3217923350155729
 30
0.0
 11
4954.3583451125541615
 21
318.123752645384684
 31
0.0
  0
LINE
  5
1F04D
  8
0
 10
4954.3311585372957779
 20
318.3458914042840888
 30
0.0
 11
4954.3884175249377222
 21
318.1363852149980858
 31
0.0
  0
LINE
  5
1F04E
  8
0
 10
4954.154840585760212
 20
318.27972869526468
 30
0.0
 11
4954.332566942343874
 21
318.1037672070675058
 31
0.0
  0
LINE
  5
1F04F
  8
0
 10
4954.0770644181820899
 20
318.2123516727132824
 30
0.0
 11
4954.3128397540676815
 21
318.0777908746932212
 31
0.0
  0
LINE
  5
1F050
  8
0
 10
4954.0393502229835576
 20
318.1161760380123269
 30
0.0
 11
4954.3005079229260446
 21
318.0475938922281784
 31
0.0
  0
LINE
  5
1F051
  8
0
 10
4954.0265318285019021
 20
318.0148057386526261
 30
0.0
 11
4954.2964147150196368
 21
318.0148057386526261
 31
0.0
  0
LINE
  5
1F052
  8
0
 10
4954.3008306551064379
 20
317.9829168649130224
 30
0.0
 11
4954.0393268453817655
 21
317.911446692743823
 31
0.0
  0
LINE
  5
1F053
  8
0
 10
4954.313463224762927
 20
317.952844452416798
 30
0.0
 11
4954.0785385091021453
 21
317.815643086368425
 31
0.0
  0
LINE
  5
1F054
  8
0
 10
4954.3334486630546962
 20
317.92706628225028
 30
0.0
 11
4954.1431418989168378
 21
317.7348507685450727
 31
0.0
  0
LINE
  5
1F055
  8
0
 10
4954.3594249955040141
 20
317.907339093931796
 30
0.0
 11
4954.2258783465613305
 21
317.6733407344495959
 31
0.0
  0
LINE
  5
1F056
  8
0
 10
4954.3896219778944214
 20
317.8950072628334738
 30
0.0
 11
4954.3213132735218096
 21
317.634890815388701
 31
0.0
  0
ARC
  5
1F057
  8
0
 10
4954.4543217488326263
 20
318.0242000362241015
 30
0.0
 40
0.3643084797629803
 50
342.6992303361466838
 51
34.7792838567467371
  0
ARC
  5
1F058
  8
0
 10
4954.6139468733863396
 20
318.0701675853507027
 30
0.0
 40
0.2137307375483239
 50
342.9105590409486126
 51
49.2192677622479025
  0
LINE
  5
1F059
  8
0
 10
4954.6003303849693111
 20
318.3223048040234744
 30
0.0
 11
4954.4843714176613503
 21
318.123752645384684
 31
0.0
  0
LINE
  5
1F05A
  8
0
 10
4954.5117058891673878
 20
318.3464325451685113
 30
0.0
 11
4954.4542990052759706
 21
318.1363852149980858
 31
0.0
  0
LINE
  5
1F05B
  8
0
 10
4954.6878885037976943
 20
318.2797411298898851
 30
0.0
 11
4954.5101495878707283
 21
318.1037672070675058
 31
0.0
  0
LINE
  5
1F05C
  8
0
 10
4954.7661211025269949
 20
318.212619333174473
 30
0.0
 11
4954.5298767761469207
 21
318.0777908746932212
 31
0.0
  0
LINE
  5
1F05D
  8
0
 10
4954.8066055556819265
 20
318.1170266911216231
 30
0.0
 11
4954.5422086072885577
 21
318.0475938922281784
 31
0.0
  0
LINE
  5
1F05E
  8
0
 10
4954.8185090846927778
 20
318.0148057386526261
 30
0.0
 11
4954.5463018151949655
 21
318.0148057386526261
 31
0.0
  0
LINE
  5
1F05F
  8
0
 10
4954.5418858751099833
 20
317.9829168649130224
 30
0.0
 11
4954.8009824904083871
 21
317.912104589851424
 31
0.0
  0
LINE
  5
1F060
  8
0
 10
4954.5292533054525848
 20
317.952844452416798
 30
0.0
 11
4954.7583933042069475
 21
317.8190214923375834
 31
0.0
  0
LINE
  5
1F061
  8
0
 10
4954.5092678671608155
 20
317.92706628225028
 30
0.0
 11
4954.6948312283548148
 21
317.7396417471406949
 31
0.0
  0
LINE
  5
1F062
  8
0
 10
4954.4832915347105882
 20
317.907339093931796
 30
0.0
 11
4954.6140778872586452
 21
317.6781772828268231
 31
0.0
  0
LINE
  5
1F063
  8
0
 10
4954.4530945523219998
 20
317.8950072628334738
 30
0.0
 11
4954.5205768171035743
 21
317.6380378598490211
 31
0.0
  0
ARC
  5
1F064
  8
0
 10
4955.4075027317467175
 20
318.5125688890327069
 30
0.0
 40
0.1735833911634317
 50
335.419572582508124
 51
0.9267417786100119
  0
LINE
  5
1F065
  8
0
 10
4955.5653556939705595
 20
318.4403633767421979
 30
0.0
 11
4955.5068260609650679
 21
318.3092502320944277
 31
0.0
  0
ARC
  5
1F066
  8
0
 10
4955.4741579783067209
 20
318.3272046187947808
 30
0.0
 40
0.0262920898188935
 50
336.8809275560888068
 51
64.2397967720266081
  0
ARC
  5
1F067
  8
0
 10
4955.4695784815639854
 20
318.2824377354364174
 30
0.0
 40
0.0702876894047012
 50
76.8176055486201932
 51
103.4905193555067058
  0
ARC
  5
1F068
  8
0
 10
4955.6936676108416577
 20
317.719736795983124
 30
0.0
 40
0.6753197727112764
 50
110.8613102792027973
 51
128.1989714925344117
  0
ARC
  5
1F069
  8
0
 10
4957.9392217448857991
 20
315.0427042281377226
 30
0.0
 40
4.1691834200710352
 50
129.7004970950121105
 51
134.4652801045162107
  0
ARC
  5
1F06A
  8
0
 10
4954.4710434592707315
 20
318.5093236977339757
 30
0.0
 40
0.7359073517013592
 50
308.367111855238818
 51
318.0878337707168839
  0
ARC
  5
1F06B
  8
0
 10
4954.8744059307628049
 20
317.9210087081893903
 30
0.0
 40
0.2889882490255147
 50
224.8954214149862878
 51
256.3628536190503269
  0
ARC
  5
1F06C
  8
0
 10
4954.8974386202498863
 20
317.8265633353983048
 30
0.0
 40
0.207497040898983
 50
201.7628558010295023
 51
278.6895685656562023
  0
ARC
  5
1F06D
  8
0
 10
4954.9579797554451943
 20
317.8394931051159915
 30
0.0
 40
0.2199905200270778
 50
191.6307338475949962
 51
299.0939649184543896
  0
ARC
  5
1F06E
  8
0
 10
4955.0272661092039925
 20
317.9084864786823914
 30
0.0
 40
0.2639301586831491
 50
194.5120680477427868
 51
282.42192243822808
  0
ARC
  5
1F06F
  8
0
 10
4955.2336619979259922
 20
318.0040130774883096
 30
0.0
 40
0.3822940233356162
 50
197.3277698779938873
 51
235.1199610931608106
  0
ARC
  5
1F070
  8
0
 10
4955.2372732251278649
 20
318.2014873768005145
 30
0.0
 40
0.5573138828946079
 50
218.9417326542433955
 51
246.4998276926120013
  0
ARC
  5
1F071
  8
0
 10
4955.2322727656228381
 20
317.9880496941490833
 30
0.0
 40
0.3684906126835725
 50
233.8776465785875871
 51
271.5785830828822895
  0
ARC
  5
1F072
  8
0
 10
4955.2309396171203844
 20
318.0364250095482248
 30
0.0
 40
0.4168842943464835
 50
271.5785830828822895
 51
317.8421757906771177
  0
ARC
  5
1F073
  8
0
 10
4955.234411199099668
 20
318.0147831019065165
 30
0.0
 40
0.4000204230247942
 50
319.8067147159019896
 51
348.2293035411959181
  0
LINE
  5
1F074
  8
0
 10
4955.5958046504392769
 20
318.1339526261144215
 30
0.0
 11
4955.5838339181191259
 21
318.1339526261144215
 31
0.0
  0
ARC
  5
1F075
  8
0
 10
4955.5837924252919038
 20
318.0975352825296909
 30
0.0
 40
0.0383473136835517
 50
17.308633652116761
 51
71.7449113196814352
  0
ARC
  5
1F076
  8
0
 10
4955.2768502457211071
 20
318.0071861853601263
 30
0.0
 40
0.3583062438999907
 50
1.2870365174812051
 51
16.4989443542582599
  0
ARC
  5
1F077
  8
0
 10
4955.1650405944219528
 20
318.0227884180812907
 30
0.0
 40
0.4700862028924817
 50
350.5609605568122902
 51
359.0792193532125793
  0
ARC
  5
1F078
  8
0
 10
4955.5532995766880049
 20
317.9558934465881066
 30
0.0
 40
0.0761485575245325
 50
319.9773320696053247
 51
352.3034641227166048
  0
ARC
  5
1F079
  8
0
 10
4955.5907413239283414
 20
317.9247809119440262
 30
0.0
 40
0.02746902251491
 50
280.4315816159319752
 51
319.4500960508814842
  0
LINE
  5
1F07A
  8
0
 10
4955.5957148999068522
 20
317.8977659024141076
 30
0.0
 11
4955.5838312897285505
 21
317.8977659024141076
 31
0.0
  0
ARC
  5
1F07B
  8
0
 10
4955.6261097080350737
 20
318.0980252686197218
 30
0.0
 40
0.0554737771629358
 50
139.724932315756206
 51
153.7339082049496142
  0
ARC
  5
1F07C
  8
0
 10
4955.8519686015933985
 20
318.0237900199005026
 30
0.0
 40
0.2927737653961218
 50
160.2808757474211916
 51
181.4282883030099924
  0
ARC
  5
1F07D
  8
0
 10
4955.8048085457294292
 20
317.9997538382511948
 30
0.0
 40
0.2460926630947225
 50
176.0998806518219908
 51
200.6082464107134911
  0
ARC
  5
1F07E
  8
0
 10
4955.6304035605826357
 20
317.9366916524878093
 30
0.0
 40
0.0606975323330171
 50
202.8362290114280029
 51
219.8893455571750906
  0
ARC
  5
1F07F
  8
0
 10
4955.5973571711747354
 20
318.1240665921707205
 30
0.0
 40
0.0167514787508082
 50
92.4777027129326683
 51
143.8317163579870055
  0
ARC
  5
1F080
  8
0
 10
4955.5972071671203594
 20
318.1275332070489981
 30
0.0
 40
0.0132816199739914
 50
32.3125967526629267
 51
92.4777027129326683
  0
ARC
  5
1F081
  8
0
 10
4955.4879123060363781
 20
318.0555385583762131
 30
0.0
 40
0.144155814842244
 50
359.4368717012322918
 51
33.2759172965959422
  0
ARC
  5
1F082
  8
0
 10
4955.598634722729912
 20
317.9094042392728738
 30
0.0
 40
0.0188306270061724
 50
218.1741371191012036
 51
262.5407690341025955
  0
ARC
  5
1F083
  8
0
 10
4955.5976386829133844
 20
317.9017967400731095
 30
0.0
 40
0.011158199789706
 50
262.5407690341025955
 51
326.1526764480498173
  0
ARC
  5
1F084
  8
0
 10
4955.5316021448579704
 20
317.9575217525166977
 30
0.0
 40
0.0975048794969524
 50
320.5615077756417008
 51
345.5438779116201999
  0
ARC
  5
1F085
  8
0
 10
4955.251536765246783
 20
318.020402064710197
 30
0.0
 40
0.382905973557763
 50
9.9717037071980332
 51
28.0530528336465501
  0
ARC
  5
1F086
  8
0
 10
4955.2393472474223017
 20
318.0202846795472169
 30
0.0
 40
0.3937588173659641
 50
27.2339498908452988
 51
57.0813245167227734
  0
LINE
  5
1F087
  8
0
 10
4954.8811262958870429
 20
317.8561371191103717
 30
0.0
 11
4954.7754045722613228
 21
317.849385458990696
 31
0.0
  0
LINE
  5
1F088
  8
0
 10
4954.8383130482770866
 20
317.8670516980807861
 30
0.0
 11
4954.7791770123649258
 21
317.8570276029356023
 31
0.0
  0
ARC
  5
1F089
  8
0
 10
4954.847569887413556
 20
317.8655993809708207
 30
0.0
 40
0.0158372866837868
 50
178.7789761615040902
 51
219.1138897724821106
  0
ARC
  5
1F08A
  8
0
 10
4954.8198824316777973
 20
317.8688230332286935
 30
0.0
 40
0.0202921996791121
 50
319.3658358805183752
 51
354.0676515796661761
  0
ARC
  5
1F08B
  8
0
 10
4954.835241870576283
 20
317.8706451641061221
 30
0.0
 40
0.0191382276842037
 50
306.037755290800817
 51
348.7234001906188041
  0
ARC
  5
1F08C
  8
0
 10
4954.8540106272166668
 20
317.8669027673313963
 30
0.0
 40
0.0139457917045365
 50
180.7272850620967972
 51
237.2949608785538089
  0
ARC
  5
1F08D
  8
0
 10
4954.8685931517711651
 20
317.8692218952185726
 30
0.0
 40
0.0147657839800225
 50
189.0363435305758912
 51
248.8976264024323939
  0
ARC
  5
1F08E
  8
0
 10
4954.8551169403726817
 20
317.8739509121980973
 30
0.0
 40
0.0202238828083146
 50
293.7961383232167805
 51
341.1172763766962248
  0
ARC
  5
1F08F
  8
0
 10
4954.6269509255544108
 20
317.7054940654873008
 30
0.0
 40
0.2955900025075431
 50
30.8279979123218411
 51
33.2133282445513416
  0
ARC
  5
1F090
  8
0
 10
4954.2557301976803501
 20
318.2236773266282057
 30
0.0
 40
0.6830699940317069
 50
328.5272918672197875
 51
329.2844758785203112
  0
ARC
  5
1F091
  8
0
 10
4954.8085595033116988
 20
317.8660883483690895
 30
0.0
 40
0.0224384688349295
 50
335.6642954958336986
 51
359.2928983365595741
  0
LINE
  5
1F092
  8
0
 10
4954.8290042392463874
 20
317.8568418540986045
 30
0.0
 11
4954.7772306446231596
 21
317.8530354246781258
 31
0.0
  0
LINE
  5
1F093
  8
0
 10
4954.8352818397079318
 20
317.8556082082141074
 30
0.0
 11
4954.776571884810437
 21
317.8517083358004243
 31
0.0
  0
ARC
  5
1F094
  8
0
 10
4955.3250178478001544
 20
318.0664034577271195
 30
0.0
 40
0.2964637949588778
 50
10.5735136858758096
 51
28.112555516352181
  0
ARC
  5
1F095
  8
0
 10
4955.2153921421995619
 20
318.0358204365422807
 30
0.0
 40
0.4039338829373295
 50
14.5203691407787208
 51
34.2531524665724305
  0
ARC
  5
1F096
  8
0
 10
4955.2233810920570249
 20
318.0247568902805142
 30
0.0
 40
0.3908355681063733
 50
17.2722125828445492
 51
55.6074359352546921
  0
ARC
  5
1F097
  8
0
 10
4955.192735058107246
 20
317.9745247835140844
 30
0.0
 40
0.4259879794000061
 50
22.4038081712517112
 51
58.0975846605060582
  0
ARC
  5
1F098
  8
0
 10
4955.1841682661761297
 20
317.9039948249446184
 30
0.0
 40
0.4508359386468044
 50
29.2866562212361288
 51
65.3343664908659036
  0
ARC
  5
1F099
  8
0
 10
4955.1810244652024267
 20
317.7882617606607027
 30
0.0
 40
0.5012154127221159
 50
39.0315275683441101
 51
75.4449287707800096
  0
ARC
  5
1F09A
  8
0
 10
4955.1703222668402304
 20
317.5549642479924159
 30
0.0
 40
0.6554309654641597
 50
53.0415990057268019
 51
85.1454184244467029
  0
ARC
  5
1F09B
  8
0
 10
4955.1424010103528417
 20
316.8381238688918984
 30
0.0
 40
1.281130857126664
 50
70.9620855599503102
 51
90.7605870479303718
  0
ARC
  5
1F09C
  8
0
 10
4955.1369882416547625
 20
319.2960097659973258
 30
0.0
 40
1.3796226577700601
 50
261.1034705165271816
 51
287.8253376452784096
  0
ARC
  5
1F09D
  8
0
 10
4955.157819047240082
 20
318.5350819997349276
 30
0.0
 40
0.7112473325733056
 50
246.1783920648842923
 51
304.7868895745041868
  0
ARC
  5
1F09E
  8
0
 10
4955.1783594502967389
 20
318.257431004884495
 30
0.0
 40
0.5121346280032513
 50
235.9689024364583076
 51
319.8292512058965826
  0
ARC
  5
1F09F
  8
0
 10
4955.1852309915693695
 20
318.1275414333908884
 30
0.0
 40
0.4491756652510427
 50
239.3049936129542061
 51
330.7161541063968002
  0
ARC
  5
1F0A0
  8
0
 10
4955.1925289935779801
 20
318.0591576078497269
 30
0.0
 40
0.4264706006501755
 50
296.7763861952000184
 51
337.3948264269715196
  0
ARC
  5
1F0A1
  8
0
 10
4955.2119407586969828
 20
318.0206894582785253
 30
0.0
 40
0.3833821433044999
 50
236.8087103745693867
 51
296.7763861952000184
  0
ARC
  5
1F0A2
  8
0
 10
4955.2290885405400331
 20
317.9990784106191199
 30
0.0
 40
0.3797564182586583
 50
274.3094180973542962
 51
343.521852435291521
  0
ARC
  5
1F0A3
  8
0
 10
4955.1340348697358422
 20
318.024127074553121
 30
0.0
 40
0.4895424487524501
 50
330.1583731711100995
 51
344.6501336355457283
  0
LINE
  5
1F0A4
  8
0
 10
4955.5592816922062411
 20
318.0166590467983951
 30
0.0
 11
4955.0177071328462262
 21
318.0166590467983951
 31
0.0
  0
LINE
  5
1F0A5
  8
0
 10
4954.4834041971871557
 20
318.3506231191568077
 30
0.0
 11
4954.4597785496116558
 21
318.4403592629485047
 31
0.0
  0
ARC
  5
1F0A6
  8
0
 10
4954.5966862046561801
 20
318.1391391982346022
 30
0.0
 40
0.3331477374708098
 50
303.6956191149549795
 51
350.5673401204899164
  0
ARC
  5
1F0A7
  8
0
 10
4953.5108656481270373
 20
318.3752003797843031
 30
0.0
 40
1.516284515676122
 50
348.6631696678296066
 51
2.4628399381268311
  0
ARC
  5
1F0A8
  8
0
 10
4954.7061800332721759
 20
318.1355538542708814
 30
0.0
 40
0.2971836435070543
 50
316.9487734420728771
 51
348.6631696678296066
  0
ARC
  5
1F0A9
  8
0
 10
4954.7356164338161761
 20
318.1360843296424719
 30
0.0
 40
0.2824976891805233
 50
281.0315041698888194
 51
293.5132439553044037
  0
ARC
  5
1F0AA
  8
0
 10
4954.5821735886202077
 20
318.3135694693838218
 30
0.0
 40
0.5112634526728775
 50
301.370493837617289
 51
311.8456320899318825
  0
ARC
  5
1F0AB
  8
0
 10
4953.66219768146766
 20
318.4692291738201106
 30
0.0
 40
1.4621442220034271
 50
343.9525735005721003
 51
358.8685356993426012
  0
ARC
  5
1F0AC
  8
0
 10
4953.6973268149549767
 20
318.5696645117271828
 30
0.0
 40
1.5230189037137409
 50
344.0934938444617046
 51
355.1295906733745937
  0
ARC
  5
1F0AD
  8
0
 10
4953.7437107384967021
 20
318.6626816934879116
 30
0.0
 40
1.568883955353799
 50
343.9966983360125141
 51
351.8532356987124103
  0
ARC
  5
1F0AE
  8
0
 10
4953.8250678414024151
 20
318.7431034655738813
 30
0.0
 40
1.5733408083874389
 50
343.2572647949846782
 51
348.9057632813705254
  0
ARC
  5
1F0AF
  8
0
 10
4953.9492029266320969
 20
318.8017276502091022
 30
0.0
 40
1.5250225241121731
 50
341.8681744514066736
 51
346.2927198168235918
  0
ARC
  5
1F0B0
  8
0
 10
4953.9985853300022427
 20
318.8708207931475158
 30
0.0
 40
1.5441988733189469
 50
340.3095990956686023
 51
343.8136258774288763
  0
ARC
  5
1F0B1
  8
0
 10
4954.1078075478935716
 20
318.9079126029282065
 30
0.0
 40
1.48823295260027
 50
337.978105699949424
 51
341.6893305133712033
  0
ARC
  5
1F0B2
  8
0
 10
4954.2194347645881862
 20
318.9278587009654871
 30
0.0
 40
1.4149470192378031
 50
334.8696905128155095
 51
339.8463949392972268
  0
ARC
  5
1F0B3
  8
0
 10
4954.4896061187228042
 20
318.0777051091005774
 30
0.0
 40
0.3500367473028931
 50
334.3938852609041987
 51
5.8926843577605892
  0
LINE
  5
1F0B4
  8
0
 10
4948.9742637055651358
 20
318.8643641377141194
 30
0.0
 11
4951.0334248962581114
 21
318.8643641377141194
 31
0.0
  0
ARC
  5
1F0B5
  8
0
 10
4949.9577230020022398
 20
318.4585485969673755
 30
0.0
 40
1.1151229561710581
 50
161.5297096012799045
 51
179.717022327320791
  0
ARC
  5
1F0B6
  8
0
 10
4949.7849977482055692
 20
318.4649495087799096
 30
0.0
 40
0.9423845255375221
 50
180.0543213753553005
 51
182.5627931570782891
  0
ARC
  5
1F0B7
  8
0
 10
4948.9742637055651358
 20
318.7856641377140932
 30
0.0
 40
0.0787
 50
90.0
 51
160.577852117527101
  0
ARC
  5
1F0B8
  8
0
 10
4948.855340680246627
 20
318.4234082322141148
 30
0.0
 40
0.0118
 50
182.898825036337314
 51
270.0
  0
ARC
  5
1F0B9
  8
0
 10
4950.1844506646839363
 20
318.4726300389430094
 30
0.0
 40
0.9809480204942705
 50
357.0889163136005777
 51
358.5279662652517914
  0
ARC
  5
1F0BA
  8
0
 10
4949.8087682646118992
 20
318.4204088572350884
 30
0.0
 40
1.3565758389628999
 50
1.1413486363216869
 51
16.7705090846113301
  0
ARC
  5
1F0BB
  8
0
 10
4951.1523479215766201
 20
318.4234082322141148
 30
0.0
 40
0.0118
 50
270.0
 51
357.1011749636367085
  0
ARC
  5
1F0BC
  8
0
 10
4951.0334248962581114
 20
318.7856641377140932
 30
0.0
 40
0.0787
 50
19.4221478824728813
 51
90.0
  0
LINE
  5
1F0BD
  8
0
 10
4948.855340680246627
 20
318.411608232214121
 30
0.0
 11
4951.1523479215766201
 21
318.411608232214121
 31
0.0
  0
LINE
  5
1F0BE
  8
0
 10
4948.9660265899619844
 20
318.3358518855141028
 30
0.0
 11
4948.9660265899619844
 21
318.411608232214121
 31
0.0
  0
ARC
  5
1F0BF
  8
0
 10
4949.0093259838622544
 20
318.3358595782141265
 30
0.0
 40
0.0432993945833549
 50
180.0101793396756875
 51
338.784594009395903
  0
LINE
  5
1F0C0
  8
0
 10
4949.046756278860812
 20
318.3358518855141028
 30
0.0
 11
4949.046756278860812
 21
318.411608232214121
 31
0.0
  0
LINE
  5
1F0C1
  8
0
 10
4949.1333704520620813
 20
318.3358518855141028
 30
0.0
 11
4949.1333704520620813
 21
318.411608232214121
 31
0.0
  0
ARC
  5
1F0C2
  8
0
 10
4949.0900556727619914
 20
318.3358595782141265
 30
0.0
 40
0.0432993945833549
 50
180.0101793396756875
 51
359.9898206603210156
  0
LINE
  5
1F0C3
  8
0
 10
4949.1478983237620923
 20
318.3358518855141028
 30
0.0
 11
4949.1478983237620923
 21
318.411608232214121
 31
0.0
  0
ARC
  5
1F0C4
  8
0
 10
4949.1911977176614528
 20
318.3358595782141265
 30
0.0
 40
0.0432993945833549
 50
180.0101793396756875
 51
359.9898206603210156
  0
LINE
  5
1F0C5
  8
0
 10
4948.8618348272621006
 20
318.3358518855141028
 30
0.0
 11
4948.8618348272621006
 21
318.411608232214121
 31
0.0
  0
LINE
  5
1F0C6
  8
0
 10
4948.872521489562132
 20
318.3358518855141028
 30
0.0
 11
4948.872521489562132
 21
318.411608232214121
 31
0.0
  0
LINE
  5
1F0C7
  8
0
 10
4948.9075126251618713
 20
318.3358518855141028
 30
0.0
 11
4948.9075126251618713
 21
318.411608232214121
 31
0.0
  0
ARC
  5
1F0C8
  8
0
 10
4948.9051481861652064
 20
318.3358735481801887
 30
0.0
 40
0.0433133643202131
 50
180.0286558065724876
 51
276.4358081568552734
  0
ARC
  5
1F0C9
  8
0
 10
4948.9156074195889232
 20
318.3355540802509722
 30
0.0
 40
0.0430869592138134
 50
179.6039841088341973
 51
294.2382387990430175
  0
LINE
  5
1F0CA
  8
0
 10
4949.2458755240631945
 20
318.3301666661141098
 30
0.0
 11
4949.2458755240631945
 21
318.411608232214121
 31
0.0
  0
ARC
  5
1F0CB
  8
0
 10
4949.2064812515282028
 20
318.3301484400660115
 30
0.0
 40
0.0393942767496328
 50
252.0394454243158009
 51
0.0265083093252279
  0
LINE
  5
1F0CC
  8
0
 10
4949.2671933787623857
 20
318.3235099678141182
 30
0.0
 11
4949.2671933787623857
 21
318.411608232214121
 31
0.0
  0
ARC
  5
1F0CD
  8
0
 10
4949.310410997031795
 20
318.3343723235312837
 30
0.0
 40
0.0434217696938705
 50
185.5581514828311072
 51
1.9526857276770131
  0
LINE
  5
1F0CE
  8
0
 10
4949.2345124970615871
 20
318.3358518855141028
 30
0.0
 11
4949.2345124970615871
 21
318.411608232214121
 31
0.0
  0
ARC
  5
1F0CF
  8
0
 10
4949.0595324331607117
 20
318.3301666661141098
 30
0.0
 40
0.0394285440999954
 50
229.4527352736508874
 51
295.8105987779051134
  0
ARC
  5
1F0D0
  8
0
 10
4949.0170132046614526
 20
318.3301666661141098
 30
0.0
 40
0.0394285440999931
 50
253.1708561883939979
 51
302.6287529944448238
  0
ARC
  5
1F0D1
  8
0
 10
4948.9974690673070654
 20
318.3323131387562057
 30
0.0
 40
0.0417311113784262
 50
233.8891486612548078
 51
284.1864343220926798
  0
ARC
  5
1F0D2
  8
0
 10
4948.9189984474605808
 20
318.3358518855142165
 30
0.0
 40
0.0432917012000792
 50
269.3189437740543895
 51
291.5628444361266247
  0
ARC
  5
1F0D3
  8
0
 10
4948.9508197117620512
 20
318.3358518855141028
 30
0.0
 40
0.0432917012000019
 50
180.0000000000032117
 51
312.5075221901914233
  0
ARC
  5
1F0D4
  8
0
 10
4948.9570886447609155
 20
318.3358518855141028
 30
0.0
 40
0.0432917011999811
 50
265.8479574916487991
 51
295.3873769056103811
  0
ARC
  5
1F0D5
  8
0
 10
4949.0230474432619303
 20
318.3301666661141098
 30
0.0
 40
0.0394285441000119
 50
265.6113684392955179
 51
297.5596806402232914
  0
ARC
  5
1F0D6
  8
0
 10
4949.0810923697617909
 20
318.3235099678141751
 30
0.0
 40
0.0353904656000571
 50
245.3941454773062958
 51
276.4134777362444879
  0
ARC
  5
1F0D7
  8
0
 10
4949.0889987904620284
 20
318.3235099678141182
 30
0.0
 40
0.0353904655999863
 50
240.6815533079420106
 51
293.6048412430736789
  0
ARC
  5
1F0D8
  8
0
 10
4949.0937987023617097
 20
318.3235099678141182
 30
0.0
 40
0.0353904656000285
 50
266.1115810272759177
 51
289.4274405513560282
  0
ARC
  5
1F0D9
  8
0
 10
4949.1231460282624539
 20
318.3301666661141098
 30
0.0
 40
0.0394285440999994
 50
242.4894347917756079
 51
328.5396676940652014
  0
ARC
  5
1F0DA
  8
0
 10
4949.1173413481619718
 20
318.3235099678141182
 30
0.0
 40
0.0353904655999957
 50
238.2037779556627015
 51
297.9027907335528766
  0
ARC
  5
1F0DB
  8
0
 10
4949.1268339498610658
 20
318.3235099678141182
 30
0.0
 40
0.0353904656000062
 50
262.2927016421642747
 51
301.8174892656663815
  0
ARC
  5
1F0DC
  8
0
 10
4949.1689667656519305
 20
318.3189270161108766
 30
0.0
 40
0.034651995484331
 50
221.2904657492572085
 51
283.6828331935861911
  0
ARC
  5
1F0DD
  8
0
 10
4949.184271537062159
 20
318.3179581820140811
 30
0.0
 40
0.0334633502000051
 50
242.2553205224606927
 51
300.8593182327875866
  0
ARC
  5
1F0DE
  8
0
 10
4949.192146993960705
 20
318.3179581820140243
 30
0.0
 40
0.033463350199929
 50
263.2421837672849279
 51
293.2821282298443748
  0
ARC
  5
1F0DF
  8
0
 10
4949.2186003746619463
 20
318.3179581820140811
 30
0.0
 40
0.0334633501999984
 50
231.6535175559542949
 51
296.8103425276991061
  0
ARC
  5
1F0E0
  8
0
 10
4949.2324351646993819
 20
318.3228339950975965
 30
0.0
 40
0.0347647865519466
 50
242.4487955081135055
 51
1.1141395786276509
  0
LINE
  5
1F0E1
  8
0
 10
4949.3538075519609265
 20
318.3358518855141028
 30
0.0
 11
4949.3538075519609265
 21
318.411608232214121
 31
0.0
  0
LINE
  5
1F0E2
  8
0
 10
4949.401976589260812
 20
318.3358518855141028
 30
0.0
 11
4949.401976589260812
 21
318.411608232214121
 31
0.0
  0
ARC
  5
1F0E3
  8
0
 10
4949.4452759831619915
 20
318.3358595782141265
 30
0.0
 40
0.0432993945833549
 50
180.0101793396756875
 51
359.9898206603210156
  0
LINE
  5
1F0E4
  8
0
 10
4949.4885907625621257
 20
318.3358518855141028
 30
0.0
 11
4949.4885907625621257
 21
318.411608232214121
 31
0.0
  0
LINE
  5
1F0E5
  8
0
 10
4949.5492371210621059
 20
318.3358518855141028
 30
0.0
 11
4949.5492371210621059
 21
318.411608232214121
 31
0.0
  0
ARC
  5
1F0E6
  8
0
 10
4949.5925365149623758
 20
318.3358595782141265
 30
0.0
 40
0.0432993945833549
 50
180.0101793396756875
 51
359.9898206603210156
  0
LINE
  5
1F0E7
  8
0
 10
4949.6358512943606911
 20
318.3358518855141028
 30
0.0
 11
4949.6358512943606911
 21
318.411608232214121
 31
0.0
  0
LINE
  5
1F0E8
  8
0
 10
4949.8678266816623363
 20
318.3358518855141028
 30
0.0
 11
4949.8678266816623363
 21
318.411608232214121
 31
0.0
  0
ARC
  5
1F0E9
  8
0
 10
4949.9111260755616968
 20
318.3358595782141265
 30
0.0
 40
0.0432993945833549
 50
180.0101793396756875
 51
359.9898206603210156
  0
LINE
  5
1F0EA
  8
0
 10
4949.9544408549618311
 20
318.3358518855141028
 30
0.0
 11
4949.9544408549618311
 21
318.411608232214121
 31
0.0
  0
LINE
  5
1F0EB
  8
0
 10
4949.800593649260918
 20
318.3358518855141028
 30
0.0
 11
4949.800593649260918
 21
318.411608232214121
 31
0.0
  0
ARC
  5
1F0EC
  8
0
 10
4949.8399343004275579
 20
318.3305014648909719
 30
0.0
 40
0.0397028189802429
 50
172.2551578055617938
 51
332.130162798552476
  0
LINE
  5
1F0ED
  8
0
 10
4949.7056854173606553
 20
318.3358518855141028
 30
0.0
 11
4949.7056854173606553
 21
318.411608232214121
 31
0.0
  0
ARC
  5
1F0EE
  8
0
 10
4949.7489848112618347
 20
318.3358595782141265
 30
0.0
 40
0.0432993945833549
 50
180.0101793396756875
 51
359.9898206603210156
  0
LINE
  5
1F0EF
  8
0
 10
4949.792299590661969
 20
318.3358518855141028
 30
0.0
 11
4949.792299590661969
 21
318.411608232214121
 31
0.0
  0
LINE
  5
1F0F0
  8
0
 10
4949.6540035672605882
 20
318.3358518855141028
 30
0.0
 11
4949.6540035672605882
 21
318.411608232214121
 31
0.0
  0
ARC
  5
1F0F1
  8
0
 10
4949.6973029611617676
 20
318.3358595782141265
 30
0.0
 40
0.0432993945833549
 50
180.0101793396756875
 51
306.6492487363806276
  0
LINE
  5
1F0F2
  8
0
 10
4949.3847444414614074
 20
318.3358518855141028
 30
0.0
 11
4949.3847444414614074
 21
318.411608232214121
 31
0.0
  0
ARC
  5
1F0F3
  8
0
 10
4949.42357973149592
 20
318.3303964007657783
 30
0.0
 40
0.0392166044660661
 50
172.0035581318379911
 51
289.4901444798044281
  0
LINE
  5
1F0F4
  8
0
 10
4949.380537960161746
 20
318.3235099678141182
 30
0.0
 11
4949.3804220767606239
 21
318.411608232214121
 31
0.0
  0
ARC
  5
1F0F5
  8
0
 10
4949.4159284257621039
 20
318.3235099678141182
 30
0.0
 40
0.0353904656000008
 50
179.9999999999967031
 51
297.7268816988209892
  0
LINE
  5
1F0F6
  8
0
 10
4949.514347267760968
 20
318.3358518855141028
 30
0.0
 11
4949.514347267760968
 21
318.411608232214121
 31
0.0
  0
ARC
  5
1F0F7
  8
0
 10
4949.5538339607792295
 20
318.3306325949383222
 30
0.0
 40
0.0398301383319402
 50
172.4703795810081886
 51
301.1169617707355997
  0
LINE
  5
1F0F8
  8
0
 10
4949.4931326790620005
 20
318.3235099678141182
 30
0.0
 11
4949.4930167956617879
 21
318.411608232214121
 31
0.0
  0
ARC
  5
1F0F9
  8
0
 10
4949.5285463916852677
 20
318.3235456576583147
 30
0.0
 40
0.0354137306071104
 50
180.0577425127196989
 51
296.7329887986616086
  0
ARC
  5
1F0FA
  8
0
 10
4949.5179436495618575
 20
318.3179581820140811
 30
0.0
 40
0.0334633502000027
 50
180.8089267655911954
 51
298.4529480528855174
  0
ARC
  5
1F0FB
  8
0
 10
4949.2709699081060535
 20
318.3163385005257737
 30
0.0
 40
0.0319037344022488
 50
228.0239793897002869
 51
316.0497925556114183
  0
ARC
  5
1F0FC
  8
0
 10
4949.3182287693616672
 20
318.3122373288140921
 30
0.0
 40
0.0315359138000004
 50
216.9409455717969024
 51
299.7199067807064239
  0
ARC
  5
1F0FD
  8
0
 10
4949.3387224006855831
 20
318.3179596622396161
 30
0.0
 40
0.033464683708502
 50
241.1440497626296917
 51
359.9974656663541168
  0
ARC
  5
1F0FE
  8
0
 10
4949.3164667760620432
 20
318.3235099678141182
 30
0.0
 40
0.035390465600003
 50
242.0527801552086089
 51
356.2266797308666924
  0
ARC
  5
1F0FF
  8
0
 10
4949.3820721273614254
 20
318.3122373288140921
 30
0.0
 40
0.0315359137999998
 50
222.1035148420629071
 51
315.232314083819972
  0
ARC
  5
1F100
  8
0
 10
4949.4218308850149697
 20
318.3179497438628118
 30
0.0
 40
0.0334549806839341
 50
237.8812528710708136
 51
310.7112445971807801
  0
ARC
  5
1F101
  8
0
 10
4949.4147632156618783
 20
318.3058443805140882
 30
0.0
 40
0.029520568699996
 50
228.8277939726756074
 51
316.7103083264040038
  0
ARC
  5
1F102
  8
0
 10
4949.3861361213621421
 20
318.3058443805140882
 30
0.0
 40
0.0295205687000008
 50
253.6577964057692043
 51
299.0037535782295777
  0
ARC
  5
1F103
  8
0
 10
4949.3695235029617834
 20
318.3058443805140882
 30
0.0
 40
0.0295205686999984
 50
222.8403533066160094
 51
302.1917543537404072
  0
ARC
  5
1F104
  8
0
 10
4949.3435573067617952
 20
318.3058443805140882
 30
0.0
 40
0.0295205686999965
 50
234.5700948336950944
 51
296.0910172854182179
  0
ARC
  5
1F105
  8
0
 10
4949.3376535967618111
 20
318.3058443805142019
 30
0.0
 40
0.0295205687000894
 50
237.6336529506631052
 51
275.7387766988114208
  0
ARC
  5
1F106
  8
0
 10
4949.3530529376175764
 20
318.2930986795250874
 30
0.0
 40
0.0169506974006159
 50
254.6568585121970898
 51
295.4345853811889242
  0
ARC
  5
1F107
  8
0
 10
4949.2752174922607082
 20
318.3122373288140921
 30
0.0
 40
0.031535913799997
 50
224.2308905888467905
 51
312.995521255157314
  0
ARC
  5
1F108
  8
0
 10
4949.2808622311622457
 20
318.3122373288142057
 30
0.0
 40
0.0315359138000057
 50
264.865329875904024
 51
306.3306482933934944
  0
ARC
  5
1F109
  8
0
 10
4949.2552679834589071
 20
318.3141337595284881
 30
0.0
 40
0.0336165908833928
 50
230.7421819237617058
 51
288.0650483909024047
  0
ARC
  5
1F10A
  8
0
 10
4949.2315305176607581
 20
318.3179581820140811
 30
0.0
 40
0.0334633501999469
 50
258.8604915930881134
 51
281.5101455679925948
  0
ARC
  5
1F10B
  8
0
 10
4949.1649462235272949
 20
318.326601403288123
 30
0.0
 40
0.0384423702700436
 50
239.6090282952829114
 51
299.5947770412362274
  0
ARC
  5
1F10C
  8
0
 10
4949.9902909529528188
 20
318.3301763412940204
 30
0.0
 40
0.0394370947954363
 50
193.1045488111201109
 51
0.0
  0
ARC
  5
1F10D
  8
0
 10
4949.9188294695613877
 20
318.3235099678141182
 30
0.0
 40
0.0353904656000008
 50
235.4362952509798106
 51
347.958768976008912
  0
ARC
  5
1F10E
  8
0
 10
4949.9274914722618632
 20
318.3122373288140921
 30
0.0
 40
0.0315359137999985
 50
221.1113318658997002
 51
339.8219830361492768
  0
ARC
  5
1F10F
  8
0
 10
4949.915769296561848
 20
318.2996053260141025
 30
0.0
 40
0.027668973700001
 50
198.8024180461385981
 51
313.3628580473279044
  0
ARC
  5
1F110
  8
0
 10
4949.8642444350616643
 20
318.3058443805140882
 30
0.0
 40
0.0295205686999999
 50
210.6076027718762873
 51
342.2388379141772248
  0
ARC
  5
1F111
  8
0
 10
4949.8616556182623754
 20
318.3179581820140811
 30
0.0
 40
0.0334633502000049
 50
234.0926202794290987
 51
324.7578782581974792
  0
ARC
  5
1F112
  8
0
 10
4949.7828138840623069
 20
318.3235099678141182
 30
0.0
 40
0.0353904655999987
 50
234.5994911915364867
 51
324.1608422627970185
  0
ARC
  5
1F113
  8
0
 10
4949.7988323613617467
 20
318.3122373288140921
 30
0.0
 40
0.0315359137999967
 50
229.0254237489081959
 51
324.4905739697010176
  0
ARC
  5
1F114
  8
0
 10
4949.8169115645614511
 20
318.2995988041141118
 30
0.0
 40
0.0276618331999984
 50
222.8748130235136102
 51
332.8766524058310097
  0
ARC
  5
1F115
  8
0
 10
4949.7896464236619067
 20
318.2931620842140887
 30
0.0
 40
0.0255898591999961
 50
210.6652873952704965
 51
311.3448555825588073
  0
ARC
  5
1F116
  8
0
 10
4949.7531720815195513
 20
318.3058411273897264
 30
0.0
 40
0.0295166310850136
 50
223.1800708541304914
 51
324.2143627317814207
  0
ARC
  5
1F117
  8
0
 10
4949.740339186862002
 20
318.3179581820140811
 30
0.0
 40
0.0334633501999955
 50
220.387682709686203
 51
313.8710718669375979
  0
ARC
  5
1F118
  8
0
 10
4949.7237372344607138
 20
318.2996053260141025
 30
0.0
 40
0.0276689736999982
 50
201.8451868466476924
 51
310.6635357559819113
  0
ARC
  5
1F119
  8
0
 10
4949.7405776104606048
 20
318.2824145596140966
 30
0.0
 40
0.0216837214000007
 50
238.6061211417369066
 51
347.1403520874537776
  0
ARC
  5
1F11A
  8
0
 10
4949.7309545311245529
 20
318.287318700216872
 30
0.0
 40
0.0234731558920042
 50
236.3939193536174912
 51
332.1708947594270853
  0
ARC
  5
1F11B
  8
0
 10
4949.7147969442621616
 20
318.2931620842140887
 30
0.0
 40
0.0255898592000003
 50
200.5126534408495047
 51
306.8685424220440154
  0
ARC
  5
1F11C
  8
0
 10
4949.6710124831997746
 20
318.2873574356273139
 30
0.0
 40
0.023517220604278
 50
232.0966654343247058
 51
340.4316938520993858
  0
ARC
  5
1F11D
  8
0
 10
4949.6764024344620339
 20
318.3122373288140921
 30
0.0
 40
0.0315359138000004
 50
229.2284214401890949
 51
321.7982999930231927
  0
ARC
  5
1F11E
  8
0
 10
4949.6517357527618515
 20
318.3235099678141182
 30
0.0
 40
0.0353904656000038
 50
213.0643799781284997
 51
313.8991233410279165
  0
ARC
  5
1F11F
  8
0
 10
4949.6249090242617967
 20
318.3179581820140811
 30
0.0
 40
0.0334633501999904
 50
226.7132660739200105
 51
301.3840896168582049
  0
ARC
  5
1F120
  8
0
 10
4949.649716635661207
 20
318.3058443805140882
 30
0.0
 40
0.0295205686999911
 50
225.5979925906173094
 51
306.3535249882838229
  0
ARC
  5
1F121
  8
0
 10
4949.6487300224607679
 20
318.2931620842142024
 30
0.0
 40
0.0255898592000029
 50
234.0046666668156945
 51
331.9172689530458911
  0
ARC
  5
1F122
  8
0
 10
4949.6390704787518189
 20
318.2995201415931774
 30
0.0
 40
0.0275915342075565
 50
209.370489711939797
 51
304.3337456021204162
  0
ARC
  5
1F123
  8
0
 10
4949.5933869953978501
 20
318.2935956745698718
 30
0.0
 40
0.0258820377344517
 50
228.7317852534694111
 51
335.7739503256473768
  0
ARC
  5
1F124
  8
0
 10
4949.5639216630606825
 20
318.3122373288140921
 30
0.0
 40
0.0315359137999998
 50
223.7178092530126037
 51
321.7888503579742974
  0
ARC
  5
1F125
  8
0
 10
4949.5570209973620877
 20
318.3058443805140882
 30
0.0
 40
0.0295205686999999
 50
216.6105259887374075
 51
309.245082636493521
  0
ARC
  5
1F126
  8
0
 10
4949.5654902185606261
 20
318.2996053260141025
 30
0.0
 40
0.0276689736999983
 50
233.1532116629907136
 51
345.2508497846566797
  0
ARC
  5
1F127
  8
0
 10
4949.5506456441617047
 20
318.2931620842142024
 30
0.0
 40
0.0255898592000026
 50
203.8069360056589971
 51
303.978177232356984
  0
ARC
  5
1F128
  8
0
 10
4949.5052275882617323
 20
318.2996053260141025
 30
0.0
 40
0.0276689737000012
 50
231.1473234448702954
 51
331.9901177419123997
  0
ARC
  5
1F129
  8
0
 10
4949.4779018589615589
 20
318.3058443805140882
 30
0.0
 40
0.0295205686999959
 50
238.0205751852475089
 51
324.278266409381672
  0
ARC
  5
1F12A
  8
0
 10
4949.4648077182609995
 20
318.3122373288140921
 30
0.0
 40
0.0315359137999989
 50
222.504265110510886
 51
330.2574272454838251
  0
ARC
  5
1F12B
  8
0
 10
4949.420321887461796
 20
318.2996053260141025
 30
0.0
 40
0.0276689736999857
 50
226.1728913092566131
 51
281.6788272159033113
  0
ARC
  5
1F12C
  8
0
 10
4949.4315236949605605
 20
318.2996053260141025
 30
0.0
 40
0.0276689736999919
 50
237.0974720420074107
 51
301.1091723223323129
  0
ARC
  5
1F12D
  8
0
 10
4949.460115174360908
 20
318.2996053260141025
 30
0.0
 40
0.027668973699998
 50
206.3294864164834905
 51
303.1628641578839733
  0
ARC
  5
1F12E
  8
0
 10
4949.5075063009853693
 20
318.2935882761382231
 30
0.0
 40
0.0260871843970638
 50
217.5166434794317922
 51
286.3567445402346152
  0
ARC
  5
1F12F
  8
0
 10
4949.5226793536594414
 20
318.2966274968363791
 30
0.0
 40
0.0291412173992908
 50
237.6841774829983081
 51
299.9391221582740741
  0
ARC
  5
1F130
  8
0
 10
4949.5540634419621711
 20
318.2931620842142024
 30
0.0
 40
0.0255898592000309
 50
266.1709200636120158
 51
304.6608096975446074
  0
ARC
  5
1F131
  8
0
 10
4949.58575536166245
 20
318.2873554534140794
 30
0.0
 40
0.0235151555999985
 50
221.4583875965892048
 51
283.5889949250513951
  0
ARC
  5
1F132
  8
0
 10
4949.596805388161556
 20
318.2873554534141931
 30
0.0
 40
0.0235151556
 50
220.1400693500148122
 51
307.8221604969585883
  0
ARC
  5
1F133
  8
0
 10
4949.6256449684606196
 20
318.2873554534140794
 30
0.0
 40
0.0235151555999951
 50
220.5196372692421107
 51
308.6471078279544145
  0
ARC
  5
1F134
  8
0
 10
4949.6181571307606646
 20
318.2873554534141931
 30
0.0
 40
0.0235151556000093
 50
242.9994146361879928
 51
279.1612198323304028
  0
ARC
  5
1F135
  8
0
 10
4949.4917705461621154
 20
318.2996053260142162
 30
0.0
 40
0.0276689737000239
 50
237.2107718409230017
 51
272.380324728269386
  0
ARC
  5
1F136
  8
0
 10
4949.4509100154618864
 20
318.2996053260141025
 30
0.0
 40
0.0276689737000071
 50
249.492745371682787
 51
279.5753436073846956
  0
ARC
  5
1F137
  8
0
 10
4949.9861483098620738
 20
318.3179581820140811
 30
0.0
 40
0.0334633501999994
 50
186.7860631504647984
 51
323.1151706753017265
  0
ARC
  5
1F138
  8
0
 10
4949.9795582775614093
 20
318.3058443805140882
 30
0.0
 40
0.0295205687000009
 50
204.9223333505698008
 51
327.3571510205871959
  0
ARC
  5
1F139
  8
0
 10
4949.9692964557616506
 20
318.2873554534141931
 30
0.0
 40
0.0235151555999999
 50
237.2742973056371909
 51
338.4010089994827126
  0
ARC
  5
1F13A
  8
0
 10
4949.9563982501622377
 20
318.2931620842140887
 30
0.0
 40
0.0255898591999999
 50
207.5627425340634034
 51
319.5371293760999265
  0
ARC
  5
1F13B
  8
0
 10
4949.9189750375617223
 20
318.2823845879141231
 30
0.0
 40
0.021653753000001
 50
211.2073783050107068
 51
338.1572647694928833
  0
ARC
  5
1F13C
  8
0
 10
4949.919750521561582
 20
318.2779564904141125
 30
0.0
 40
0.0197239060999997
 50
209.5865576004038928
 51
349.2525460034137268
  0
ARC
  5
1F13D
  8
0
 10
4949.9593128373617219
 20
318.2740401302140754
 30
0.0
 40
0.0196514406000004
 50
180.6908142914273867
 51
289.7473853271249027
  0
ARC
  5
1F13E
  8
0
 10
4949.970118746477965
 20
318.2745788097353739
 30
0.0
 40
0.0194850563901968
 50
199.7568712095751096
 51
293.3960693231192067
  0
ARC
  5
1F13F
  8
0
 10
4949.9811758623618516
 20
318.2760435265141155
 30
0.0
 40
0.0196305134000023
 50
217.3362383345321973
 51
295.0682643420528848
  0
ARC
  5
1F140
  8
0
 10
4949.988413965561449
 20
318.2779564904141125
 30
0.0
 40
0.0197239061000003
 50
223.6400277434298118
 51
323.2212009778169204
  0
ARC
  5
1F141
  8
0
 10
4949.9896507802623091
 20
318.2824145596140966
 30
0.0
 40
0.0216837213999996
 50
233.2863489927094918
 51
334.6601731465154899
  0
ARC
  5
1F142
  8
0
 10
4949.940948541860962
 20
318.2740401302140754
 30
0.0
 40
0.0196514405999916
 50
226.5003789888924928
 51
297.8559756445500852
  0
ARC
  5
1F143
  8
0
 10
4949.9149525459606593
 20
318.2760895057140829
 30
0.0
 40
0.0196764917000015
 50
203.8390557607789901
 51
298.2467684943060249
  0
ARC
  5
1F144
  8
0
 10
4949.9116196415616287
 20
318.274770011214116
 30
0.0
 40
0.0196514405999971
 50
205.5193577374093934
 51
296.4292547747609774
  0
ARC
  5
1F145
  8
0
 10
4949.8834148314617778
 20
318.2873229503140919
 30
0.0
 40
0.0234826560000005
 50
237.2465234768334028
 51
328.0253170762762807
  0
ARC
  5
1F146
  8
0
 10
4949.8710055921619642
 20
318.2931622484140917
 30
0.0
 40
0.0255900630000003
 50
208.847052274307913
 51
334.8907846835767259
  0
ARC
  5
1F147
  8
0
 10
4949.8519852944609738
 20
318.2824145596140966
 30
0.0
 40
0.0216837214
 50
197.3078909744810119
 51
317.4591508860045224
  0
ARC
  5
1F148
  8
0
 10
4949.8568179297617462
 20
318.2779564904141125
 30
0.0
 40
0.0197239060999983
 50
240.1318034483416
 51
324.0682055232915104
  0
ARC
  5
1F149
  8
0
 10
4949.8594450486616552
 20
318.2760895057140829
 30
0.0
 40
0.0196764916999997
 50
227.824491466283888
 51
326.1061631527031182
  0
ARC
  5
1F14A
  8
0
 10
4949.8776768640618684
 20
318.274770011214116
 30
0.0
 40
0.0196514405999987
 50
238.2330066672508053
 51
329.7255661018496085
  0
ARC
  5
1F14B
  8
0
 10
4949.894166166262039
 20
318.2760895057140829
 30
0.0
 40
0.0196764916999935
 50
249.6228650601985066
 51
292.1771996917506726
  0
ARC
  5
1F14C
  8
0
 10
4949.8213542322619105
 20
318.2760895057140829
 30
0.0
 40
0.0196764917000023
 50
238.2162762129794942
 51
328.3309200276005981
  0
ARC
  5
1F14D
  8
0
 10
4949.8040903045221057
 20
318.2774563355879991
 30
0.0
 40
0.0193637710071488
 50
238.9326739818617114
 51
345.4063158651600816
  0
ARC
  5
1F14E
  8
0
 10
4949.8052744113620065
 20
318.2760895057140829
 30
0.0
 40
0.0196764917000065
 50
231.13508963550251
 51
294.1172253747874947
  0
ARC
  5
1F14F
  8
0
 10
4949.8131450496621255
 20
318.2760895057143102
 30
0.0
 40
0.0196764917001308
 50
258.4629791212403802
 51
282.0405449763312049
  0
ARC
  5
1F150
  8
0
 10
4949.8440168321621968
 20
318.2760895057140829
 30
0.0
 40
0.0196764917000023
 50
234.8387107461458925
 51
293.0819257328495269
  0
ARC
  5
1F151
  8
0
 10
4949.8027713993624275
 20
318.2873554534141931
 30
0.0
 40
0.0235151556000009
 50
237.2626516636941005
 51
319.8891914843209179
  0
ARC
  5
1F152
  8
0
 10
4949.7916443749609243
 20
318.2824145596140966
 30
0.0
 40
0.0216837214000013
 50
198.4305849730104967
 51
301.0635356164917198
  0
ARC
  5
1F153
  8
0
 10
4949.7646174913616051
 20
318.2779564904141125
 30
0.0
 40
0.0197239061000043
 50
227.1054142585813906
 51
317.6306427940634762
  0
ARC
  5
1F154
  8
0
 10
4949.7800478267618018
 20
318.2779564904141125
 30
0.0
 40
0.0197239061000156
 50
246.9734145062641915
 51
299.6183777558629231
  0
ARC
  5
1F155
  8
0
 10
4949.7496202816619189
 20
318.2779564904142262
 30
0.0
 40
0.0197239061000557
 50
258.3180742221982769
 51
292.3447392127748117
  0
ARC
  5
1F156
  8
0
 10
4949.7416329523621243
 20
318.2779564904141125
 30
0.0
 40
0.0197239061000014
 50
224.6915444865497022
 51
305.6376309033188932
  0
ARC
  5
1F157
  8
0
 10
4949.7365176834618978
 20
318.2779564904141125
 30
0.0
 40
0.0197239060999869
 50
216.5117322768896884
 51
277.4506274380663058
  0
ARC
  5
1F158
  8
0
 10
4949.7010168635615628
 20
318.2824145596140966
 30
0.0
 40
0.0216837213999972
 50
220.9766585055288886
 51
317.1190771743196137
  0
ARC
  5
1F159
  8
0
 10
4949.7152103842618089
 20
318.2824145596140966
 30
0.0
 40
0.0216837214000003
 50
250.8959213212690997
 51
294.1921473104704887
  0
ARC
  5
1F15A
  8
0
 10
4949.6746911288619231
 20
318.2824145596140966
 30
0.0
 40
0.0216837213999999
 50
226.3337422124969009
 51
307.3757192475565034
  0
ARC
  5
1F15B
  8
0
 10
4949.6627509672616725
 20
318.2824145596140966
 30
0.0
 40
0.0216837213999871
 50
222.9535862781131925
 51
285.9814110219045915
  0
ARC
  5
1F15C
  8
0
 10
4949.6657182210619794
 20
318.282414559613926
 30
0.0
 40
0.0216837213997344
 50
266.0766870511870934
 51
281.9409942179855761
  0
ARC
  5
1F15D
  8
0
 10
4949.683463207062232
 20
318.2824145596140966
 30
0.0
 40
0.0216837214000175
 50
258.3300697166196187
 51
293.8764500949693002
  0
ARC
  5
1F15E
  8
0
 10
4950.0038434546631834
 20
318.2738129566141083
 30
0.0
 40
0.0196850393999967
 50
231.1797121187690891
 51
298.6351739736982722
  0
ARC
  5
1F15F
  8
0
 10
4949.985480005361751
 20
318.2740401302140754
 30
0.0
 40
0.0196514405999932
 50
244.2969599464450994
 51
297.0295297647406869
  0
LINE
  5
1F160
  8
0
 10
4951.0324340547631436
 20
318.3358518855141028
 30
0.0
 11
4951.0324340547631436
 21
318.411608232214121
 31
0.0
  0
ARC
  5
1F161
  8
0
 10
4950.9891346608610547
 20
318.3358595782141265
 30
0.0
 40
0.0432993945833549
 50
195.4534250482219875
 51
359.9898206603210156
  0
LINE
  5
1F162
  8
0
 10
4950.9489514791621332
 20
318.3358518855141028
 30
0.0
 11
4950.9489514791621332
 21
318.411608232214121
 31
0.0
  0
LINE
  5
1F163
  8
0
 10
4950.8623373059617734
 20
318.3358518855141028
 30
0.0
 11
4950.8623373059617734
 21
318.411608232214121
 31
0.0
  0
ARC
  5
1F164
  8
0
 10
4950.9056443925619533
 20
318.3358078989741102
 30
0.0
 40
0.0433071089383242
 50
179.9418053156526014
 51
0.0581946843473682
  0
LINE
  5
1F165
  8
0
 10
4950.8453241797624287
 20
318.3358518855141028
 30
0.0
 11
4950.8453241797624287
 21
318.411608232214121
 31
0.0
  0
ARC
  5
1F166
  8
0
 10
4950.8020247858621588
 20
318.3358595782141265
 30
0.0
 40
0.0432993945833549
 50
180.0101793396756875
 51
359.9898206603210156
  0
LINE
  5
1F167
  8
0
 10
4951.1458537745620561
 20
318.3358518855141028
 30
0.0
 11
4951.1458537745620561
 21
318.411608232214121
 31
0.0
  0
LINE
  5
1F168
  8
0
 10
4951.1319972409619368
 20
318.3358518855141028
 30
0.0
 11
4951.1319972409619368
 21
318.411608232214121
 31
0.0
  0
LINE
  5
1F169
  8
0
 10
4951.0939070436616021
 20
318.3358518855141028
 30
0.0
 11
4951.0939070436616021
 21
318.411608232214121
 31
0.0
  0
ARC
  5
1F16A
  8
0
 10
4951.1025404156589502
 20
318.3358735481801887
 30
0.0
 40
0.0433133643202131
 50
261.3258809673632186
 51
359.9713441934242155
  0
ARC
  5
1F16B
  8
0
 10
4951.0889113109342361
 20
318.3355540802509722
 30
0.0
 40
0.0430869592138134
 50
243.4993267973441959
 51
0.3960158911658515
  0
LINE
  5
1F16C
  8
0
 10
4950.7587253919618888
 20
318.3358518855141028
 30
0.0
 11
4950.7587100065620689
 21
318.411608232214121
 31
0.0
  0
LINE
  5
1F16D
  8
0
 10
4950.72386701906089
 20
318.3301666661141098
 30
0.0
 11
4950.72386701906089
 21
318.411608232214121
 31
0.0
  0
ARC
  5
1F16E
  8
0
 10
4950.6806494007905712
 20
318.3343723235312837
 30
0.0
 40
0.0434217696938705
 50
178.0473142723230069
 51
354.4418485171656243
  0
LINE
  5
1F16F
  8
0
 10
4950.7449055170618522
 20
318.3358518855141028
 30
0.0
 11
4950.7449055170618522
 21
318.411608232214121
 31
0.0
  0
ARC
  5
1F170
  8
0
 10
4951.0505999570623317
 20
318.3358518855141028
 30
0.0
 40
0.0432917012000019
 50
224.7764767926547052
 51
359.9999999999935199
  0
LINE
  5
1F171
  8
0
 10
4950.6372528458614397
 20
318.3358518855141028
 30
0.0
 11
4950.6372528458614397
 21
318.411608232214121
 31
0.0
  0
LINE
  5
1F172
  8
0
 10
4950.5872931494614022
 20
318.3358518855141028
 30
0.0
 11
4950.5872931494614022
 21
318.411608232214121
 31
0.0
  0
ARC
  5
1F173
  8
0
 10
4950.5439937555620418
 20
318.3358595782141265
 30
0.0
 40
0.0432993945833549
 50
180.0101793396756875
 51
359.9898206603210156
  0
LINE
  5
1F174
  8
0
 10
4950.5006789761619075
 20
318.3358518855141028
 30
0.0
 11
4950.5006789761619075
 21
318.411608232214121
 31
0.0
  0
LINE
  5
1F175
  8
0
 10
4950.4386534053619471
 20
318.3358518855141028
 30
0.0
 11
4950.4386534053619471
 21
318.411608232214121
 31
0.0
  0
ARC
  5
1F176
  8
0
 10
4950.3953540115608121
 20
318.3358595782141265
 30
0.0
 40
0.0432993945833549
 50
180.0101793396756875
 51
359.9898206603210156
  0
LINE
  5
1F177
  8
0
 10
4950.3520392321615873
 20
318.3358518855141028
 30
0.0
 11
4950.3520392321615873
 21
318.411608232214121
 31
0.0
  0
LINE
  5
1F178
  8
0
 10
4950.1186531193607152
 20
318.3358518855141028
 30
0.0
 11
4950.1186531193607152
 21
318.411608232214121
 31
0.0
  0
ARC
  5
1F179
  8
0
 10
4950.0753537254631738
 20
318.3358595782141265
 30
0.0
 40
0.0432993945833549
 50
180.0101793396756875
 51
359.9898206603210156
  0
LINE
  5
1F17A
  8
0
 10
4950.03203894606213
 20
318.3358518855141028
 30
0.0
 11
4950.03203894606213
 21
318.411608232214121
 31
0.0
  0
LINE
  5
1F17B
  8
0
 10
4950.1802802120619162
 20
318.3358518855141028
 30
0.0
 11
4950.1802802120619162
 21
318.411608232214121
 31
0.0
  0
ARC
  5
1F17C
  8
0
 10
4950.1409395608952764
 20
318.3305014648909719
 30
0.0
 40
0.0397028189802429
 50
214.8307074123260918
 51
7.7448421944382151
  0
LINE
  5
1F17D
  8
0
 10
4950.2812681532614079
 20
318.3358518855141028
 30
0.0
 11
4950.2812681532614079
 21
318.411608232214121
 31
0.0
  0
ARC
  5
1F17E
  8
0
 10
4950.2379687593620474
 20
318.3358595782141265
 30
0.0
 40
0.0432993945833549
 50
180.0101793396756875
 51
359.9898206603210156
  0
LINE
  5
1F17F
  8
0
 10
4950.1946539799619131
 20
318.3358518855141028
 30
0.0
 11
4950.1946539799619131
 21
318.411608232214121
 31
0.0
  0
LINE
  5
1F180
  8
0
 10
4950.3277721724607545
 20
318.3358518855141028
 30
0.0
 11
4950.3277721724607545
 21
318.411608232214121
 31
0.0
  0
ARC
  5
1F181
  8
0
 10
4950.2884219541965649
 20
318.3304579012573754
 30
0.0
 40
0.0397181915967406
 50
229.4860105444458895
 51
7.8052521453511146
  0
LINE
  5
1F182
  8
0
 10
4950.6005385296630266
 20
318.3358518855141028
 30
0.0
 11
4950.6005385296630266
 21
318.411608232214121
 31
0.0
  0
ARC
  5
1F183
  8
0
 10
4950.5617032396276045
 20
318.3303964007657783
 30
0.0
 40
0.0392166044660661
 50
252.5963638473241133
 51
7.9964418681619831
  0
LINE
  5
1F184
  8
0
 10
4950.613436194262249
 20
318.3179581820140811
 30
0.0
 11
4950.6134929192630807
 21
318.411608232214121
 31
0.0
  0
LINE
  5
1F185
  8
0
 10
4950.4689092009621163
 20
318.3358518855141028
 30
0.0
 11
4950.4689092009621163
 21
318.411608232214121
 31
0.0
  0
ARC
  5
1F186
  8
0
 10
4950.4294225079438547
 20
318.3306325949383222
 30
0.0
 40
0.0398301383319402
 50
242.1518324539269997
 51
7.5296204189917626
  0
LINE
  5
1F187
  8
0
 10
4950.4867234832618124
 20
318.3235099678141182
 30
0.0
 11
4950.486839366662025
 21
318.411608232214121
 31
0.0
  0
LINE
  5
1F188
  8
0
 10
4950.4939672913606046
 20
318.3179581820140811
 30
0.0
 11
4950.4939672913606046
 21
318.411608232214121
 31
0.0
  0
LINE
  5
1F189
  8
0
 10
4950.4959232562614488
 20
318.411608232214121
 30
0.0
 11
4950.4959232562614488
 21
318.3122373288140921
 31
0.0
  0
LINE
  5
1F18A
  8
0
 10
4950.633810487662231
 20
318.3235099678141182
 30
0.0
 11
4950.633810487662231
 21
318.411608232214121
 31
0.0
  0
ARC
  5
1F18B
  8
0
 10
4950.0566873476564069
 20
318.3241773383167015
 30
0.0
 40
0.0360294182215991
 50
204.1874585695298947
 51
298.7231912228634769
  0
ARC
  5
1F18C
  8
0
 10
4950.0584705252622371
 20
318.3122373288140921
 30
0.0
 40
0.0315359137999997
 50
200.4595313956542952
 51
323.2798454651954785
  0
ARC
  5
1F18D
  8
0
 10
4950.1110363007619526
 20
318.3179581820140811
 30
0.0
 40
0.0334633502000016
 50
225.06365682119349
 51
308.668765110710126
  0
ARC
  5
1F18E
  8
0
 10
4950.1184569935330728
 20
318.2995694004013103
 30
0.0
 40
0.0276247507776719
 50
234.3948092656968925
 51
341.8808457762528974
  0
ARC
  5
1F18F
  8
0
 10
4950.095610038561972
 20
318.3058443805140882
 30
0.0
 40
0.0295205686999975
 50
224.5718834222961959
 51
314.9049291390682015
  0
ARC
  5
1F190
  8
0
 10
4950.0567008444631938
 20
318.2873554534140794
 30
0.0
 40
0.0235151555999977
 50
237.2292952247132973
 51
344.7719256774805103
  0
ARC
  5
1F191
  8
0
 10
4950.0432339272620084
 20
318.2931620842140887
 30
0.0
 40
0.0255898591999969
 50
229.8705555348271901
 51
333.222463101473295
  0
ARC
  5
1F192
  8
0
 10
4950.0173013429621278
 20
318.2996053260141025
 30
0.0
 40
0.0276689737
 50
220.7262227711026128
 51
330.0672736747595764
  0
ARC
  5
1F193
  8
0
 10
4950.0377870783622711
 20
318.274770011214116
 30
0.0
 40
0.0196514406000013
 50
188.233467794785895
 51
294.4062431174593257
  0
ARC
  5
1F194
  8
0
 10
4950.050144299861131
 20
318.2760895057140829
 30
0.0
 40
0.0196764917000001
 50
196.3711484211706875
 51
288.2006180545897109
  0
ARC
  5
1F195
  8
0
 10
4950.0609587042617932
 20
318.2824145596140966
 30
0.0
 40
0.0216837213999974
 50
228.9315041451922923
 51
352.0796714670693746
  0
ARC
  5
1F196
  8
0
 10
4950.0581289613619447
 20
318.2779564904141125
 30
0.0
 40
0.019723906099998
 50
211.5223076121241093
 51
312.7775063720749245
  0
ARC
  5
1F197
  8
0
 10
4950.0667400599631947
 20
318.2740401302140754
 30
0.0
 40
0.0196514406000004
 50
232.0690343194717116
 51
315.9997497287369015
  0
ARC
  5
1F198
  8
0
 10
4950.1135224355621176
 20
318.2760895057140829
 30
0.0
 40
0.0196764917000031
 50
179.164439704959392
 51
295.6124376191689862
  0
ARC
  5
1F199
  8
0
 10
4950.1241445472605847
 20
318.2779564904141125
 30
0.0
 40
0.0197239061000003
 50
186.5677993844639104
 51
302.3882868276594991
  0
ARC
  5
1F19A
  8
0
 10
4950.1297704547605463
 20
318.2824145596140966
 30
0.0
 40
0.0216837214000012
 50
205.0594929111096008
 51
301.1350370164096262
  0
ARC
  5
1F19B
  8
0
 10
4950.1288727705614292
 20
318.2931620842140887
 30
0.0
 40
0.0255898592000009
 50
234.6224380098340987
 51
0.0236543935391027
  0
ARC
  5
1F19C
  8
0
 10
4950.1934771270607598
 20
318.3235099678141182
 30
0.0
 40
0.0353904655999996
 50
220.9306770314429968
 51
313.0243685674666949
  0
ARC
  5
1F19D
  8
0
 10
4950.1877897880631281
 20
318.3122373288140921
 30
0.0
 40
0.0315359138000019
 50
210.8364947546486974
 51
320.5825546162042201
  0
ARC
  5
1F19E
  8
0
 10
4950.1417951484618243
 20
318.2873554534141931
 30
0.0
 40
0.0235151556000012
 50
237.2734667112285933
 51
7.2201523140408312
  0
ARC
  5
1F19F
  8
0
 10
4950.2335297993622589
 20
318.3179581820140811
 30
0.0
 40
0.0334633502000011
 50
228.3875936999077112
 51
326.433632024667304
  0
ARC
  5
1F1A0
  8
0
 10
4950.2088735440620439
 20
318.3058443805140882
 30
0.0
 40
0.0295205687000061
 50
236.9575001934715885
 51
314.3561136174769217
  0
ARC
  5
1F1A1
  8
0
 10
4950.2107126870605498
 20
318.2931620842142024
 30
0.0
 40
0.0255898592000017
 50
209.1263535024671114
 51
314.8497945081660987
  0
ARC
  5
1F1A2
  8
0
 10
4950.2160662035621499
 20
318.2996053260141025
 30
0.0
 40
0.0276689736999973
 50
230.7175228342883031
 51
328.2595452982395159
  0
ARC
  5
1F1A3
  8
0
 10
4950.1930790338901716
 20
318.2824405047433061
 30
0.0
 40
0.0217037016352672
 50
172.6869072941956063
 51
316.9804783237257197
  0
ARC
  5
1F1A4
  8
0
 10
4950.1945435520610772
 20
318.2760895057140829
 30
0.0
 40
0.0196764917000037
 50
242.9279127627303012
 51
328.6443705462647813
  0
ARC
  5
1F1A5
  8
0
 10
4950.1819618701620129
 20
318.2779564904141125
 30
0.0
 40
0.0197239060999987
 50
185.9223764912939885
 51
299.4609818364424996
  0
ARC
  5
1F1A6
  8
0
 10
4950.1636717695619154
 20
318.2760895057140829
 30
0.0
 40
0.0196764917000016
 50
215.7470908513641916
 51
303.5129076020696743
  0
ARC
  5
1F1A7
  8
0
 10
4950.148243553161592
 20
318.2760895057140829
 30
0.0
 40
0.0196764917000053
 50
246.2262929816278927
 51
293.0819255745826126
  0
ARC
  5
1F1A8
  8
0
 10
4950.1299330363617628
 20
318.274770011214116
 30
0.0
 40
0.0196514405999996
 50
240.7345633733243062
 51
327.9199129375480766
  0
ARC
  5
1F1A9
  8
0
 10
4950.0962839761614305
 20
318.274770011214116
 30
0.0
 40
0.019651440599998
 50
198.4204506978246059
 51
300.3813925063219017
  0
ARC
  5
1F1AA
  8
0
 10
4950.0927360557607244
 20
318.2760895057140829
 30
0.0
 40
0.0196764916999685
 50
209.4347811323204951
 51
255.5001177690259908
  0
ARC
  5
1F1AB
  8
0
 10
4950.0222085964605867
 20
318.2740401302140754
 30
0.0
 40
0.0196514405999981
 50
203.2241965805492896
 51
296.0610332568455192
  0
ARC
  5
1F1AC
  8
0
 10
4950.0483757644606158
 20
318.2740401302140754
 30
0.0
 40
0.019651440599991
 50
250.3894775575556935
 51
297.8559756445486073
  0
ARC
  5
1F1AD
  8
0
 10
4950.6693168367619364
 20
318.3235099678141182
 30
0.0
 40
0.0353904656000026
 50
180.0000000000032117
 51
293.427626350029584
  0
ARC
  5
1F1AE
  8
0
 10
4950.7845389433059609
 20
318.3307247283664765
 30
0.0
 40
0.0399636862195171
 50
172.6288988539695879
 51
288.504807922918701
  0
ARC
  5
1F1AF
  8
0
 10
4950.8709837626620356
 20
318.3301666661141098
 30
0.0
 40
0.0394285441000029
 50
210.319102090476008
 51
298.4790131516181759
  0
ARC
  5
1F1B0
  8
0
 10
4950.8376766613137079
 20
318.3239424369444919
 30
0.0
 40
0.0394869075546638
 50
252.9196017840604043
 51
306.1014853606383213
  0
ARC
  5
1F1B1
  8
0
 10
4950.8282284424622048
 20
318.3235099678141182
 30
0.0
 40
0.0353904656000027
 50
238.6964360322772052
 51
309.692189278315027
  0
ARC
  5
1F1B2
  8
0
 10
4950.8155416078616327
 20
318.3179581820140811
 30
0.0
 40
0.033463350200005
 50
230.8645855716906965
 51
297.2895961455245128
  0
ARC
  5
1F1B3
  8
0
 10
4950.7761580841615796
 20
318.3179581820140811
 30
0.0
 40
0.033463350199995
 50
242.4405268191163998
 51
306.0476291495671148
  0
ARC
  5
1F1B4
  8
0
 10
4950.7571868534605528
 20
318.3235099678141182
 30
0.0
 40
0.0353904655999994
 50
184.3724963159648951
 51
297.9286116520310088
  0
ARC
  5
1F1B5
  8
0
 10
4950.7195223467615506
 20
318.3179581820140811
 30
0.0
 40
0.0334633502000012
 50
226.0466906248246914
 51
309.5014128088100165
  0
ARC
  5
1F1B6
  8
0
 10
4950.7268263706619109
 20
318.3122373288140921
 30
0.0
 40
0.0315359137999932
 50
235.7718812418040955
 51
313.1486781217445809
  0
ARC
  5
1F1B7
  8
0
 10
4950.7522558317141375
 20
318.3168922638348022
 30
0.0
 40
0.0361999846293925
 50
248.6468938783905003
 51
298.6908239042065816
  0
ARC
  5
1F1B8
  8
0
 10
4950.6894598324606704
 20
318.3122373288140921
 30
0.0
 40
0.0315359138000004
 50
263.2521556838530046
 51
305.6270113308361829
  0
ARC
  5
1F1B9
  8
0
 10
4950.6802426987624131
 20
318.3122373288140921
 30
0.0
 40
0.0315359137999973
 50
231.7313319855977909
 51
313.6882682095923087
  0
ARC
  5
1F1BA
  8
0
 10
4950.6468995444620305
 20
318.3179581820140811
 30
0.0
 40
0.0334633502000005
 50
180.0
 51
298.9338508833096171
  0
ARC
  5
1F1BB
  8
0
 10
4950.6131070038618418
 20
318.3122373288142057
 30
0.0
 40
0.031535913800004
 50
214.0224045351463076
 51
308.6504215356563918
  0
ARC
  5
1F1BC
  8
0
 10
4950.6215601643061746
 20
318.3057544436247781
 30
0.0
 40
0.0294487294202508
 50
233.7752580581843063
 51
314.684788582949011
  0
LINE
  5
1F1BD
  8
0
 10
4950.6020876122620393
 20
318.3235099678141182
 30
0.0
 11
4950.6020876122620393
 21
318.411608232214121
 31
0.0
  0
ARC
  5
1F1BE
  8
0
 10
4950.5665404580804534
 20
318.3236834564730202
 30
0.0
 40
0.035547577537612
 50
240.2010358552900868
 51
359.7203689224759842
  0
ARC
  5
1F1BF
  8
0
 10
4950.5599119506614443
 20
318.3179581820140811
 30
0.0
 40
0.0334633502000014
 50
228.1332322545933096
 51
304.2436092526772882
  0
ARC
  5
1F1C0
  8
0
 10
4950.5686393627620419
 20
318.3058443805140882
 30
0.0
 40
0.0295205686999971
 50
220.193290887645901
 51
323.784667455136514
  0
ARC
  5
1F1C1
  8
0
 10
4950.5274591700617748
 20
318.3122373288140921
 30
0.0
 40
0.031535913800001
 50
180.0000000000032117
 51
307.5262198076467257
  0
ARC
  5
1F1C2
  8
0
 10
4950.4512387991590003
 20
318.3236854583801119
 30
0.0
 40
0.0355430590394633
 50
245.2396424669069859
 51
359.7171062396919865
  0
ARC
  5
1F1C3
  8
0
 10
4950.4605023953172349
 20
318.3179599205387262
 30
0.0
 40
0.0334648960898022
 50
244.1223487581924871
 51
359.9970234445644905
  0
ARC
  5
1F1C4
  8
0
 10
4950.4985652329623917
 20
318.3058443805140882
 30
0.0
 40
0.029520568699997
 50
217.508724777845913
 51
307.9940336055698253
  0
ARC
  5
1F1C5
  8
0
 10
4950.5159180556620413
 20
318.2996053260141025
 30
0.0
 40
0.0276689737000045
 50
236.9590157122397045
 51
317.5937477399205022
  0
ARC
  5
1F1C6
  8
0
 10
4950.4839870489622626
 20
318.2931620842142024
 30
0.0
 40
0.0255898592000014
 50
231.0964284764467891
 51
316.1624206441151728
  0
ARC
  5
1F1C7
  8
0
 10
4950.4594984230607224
 20
318.2996053260141025
 30
0.0
 40
0.0276689736999998
 50
217.1620322036442872
 51
320.8746312794419282
  0
ARC
  5
1F1C8
  8
0
 10
4950.4259015633606396
 20
318.3122373288142057
 30
0.0
 40
0.0315359138000024
 50
217.7605029654831981
 51
311.0257860733418056
  0
ARC
  5
1F1C9
  8
0
 10
4950.4134592579621312
 20
318.3058443805140882
 30
0.0
 40
0.0295205686999965
 50
204.8476270281666984
 51
302.2396110262137086
  0
ARC
  5
1F1CA
  8
0
 10
4950.4554565090847973
 20
318.2958024320382719
 30
0.0
 40
0.0286580053669399
 50
213.4511755932180108
 51
301.6722975639252127
  0
ARC
  5
1F1CB
  8
0
 10
4950.4219332401607971
 20
318.2873554534141931
 30
0.0
 40
0.0235151556000046
 50
261.1661031236541817
 51
318.896500595259397
  0
ARC
  5
1F1CC
  8
0
 10
4950.4147107737608167
 20
318.2873554534141931
 30
0.0
 40
0.0235151556000051
 50
237.6300045829864018
 51
330.1025577601743066
  0
ARC
  5
1F1CD
  8
0
 10
4950.4095969068621343
 20
318.2931620842140887
 30
0.0
 40
0.0255898591999949
 50
234.0195768044800104
 51
332.5293626866923091
  0
ARC
  5
1F1CE
  8
0
 10
4950.389233970560781
 20
318.2996053260141025
 30
0.0
 40
0.0276689737000013
 50
206.2829826059781055
 51
306.5013000082772123
  0
ARC
  5
1F1CF
  8
0
 10
4950.350892503562136
 20
318.3179581820140811
 30
0.0
 40
0.0334633501999979
 50
239.7541167789784993
 51
320.6673785814725193
  0
ARC
  5
1F1D0
  8
0
 10
4950.3259740243620399
 20
318.3235099678141182
 30
0.0
 40
0.035390465599999
 50
234.727678074166505
 51
340.6497728863225802
  0
ARC
  5
1F1D1
  8
0
 10
4950.3115199603616929
 20
318.3122373288140921
 30
0.0
 40
0.0315359138000024
 50
222.9755845652562982
 51
311.8200491973836961
  0
ARC
  5
1F1D2
  8
0
 10
4950.3159073397619068
 20
318.3058443805140882
 30
0.0
 40
0.0295205687000052
 50
222.3626019688898907
 51
319.9935892226079091
  0
ARC
  5
1F1D3
  8
0
 10
4950.3072596479623826
 20
318.2996053260141025
 30
0.0
 40
0.0276689737000011
 50
197.0869448183383952
 51
306.5683137407514778
  0
ARC
  5
1F1D4
  8
0
 10
4950.35324006636165
 20
318.2931620842140887
 30
0.0
 40
0.0255898591999984
 50
209.7051193110038128
 51
321.0909899590990904
  0
ARC
  5
1F1D5
  8
0
 10
4950.3474957882608578
 20
318.2873554534141931
 30
0.0
 40
0.023515155600001
 50
203.2729486611710001
 51
288.5334631785776764
  0
ARC
  5
1F1D6
  8
0
 10
4950.3242253947619247
 20
318.2824145596140966
 30
0.0
 40
0.0216837213999984
 50
222.9413918571131035
 51
309.912058639396605
  0
ARC
  5
1F1D7
  8
0
 10
4950.286266763578169
 20
318.293172952028101
 30
0.0
 40
0.0256000839227053
 50
165.7268193437959951
 51
306.3525500937886932
  0
ARC
  5
1F1D8
  8
0
 10
4950.2208603385615788
 20
318.2873554534140794
 30
0.0
 40
0.0235151555999968
 50
238.6093433317641086
 51
357.4102726139399238
  0
ARC
  5
1F1D9
  8
0
 10
4950.2481163532620485
 20
318.2824145596140966
 30
0.0
 40
0.0216837214000003
 50
224.9871391263851876
 51
339.4830733263498814
  0
ARC
  5
1F1DA
  8
0
 10
4950.2580683201622378
 20
318.2779564904141125
 30
0.0
 40
0.0197239060999968
 50
247.6552607871201985
 51
332.4958649957300736
  0
ARC
  5
1F1DB
  8
0
 10
4950.2430711104607326
 20
318.2779564904141125
 30
0.0
 40
0.0197239060999806
 50
246.9734145062602977
 51
303.7127717807665022
  0
ARC
  5
1F1DC
  8
0
 10
4950.2276407750614453
 20
318.2779564904141125
 30
0.0
 40
0.0197239060999968
 50
219.5209104439196892
 51
307.94406115484162
  0
ARC
  5
1F1DD
  8
0
 10
4950.2024141904621501
 20
318.2760895057140829
 30
0.0
 40
0.019676491699999
 50
258.4629789725880187
 51
314.0923809632889743
  0
ARC
  5
1F1DE
  8
0
 10
4950.1866197456956797
 20
318.2783197749994883
 30
0.0
 40
0.0218709167113451
 50
241.5170344648333014
 51
280.4730126006920159
  0
ARC
  5
1F1DF
  8
0
 10
4950.2924782175623477
 20
318.2824145596140966
 30
0.0
 40
0.021683721400002
 50
215.9360002535941874
 51
332.1569453337399977
  0
ARC
  5
1F1E0
  8
0
 10
4950.2904408864624202
 20
318.2873554534141931
 30
0.0
 40
0.0235151556000004
 50
224.3942291953194115
 51
319.0791484208334055
  0
ARC
  5
1F1E1
  8
0
 10
4950.2711709183622588
 20
318.2779564904141125
 30
0.0
 40
0.0197239061000009
 50
250.6006648407663988
 51
309.0325152872025001
  0
ARC
  5
1F1E2
  8
0
 10
4950.2660556494611228
 20
318.2779564904138851
 30
0.0
 40
0.0197239060998363
 50
258.318074222092207
 51
277.4506274381187723
  0
ARC
  5
1F1E3
  8
0
 10
4950.3066717381607305
 20
318.2824145596140966
 30
0.0
 40
0.0216837213999886
 50
250.8959214610684114
 51
293.8764502394874967
  0
ARC
  5
1F1E4
  8
0
 10
4950.3895314710616731
 20
318.2873554534140794
 30
0.0
 40
0.0235151555999984
 50
214.6455749051276882
 51
306.044003664336401
  0
ARC
  5
1F1E5
  8
0
 10
4950.3820436333617181
 20
318.2873554534140794
 30
0.0
 40
0.0235151555999984
 50
225.1635929241199108
 51
279.1612198323309144
  0
ARC
  5
1F1E6
  8
0
 10
4950.3449376345606652
 20
318.2824145596140966
 30
0.0
 40
0.0216837214000141
 50
266.0766870511873208
 51
322.2928620885928126
  0
ARC
  5
1F1E7
  8
0
 10
4950.3419703807621772
 20
318.2824145596140966
 30
0.0
 40
0.0216837214000038
 50
245.8468168520078052
 51
318.5559939079539049
  0
ARC
  5
1F1E8
  8
0
 10
4950.3329974728621892
 20
318.2824145596140966
 30
0.0
 40
0.02168372139997
 50
258.3300698515068916
 51
281.9409943529540215
  0
ARC
  5
1F1E9
  8
0
 10
4950.4108832135607372
 20
318.2873554534141931
 30
0.0
 40
0.0235151556000737
 50
242.9994147729335054
 51
274.6681779657787956
  0
ARC
  5
1F1EA
  8
0
 10
4950.4999397372930616
 20
318.3009301502517019
 30
0.0
 40
0.0332787497192936
 50
255.4320830622787923
 51
299.4051297727170891
  0
ARC
  5
1F1EB
  8
0
 10
4950.5567785863631798
 20
318.2996053260141025
 30
0.0
 40
0.0276689736999693
 50
220.1200103002381923
 51
303.4496871052244273
  0
ARC
  5
1F1EC
  8
0
 10
4950.5475734273622948
 20
318.2996053260142162
 30
0.0
 40
0.0276689737000239
 50
235.1075824638054996
 51
279.5753437123900085
  0
ARC
  5
1F1ED
  8
0
 10
4950.5808384885622218
 20
318.2996053260141025
 30
0.0
 40
0.027668973699999
 50
244.2286244097221868
 51
321.8306530037448852
  0
ARC
  5
1F1EE
  8
0
 10
4950.5761649068617771
 20
318.2996053260142162
 30
0.0
 40
0.0276689737000681
 50
249.492745371682787
 51
274.8447019321977791
  0
ARC
  5
1F1EF
  8
0
 10
4950.5877165110532587
 20
318.2986279197701265
 30
0.0
 40
0.0266938594246515
 50
262.6455093188051251
 51
316.2282406230032166
  0
ARC
  5
1F1F0
  8
0
 10
4950.6556968476606926
 20
318.3058443805140882
 30
0.0
 40
0.0295205687000007
 50
234.6801068302114004
 51
304.9293807812376826
  0
ARC
  5
1F1F1
  8
0
 10
4950.6703032203840849
 20
318.3040566370581814
 30
0.0
 40
0.027821715237684
 50
254.6565744969759066
 51
305.0725539588440256
  0
ARC
  5
1F1F2
  8
0
 10
4950.664131295061452
 20
318.3058443805143725
 30
0.0
 40
0.0295205687002345
 50
261.786790082712514
 51
275.2912488926032779
  0
ARC
  5
1F1F3
  8
0
 10
4950.6381650988623733
 20
318.3058443805140882
 30
0.0
 40
0.0295205687000141
 50
253.717483986900703
 51
287.2739794467009915
  0
ARC
  5
1F1F4
  8
0
 10
4950.7890882271622104
 20
318.3179581820140811
 30
0.0
 40
0.0334633502000216
 50
258.860491593140523
 51
293.2821282297900893
  0
ARC
  5
1F1F5
  8
0
 10
4951.0560319952692225
 20
318.3431909560026156
 30
0.0
 40
0.0506624486240852
 50
266.4958387430309017
 51
289.6606201288176976
  0
ARC
  5
1F1F6
  8
0
 10
4951.0099114488366467
 20
318.3348511497885056
 30
0.0
 40
0.0441541714630928
 50
251.1848981858782111
 51
300.2170273241076188
  0
ARC
  5
1F1F7
  8
0
 10
4950.9382489889621866
 20
318.3301666661141098
 30
0.0
 40
0.0394285440999964
 50
242.9288187936946883
 51
311.1342050246677786
  0
ARC
  5
1F1F8
  8
0
 10
4950.9138435771601507
 20
318.3237675524820816
 30
0.0
 40
0.0356458467926669
 50
236.471412634084686
 51
295.9967149634990733
  0
ARC
  5
1F1F9
  8
0
 10
4950.9265962320605468
 20
318.3235099678141182
 30
0.0
 40
0.0353904655999392
 50
259.6293756213431152
 51
292.356515837147299
  0
ARC
  5
1F1FA
  8
0
 10
4950.948156168661626
 20
318.3301666661141098
 30
0.0
 40
0.0394285441000147
 50
262.7825946950130742
 51
297.668034901619194
  0
ARC
  5
1F1FB
  8
0
 10
4950.9873853197414064
 20
318.3369284041181118
 30
0.0
 40
0.0466373055104707
 50
236.086739084060099
 51
285.180355018270518
  0
ARC
  5
1F1FC
  8
0
 10
4950.8808546519630909
 20
318.3235099678141182
 30
0.0
 40
0.0353904655999832
 50
246.9764214007834937
 51
297.7258570304476279
  0
ARC
  5
1F1FD
  8
0
 10
4950.8903472535621404
 20
318.3235099678141182
 30
0.0
 40
0.0353904655999395
 50
262.2927017238293956
 51
289.3557888557234037
  0
ARC
  5
1F1FE
  8
0
 10
4950.8234170647619976
 20
318.3179581820140243
 30
0.0
 40
0.0334633501999061
 50
263.2421837672849279
 51
281.6087614278732758
  0
LINE
  5
1F1FF
  8
0
 10
4949.3721870843619399
 20
318.3179581820140811
 30
0.0
 11
4949.3721870843619399
 21
318.411608232214121
 31
0.0
  0
LINE
  5
1F200
  8
0
 10
4950.0297280477479944
 20
318.3301763412940204
 30
0.0
 11
4950.0297280477479944
 21
318.411608232214121
 31
0.0
  0
LINE
  5
1F201
  8
0
 10
4954.4213582651082106
 20
318.1408055827141084
 30
0.0
 11
4954.4213582651082106
 21
318.3541973285294944
 31
0.0
  0
LINE
  5
1F202
  8
0
 10
4954.4213582651082106
 20
317.8909096273141017
 30
0.0
 11
4954.4213582651082106
 21
317.6218660802919089
 31
0.0
  0
ARC
  5
1F203
  8
0
 10
4942.4215562674471585
 20
329.5152891986091959
 30
0.0
 40
10.8438155566776206
 50
266.4070482221627003
 51
269.9988244259138241
  0
ARC
  5
1F204
  8
0
 10
4942.2751857752000433
 20
327.1842209900084981
 30
0.0
 40
8.5081564817803237
 50
260.910550709157576
 51
266.4070482221627003
  0
ARC
  5
1F205
  8
0
 10
4941.5610777844285622
 20
322.7206327578354035
 30
0.0
 40
3.9878058174097029
 50
251.2022163486014108
 51
260.910550709157576
  0
ARC
  5
1F206
  8
0
 10
4940.6168640249416057
 20
319.9466713343518904
 30
0.0
 40
1.0575495824397441
 50
231.5375325293736921
 51
251.2022163486014108
  0
ARC
  5
1F207
  8
0
 10
4940.1230438280854287
 20
319.325018826998928
 30
0.0
 40
0.2636287887067564
 50
202.1571924389384094
 51
231.5375325293736921
  0
ARC
  5
1F208
  8
0
 10
4940.1563446034169829
 20
319.3221016286706231
 30
0.0
 40
0.2937668447080035
 50
181.1445047145170975
 51
199.1793488842440922
  0
ARC
  5
1F209
  8
0
 10
4942.2844902354536316
 20
319.3031138813207122
 30
0.0
 40
2.4218894075736039
 50
174.3341216317238889
 51
179.6896116394736111
  0
ARC
  5
1F20A
  8
0
 10
4941.158313577950139
 20
319.444199327185288
 30
0.0
 40
1.2876170826507609
 50
156.0732686379448069
 51
175.6340939408379995
  0
ARC
  5
1F20B
  8
0
 10
4941.1839800084253511
 20
319.3573169039669892
 30
0.0
 40
1.3480819452867121
 50
117.9236300627975993
 51
153.1390846879673973
  0
ARC
  5
1F20C
  8
0
 10
4943.5274555770583902
 20
314.6262467683184241
 30
0.0
 40
6.6273461823574431
 50
110.1358767345530936
 51
116.6707983962562025
  0
ARC
  5
1F20D
  8
0
 10
4942.421140011467287
 20
327.3067955958889002
 30
0.0
 40
7.1083964228015883
 50
267.5343792468650008
 51
270.0015618152598904
  0
ARC
  5
1F20E
  8
0
 10
4942.3621476362632166
 20
325.9367846453959032
 30
0.0
 40
5.737115961042206
 50
259.9489271459736983
 51
267.5343792468650008
  0
ARC
  5
1F20F
  8
0
 10
4941.6802421236916416
 20
322.0895630972436265
 30
0.0
 40
1.829929150990627
 50
247.1019417009264885
 51
259.9489271459736983
  0
ARC
  5
1F210
  8
0
 10
4941.10601229655731
 20
320.7300421782866238
 30
0.0
 40
0.3541117424152657
 50
222.3591072193208049
 51
247.1019417009264885
  0
ARC
  5
1F211
  8
0
 10
4940.9234034493683794
 20
320.5635362310744085
 30
0.0
 40
0.1069878432706789
 50
188.1141504759930001
 51
222.3591072193208049
  0
ARC
  5
1F212
  8
0
 10
4940.9093298886145931
 20
320.5615297204603849
 30
0.0
 40
0.0927719649261309
 50
147.7126468226325926
 51
188.1141504759930001
  0
ARC
  5
1F213
  8
0
 10
4941.0106324150292494
 20
320.4975202138592181
 30
0.0
 40
0.2126027572661678
 50
122.1565857684032039
 51
147.7126468226325926
  0
ARC
  5
1F214
  8
0
 10
4941.4581016405227274
 20
319.7857556609843073
 30
0.0
 40
1.053339033689328
 50
113.0282612356490972
 51
122.1565857684032039
  0
ARC
  5
1F215
  8
0
 10
4933.8126747449096001
 20
338.399156157467587
 30
0.0
 40
19.0691496083328005
 50
292.2917842305920999
 51
292.9535991893428104
  0
ARC
  5
1F216
  8
0
 10
4940.9686019140171993
 20
320.5207186799054853
 30
0.0
 40
0.1675031348187591
 50
128.4116681698614002
 51
152.7931150880928044
  0
ARC
  5
1F217
  8
0
 10
4940.8935502628946779
 20
320.5593013905930206
 30
0.0
 40
0.0831148897834377
 50
152.7931150880928044
 51
204.1265815686807059
  0
ARC
  5
1F218
  8
0
 10
4940.9583044428072753
 20
320.5883033956052941
 30
0.0
 40
0.1540671280192101
 50
204.1265815686807059
 51
233.9899398460825921
  0
ARC
  5
1F219
  8
0
 10
4941.1974281544416954
 20
320.917307452960813
 30
0.0
 40
0.5607903990812925
 50
233.9899398460825921
 51
238.1547544023950138
  0
ARC
  5
1F21A
  8
0
 10
4940.9242107419931926
 20
320.5185917771415802
 30
0.0
 40
0.0815617604798464
 50
203.5852603328769135
 51
214.8514580872912063
  0
ARC
  5
1F21B
  8
0
 10
4942.1613152703739615
 20
307.4623665808197188
 30
0.0
 40
11.0662327869623702
 50
88.6536218295638747
 51
89.5528294000097134
  0
ARC
  5
1F21C
  8
0
 10
4942.4103610663123618
 20
323.8810077977555011
 30
0.0
 40
5.3552169396395461
 50
265.3286141075652154
 51
268.2592183386399256
  0
ARC
  5
1F21D
  8
0
 10
4942.2905786410310611
 20
322.4151015458803045
 30
0.0
 40
3.8844249867471019
 50
258.6668332818401268
 51
265.3286141075652154
  0
ARC
  5
1F21E
  8
0
 10
4941.7887039989072946
 20
319.9110090762874279
 30
0.0
 40
1.330534375800897
 50
244.8273704381585105
 51
258.6668332818401268
  0
ARC
  5
1F21F
  8
0
 10
4942.4534382616529911
 20
325.3509196423860885
 30
0.0
 40
6.8185640363207352
 50
267.1327749225113735
 51
269.7302279180881897
  0
ARC
  5
1F220
  8
0
 10
4942.2805462942524173
 20
322.3584712964711798
 30
0.0
 40
3.8212826428487281
 50
259.5477572379508047
 51
267.4774614741659775
  0
ARC
  5
1F221
  8
0
 10
4941.8037452279759236
 20
320.0016329493569742
 30
0.0
 40
1.417655622863373
 50
249.542034319766401
 51
261.2180300631426917
  0
ARC
  5
1F222
  8
0
 10
4942.3182014248450287
 20
321.3806919683983097
 30
0.0
 40
2.8895486069135532
 50
245.2586502717061876
 51
249.542034319766401
  0
ARC
  5
1F223
  8
0
 10
4940.5402826462859593
 20
316.2916452333407733
 30
0.0
 40
2.5404724734052602
 50
65.1463170103269533
 51
74.8359368110374561
  0
ARC
  5
1F224
  8
0
 10
4940.8839937602087957
 20
317.3449950586094133
 30
0.0
 40
1.446148701412276
 50
59.9550964333280376
 51
73.7692266146869997
  0
ARC
  5
1F225
  8
0
 10
4941.1577520941200419
 20
317.3118210563815182
 30
0.0
 40
1.4313493072618331
 50
60.755183667966989
 51
79.5449158238976679
  0
ARC
  5
1F226
  8
0
 10
4941.4051417467371721
 20
318.0753688030570743
 30
0.0
 40
0.6631564156064647
 50
47.0456486201102067
 51
70.6130766879258118
  0
ARC
  5
1F227
  8
0
 10
4941.7057597985049142
 20
318.0258402520294112
 30
0.0
 40
0.6679313127287063
 50
50.3242971771148717
 51
86.8898590698446043
  0
ARC
  5
1F228
  8
0
 10
4946.1812293680895891
 20
320.1866650852418275
 30
0.0
 40
4.3710898147283119
 50
200.5692674977015884
 51
202.1315216351300137
  0
ARC
  5
1F229
  8
0
 10
4942.1062476086599418
 20
318.6574368141643276
 30
0.0
 40
0.018617510722012
 50
89.4331146855993069
 51
200.4615554209622985
  0
ARC
  5
1F22A
  8
0
 10
4942.4100632564086482
 20
318.5335244515197246
 30
0.0
 40
0.0106519546576954
 50
354.1264197227690147
 51
34.2798365017979307
  0
ARC
  5
1F22B
  8
0
 10
4942.0437659408689797
 20
318.3462789256183214
 30
0.0
 40
0.4219513165729015
 50
27.2568095311884306
 51
39.214627866409252
  0
ARC
  5
1F22C
  8
0
 10
4942.2537274365822668
 20
318.5141367637787084
 30
0.0
 40
0.1531760391437448
 50
40.2208553993460569
 51
75.9698090661313898
  0
ARC
  5
1F22D
  8
0
 10
4942.2000615328142885
 20
318.2906058790861721
 30
0.0
 40
0.383054871636154
 50
76.2878607970680349
 51
89.0498040352040334
  0
ARC
  5
1F22E
  8
0
 10
4942.2314373651042843
 20
318.5839803369469223
 30
0.0
 40
0.0591941603077111
 50
62.8425359656625773
 51
111.9457120568308994
  0
ARC
  5
1F22F
  8
0
 10
4942.2377148751593268
 20
318.7219096934215941
 30
0.0
 40
0.0877475293480521
 50
251.1158269400829113
 51
283.6724210823421117
  0
ARC
  5
1F230
  8
0
 10
4942.2482216170183165
 20
318.5657023254835849
 30
0.0
 40
0.0470321841123388
 50
55.0936303138949413
 51
118.8358051404378983
  0
ARC
  5
1F231
  8
0
 10
4942.2532772470613054
 20
318.6610460900153043
 30
0.0
 40
0.0608355799949909
 50
242.87252106576139
 51
291.0569143885202266
  0
ARC
  5
1F232
  8
0
 10
4941.9099985046159418
 20
318.5818398593243046
 30
0.0
 40
0.0488349049641086
 50
49.4192876548989233
 51
112.2012478620801943
  0
ARC
  5
1F233
  8
0
 10
4941.9266607273439149
 20
318.6848324717744276
 30
0.0
 40
0.0676120321829215
 50
238.7106276443938953
 51
282.9099078725377012
  0
ARC
  5
1F234
  8
0
 10
4941.860055759446368
 20
318.5935058778352982
 30
0.0
 40
0.0683155814108477
 50
61.1520821045918979
 51
103.6506581064834052
  0
ARC
  5
1F235
  8
0
 10
4941.8808735609381984
 20
318.7495565078774007
 30
0.0
 40
0.0969760979714409
 50
247.6091668148065992
 51
277.1935733962836252
  0
ARC
  5
1F236
  8
0
 10
4941.5912573533141767
 20
318.5890269912054009
 30
0.0
 40
0.0742639922999877
 50
55.1008449827295692
 51
95.5261733370298032
  0
ARC
  5
1F237
  8
0
 10
4941.6288659585798086
 20
318.7325202979816936
 30
0.0
 40
0.0827290028486507
 50
237.2450733731523087
 51
273.3819449465440243
  0
ARC
  5
1F238
  8
0
 10
4941.6596778308112334
 20
319.2931877006278114
 30
0.0
 40
0.615896522054324
 50
256.1761094662360279
 51
260.741505547465124
  0
ARC
  5
1F239
  8
0
 10
4941.5155434320467975
 20
318.7074320176578794
 30
0.0
 40
0.012668169737894
 50
213.6609122185840022
 51
256.1761094662360279
  0
ARC
  5
1F23A
  8
0
 10
4940.4412303290137061
 20
316.664310016554623
 30
0.0
 40
2.1989100620884998
 50
64.0726118451661648
 51
71.8775129799271326
  0
ARC
  5
1F23B
  8
0
 10
4942.4211112884677277
 20
329.5152891986091959
 30
0.0
 40
10.8438155566776206
 50
270.0011755740861759
 51
273.5929517778372997
  0
ARC
  5
1F23C
  8
0
 10
4942.5674817807157524
 20
327.1842209900084981
 30
0.0
 40
8.5081564817803237
 50
273.5929517778372997
 51
279.089449290842424
  0
ARC
  5
1F23D
  8
0
 10
4943.2815897714872335
 20
322.7206327578354035
 30
0.0
 40
3.9878058174097029
 50
279.089449290842424
 51
288.7977836513986176
  0
ARC
  5
1F23E
  8
0
 10
4944.2258035309732804
 20
319.9466713343518904
 30
0.0
 40
1.0575495824397441
 50
288.7977836513986176
 51
308.4624674706262226
  0
ARC
  5
1F23F
  8
0
 10
4944.7196237278312765
 20
319.325018826998928
 30
0.0
 40
0.2636287887067564
 50
308.4624674706262226
 51
337.8428075610614769
  0
ARC
  5
1F240
  8
0
 10
4944.6863229524979033
 20
319.3221016286706231
 30
0.0
 40
0.2937668447080035
 50
340.8206511157558225
 51
358.8554952854796056
  0
ARC
  5
1F241
  8
0
 10
4942.5581773204612546
 20
319.3031138813207122
 30
0.0
 40
2.4218894075736039
 50
0.310388360526376
 51
5.6658783682760436
  0
ARC
  5
1F242
  8
0
 10
4943.6843539779656567
 20
319.444199327185288
 30
0.0
 40
1.2876170826507609
 50
4.3659060591620227
 51
23.9267313620552109
  0
ARC
  5
1F243
  8
0
 10
4943.6586875474913541
 20
319.3573169039669892
 30
0.0
 40
1.3480819452867121
 50
26.8609153120325814
 51
62.076369937202351
  0
ARC
  5
1F244
  8
0
 10
4942.4215275444494182
 20
327.3067955958889002
 30
0.0
 40
7.1083964228015883
 50
269.9984381847399959
 51
272.4656207531351129
  0
ARC
  5
1F245
  8
0
 10
4942.4805199196516696
 20
325.9367846453959032
 30
0.0
 40
5.737115961042206
 50
272.4656207531351129
 51
280.0510728540264154
  0
ARC
  5
1F246
  8
0
 10
4943.1624254322232446
 20
322.0895630972436265
 30
0.0
 40
1.829929150990627
 50
280.0510728540264154
 51
292.8980582990733978
  0
ARC
  5
1F247
  8
0
 10
4943.7366552593593951
 20
320.7300421782866238
 30
0.0
 40
0.3541117424152657
 50
292.8980582990733978
 51
317.6408927806792235
  0
ARC
  5
1F248
  8
0
 10
4943.9192641065474163
 20
320.5635362310744085
 30
0.0
 40
0.1069878432706789
 50
317.6408927806792235
 51
351.8858495240070283
  0
ARC
  5
1F249
  8
0
 10
4943.9333376673002931
 20
320.5615297204603849
 30
0.0
 40
0.0927719649261309
 50
351.8858495240070283
 51
32.2873531773674429
  0
ARC
  5
1F24A
  8
0
 10
4943.8320351408865463
 20
320.4975202138592181
 30
0.0
 40
0.2126027572661678
 50
32.2873531773674429
 51
57.843414231596789
  0
ARC
  5
1F24B
  8
0
 10
4943.3845659153930683
 20
319.7857556609843073
 30
0.0
 40
1.053339033689328
 50
57.843414231596789
 51
66.9717387643508744
  0
ARC
  5
1F24C
  8
0
 10
4941.2420207040213427
 20
314.7451495956034933
 30
0.0
 40
6.5304011557695221
 50
66.9717387643508744
 51
69.1661582905556998
  0
ARC
  5
1F24D
  8
0
 10
4943.8740656418985964
 20
320.5207186799054853
 30
0.0
 40
0.1675031348187591
 50
27.2068849119071885
 51
51.5883318301386424
  0
ARC
  5
1F24E
  8
0
 10
4943.9491172930211178
 20
320.5593013905930206
 30
0.0
 40
0.0831148897834377
 50
335.8734184313192941
 51
27.2068849119071885
  0
ARC
  5
1F24F
  8
0
 10
4943.8843631131094298
 20
320.5883033956052941
 30
0.0
 40
0.1540671280192101
 50
306.0100601539174932
 51
335.8734184313192941
  0
ARC
  5
1F250
  8
0
 10
4943.6452394014731908
 20
320.917307452960813
 30
0.0
 40
0.5607903990812925
 50
301.8452455976050146
 51
306.0100601539174932
  0
ARC
  5
1F251
  8
0
 10
4943.9184568139216935
 20
320.5185917771415802
 30
0.0
 40
0.0815617604798464
 50
325.1485419127088221
 51
336.4147396671230013
  0
ARC
  5
1F252
  8
0
 10
4942.6813522855409246
 20
307.4623665808197757
 30
0.0
 40
11.0662327869622903
 50
90.4471705999902866
 51
91.3463781704361111
  0
ARC
  5
1F253
  8
0
 10
4942.4323064896034339
 20
323.8810077977555011
 30
0.0
 40
5.3552169396395461
 50
271.7407816613600744
 51
274.6713858924347846
  0
ARC
  5
1F254
  8
0
 10
4942.5520889148847345
 20
322.4151015458803045
 30
0.0
 40
3.8844249867471019
 50
274.6713858924347846
 51
281.3331667181599869
  0
ARC
  5
1F255
  8
0
 10
4943.0539635570094106
 20
319.9110090762874279
 30
0.0
 40
1.330534375800897
 50
281.3331667181599869
 51
295.1726295618414042
  0
ARC
  5
1F256
  8
0
 10
4942.3892292942628046
 20
325.3509196423860885
 30
0.0
 40
6.8185640363207352
 50
270.2697720819118103
 51
272.8672250774886265
  0
ARC
  5
1F257
  8
0
 10
4942.5621212616633784
 20
322.3584712964711798
 30
0.0
 40
3.8212826428487281
 50
272.5225385258339088
 51
280.452242762049309
  0
ARC
  5
1F258
  8
0
 10
4943.0389223279389626
 20
320.0016329493569742
 30
0.0
 40
1.417655622863373
 50
278.7819699368573083
 51
290.457965680233599
  0
ARC
  5
1F259
  8
0
 10
4942.524466131070767
 20
321.3806919683983097
 30
0.0
 40
2.8895486069135532
 50
290.457965680233599
 51
294.7413497282938124
  0
ARC
  5
1F25A
  8
0
 10
4944.3023849096289268
 20
316.2916452333407733
 30
0.0
 40
2.5404724734052602
 50
105.1640631889625013
 51
114.853682989673004
  0
ARC
  5
1F25B
  8
0
 10
4943.958673795707
 20
317.3449950586094133
 30
0.0
 40
1.446148701412276
 50
106.2307733853130003
 51
120.0449035666719055
  0
ARC
  5
1F25C
  8
0
 10
4943.6849154617948443
 20
317.3118210563815182
 30
0.0
 40
1.4313493072618331
 50
100.4550841761023037
 51
119.2448163320329968
  0
ARC
  5
1F25D
  8
0
 10
4943.4375258091786236
 20
318.0753688030570743
 30
0.0
 40
0.6631564156064647
 50
109.3869233120742024
 51
132.9543513798898005
  0
ARC
  5
1F25E
  8
0
 10
4943.1369077574108815
 20
318.0258402520294112
 30
0.0
 40
0.6679313127287063
 50
93.1101409301553957
 51
129.6757028228851141
  0
ARC
  5
1F25F
  8
0
 10
4938.6614381878262066
 20
320.1866650852418275
 30
0.0
 40
4.3710898147283119
 50
337.8684783648699863
 51
339.4307325022983832
  0
ARC
  5
1F260
  8
0
 10
4942.7364199472549444
 20
318.6574368141643276
 30
0.0
 40
0.018617510722012
 50
339.5384445790346035
 51
90.5668853144006789
  0
ARC
  5
1F261
  8
0
 10
4942.4326042995071475
 20
318.5335244515197246
 30
0.0
 40
0.0106519546576954
 50
145.7201634982021119
 51
185.8735802772278021
  0
ARC
  5
1F262
  8
0
 10
4942.7989016150459065
 20
318.3462789256183214
 30
0.0
 40
0.4219513165729015
 50
140.7853721335906982
 51
152.7431904688114912
  0
ARC
  5
1F263
  8
0
 10
4942.5889401193353478
 20
318.5141367637787084
 30
0.0
 40
0.1531760391437448
 50
104.0301909338685959
 51
139.7791446006538933
  0
ARC
  5
1F264
  8
0
 10
4942.6426060231033262
 20
318.2906058790861721
 30
0.0
 40
0.383054871636154
 50
90.9501959647959524
 51
103.712139202931894
  0
ARC
  5
1F265
  8
0
 10
4942.6112258876355554
 20
318.583762668652696
 30
0.0
 40
0.0594159004080682
 50
68.2178871769666557
 51
117.1321926704838035
  0
ARC
  5
1F266
  8
0
 10
4942.6047958361596102
 20
318.7213856925596929
 30
0.0
 40
0.0872289245965987
 50
256.2951747224008727
 51
289.0549051250898174
  0
ARC
  5
1F267
  8
0
 10
4942.5944774681283889
 20
318.565433780686817
 30
0.0
 40
0.0473078583819906
 50
61.484578431947817
 51
124.830999026170204
  0
ARC
  5
1F268
  8
0
 10
4942.5892284930414462
 20
318.6605761656629738
 30
0.0
 40
0.0603723915169191
 50
248.8619433160926917
 51
297.453634142070598
  0
ARC
  5
1F269
  8
0
 10
4942.9326229202351897
 20
318.5817284780134173
 30
0.0
 40
0.0489280604151723
 50
67.87492587623818
 51
130.526236061128003
  0
ARC
  5
1F26A
  8
0
 10
4942.9159929706866023
 20
318.6843982911526041
 30
0.0
 40
0.0672119706708562
 50
256.9615778697778978
 51
301.4395840676199896
  0
ARC
  5
1F26B
  8
0
 10
4942.9825530136777161
 20
318.593468266753689
 30
0.0
 40
0.0683474039965728
 50
76.3725529800731238
 51
118.8515749241920929
  0
ARC
  5
1F26C
  8
0
 10
4942.9615849747769971
 20
318.7503644052741265
 30
0.0
 40
0.0977732504631643
 50
262.9427789201728842
 51
292.2813489841312844
  0
ARC
  5
1F26D
  8
0
 10
4943.2514462960907622
 20
318.5879490184183283
 30
0.0
 40
0.0753215308083134
 50
84.628055771408313
 51
124.4608500103774986
  0
ARC
  5
1F26E
  8
0
 10
4943.2142305216357272
 20
318.7313925382678121
 30
0.0
 40
0.0815192783275768
 50
266.1987428978334265
 51
302.8901628839620912
  0
ARC
  5
1F26F
  8
0
 10
4943.1815797038716482
 20
319.2926372881523207
 30
0.0
 40
0.615896522054324
 50
279.1618278469996994
 51
283.8238905337639721
  0
ARC
  5
1F270
  8
0
 10
4943.3257141026360841
 20
318.7068816051823887
 30
0.0
 40
0.012668169737894
 50
283.8238905337639721
 51
327.6093928838358806
  0
ARC
  5
1F271
  8
0
 10
4944.4014372269002706
 20
316.664310016554623
 30
0.0
 40
2.1989100620884998
 50
108.1224870200727963
 51
115.9273881548338068
  0
ARC
  5
1F273
  8
0
 10
4942.3969102634700903
 20
324.5587267049140792
 30
0.0
 40
4.1174318777376993
 50
261.5599223116466874
 51
270.3398653696795009
  0
ARC
  5
1F274
  8
0
 10
4941.971577430371326
 20
321.8919285595911219
 30
0.0
 40
1.41739020905544
 50
248.7660203661253036
 51
262.7447045736166729
  0
ARC
  5
1F275
  8
0
 10
4942.4457572924438864
 20
324.5587267049140792
 30
0.0
 40
4.1174318777376993
 50
269.6601346303204991
 51
278.4400776883533126
  0
ARC
  5
1F276
  8
0
 10
4942.522901921481207
 20
323.2635683200015819
 30
0.0
 40
2.8272679839295871
 50
280.7466563724116781
 51
287.7417538064382825
  0
ARC
  5
1F277
  8
0
 10
4942.4213337842020337
 20
320.7130862083625971
 30
0.0
 40
0.5708553963759087
 50
89.9994696282966657
 51
111.4136144344194008
  0
ARC
  5
1F278
  8
0
 10
4942.4251828503993238
 20
320.7032713054409214
 30
0.0
 40
0.5813980540083316
 50
111.4136105063232947
 51
121.6544871296114962
  0
ARC
  5
1F279
  8
0
 10
4941.4444424865696419
 20
322.4591624034648021
 30
0.0
 40
1.430580925489056
 50
294.5873131122676227
 51
298.1819638718108081
  0
ARC
  5
1F27A
  8
0
 10
4942.4286001556010888
 20
317.4993435911165989
 30
0.0
 40
3.6811634850332289
 50
90.1130982210554521
 51
92.8429066370872249
  0
ARC
  5
1F27B
  8
0
 10
4942.3892585495777894
 20
318.2915808182374917
 30
0.0
 40
2.8879500295242351
 50
92.8429061618826807
 51
96.9525927054953343
  0
ARC
  5
1F27C
  8
0
 10
4942.2835149906632068
 20
319.1587239426625047
 30
0.0
 40
2.0143832613320112
 50
96.9525927054953343
 51
104.7123227304537068
  0
ARC
  5
1F27D
  8
0
 10
4941.9700778317583172
 20
320.3524293108490042
 30
0.0
 40
0.7802133546259525
 50
104.7123227304537068
 51
117.7338192456112012
  0
ARC
  5
1F27E
  8
0
 10
4941.8484702698324327
 20
320.5837257632169894
 30
0.0
 40
0.518896596656473
 50
117.7338192456112012
 51
137.6741415007797968
  0
ARC
  5
1F27F
  8
0
 10
4941.7361010746872125
 20
320.6860666055392812
 30
0.0
 40
0.3669081628046227
 50
137.6741415007797968
 51
161.0719753889675872
  0
LINE
  5
1F280
  8
0
 10
4941.3583166244779932
 20
320.6386450373797743
 30
0.0
 11
4941.3689142016519327
 21
320.7196648476138989
 31
0.0
  0
ARC
  5
1F281
  8
0
 10
4941.7491178112441048
 20
320.674988118732017
 30
0.0
 40
0.3828658160401672
 50
160.1355650956199099
 51
173.2709599283741966
  0
ARC
  5
1F282
  8
0
 10
4941.4700701270003265
 20
320.7186456581330845
 30
0.0
 40
0.1374370570361514
 50
215.5976174073225025
 51
241.6380254248932999
  0
ARC
  5
1F283
  8
0
 10
4941.6053279351508536
 20
320.9290984321422115
 30
0.0
 40
0.387349491253775
 50
238.8192880092724124
 51
247.6815982456510028
  0
ARC
  5
1F284
  8
0
 10
4941.3815444159072285
 20
320.6529690238688772
 30
0.0
 40
0.0272893181223382
 50
182.1399287391911059
 51
211.6610759448630859
  0
ARC
  5
1F285
  8
0
 10
4941.4217392766313424
 20
320.6420861718839888
 30
0.0
 40
0.0681824170488802
 50
148.8657997774994897
 51
171.6819018360702103
  0
ARC
  5
1F286
  8
0
 10
4943.596499455880803
 20
315.0577939857805063
 30
0.0
 40
6.2495876934200121
 50
109.9501110412757043
 51
112.0925369543166994
  0
ARC
  5
1F287
  8
0
 10
4942.4436026733310428
 20
319.9027243556276972
 30
0.0
 40
1.2127293895152249
 50
91.0521600652265732
 51
101.7482581046393051
  0
ARC
  5
1F288
  8
0
 10
4942.2325725572736701
 20
320.9516446335836122
 30
0.0
 40
0.1429836454265334
 50
104.5396874163814971
 51
122.1172891942408967
  0
ARC
  5
1F289
  8
0
 10
4942.1836689620367906
 20
321.0295514115097149
 30
0.0
 40
0.0509998007914532
 50
122.1172891942408967
 51
144.3089337491410902
  0
ARC
  5
1F28A
  8
0
 10
4942.1605685433960389
 20
321.0461452851120043
 30
0.0
 40
0.022557121899424
 50
144.3089337491385038
 51
180.3837561455385128
  0
ARC
  5
1F28B
  8
0
 10
4942.1978315832920998
 20
321.1010277090438763
 30
0.0
 40
0.0927362481149224
 50
229.7617936598203983
 51
248.5717476143136935
  0
ARC
  5
1F28C
  8
0
 10
4942.2973147974644235
 20
321.3545109551743053
 30
0.0
 40
0.3650424470364574
 50
248.5717476143136935
 51
261.7701388996093215
  0
ARC
  5
1F28D
  8
0
 10
4942.5005308137360771
 20
322.7595449131277974
 30
0.0
 40
1.7846963387550421
 50
261.7701388996093215
 51
264.2633858972071721
  0
ARC
  5
1F28E
  8
0
 10
4942.4940571603619901
 20
324.0805415849503106
 30
0.0
 40
3.1015233880500892
 50
266.822479135170795
 51
268.6564264512966815
  0
LINE
  5
1F28F
  8
0
 10
4942.1379270399584129
 20
321.0302360612141115
 30
0.0
 11
4942.1380119274581375
 21
321.0459942029640956
 31
0.0
  0
ARC
  5
1F290
  8
0
 10
4942.1817780582023261
 20
321.0141105432342101
 30
0.0
 40
0.0638307706542172
 50
113.2759395061882941
 51
136.6810138381952981
  0
ARC
  5
1F291
  8
0
 10
4942.1500494467136377
 20
321.0440299309757961
 30
0.0
 40
0.0202202839581077
 50
136.6810138381952981
 51
168.4662490916578861
  0
ARC
  5
1F292
  8
0
 10
4942.1502123340878825
 20
321.0461082547553815
 30
0.0
 40
0.0200712475869043
 50
174.3827521490179038
 51
232.2596405598121976
  0
ARC
  5
1F293
  8
0
 10
4943.3230074826606142
 20
315.4039840402321033
 30
0.0
 40
5.817987801127904
 50
108.8197053581459954
 51
110.8804249030610976
  0
LINE
  5
1F294
  8
0
 10
4941.2610841027080824
 20
318.2636381094641251
 30
0.0
 11
4941.2601596222457374
 21
318.323897950116816
 31
0.0
  0
ARC
  5
1F295
  8
0
 10
4942.2709244493307779
 20
318.3193171283404013
 30
0.0
 40
1.010775207255286
 50
159.9827889928145055
 51
179.7403352881391072
  0
ARC
  5
1F296
  8
0
 10
4941.356451963557447
 20
318.2730219816717749
 30
0.0
 40
0.0958284192750416
 50
185.6196196792589035
 51
225.3549699903678913
  0
ARC
  5
1F297
  8
0
 10
4941.4800289887216422
 20
318.3981397892931113
 30
0.0
 40
0.2716855969295666
 50
225.3549699903678913
 51
242.9509638144589871
  0
ARC
  5
1F298
  8
0
 10
4941.7371851623347538
 20
318.9017711689330099
 30
0.0
 40
0.8371711088434955
 50
242.9509638144589871
 51
257.3195650331517754
  0
ARC
  5
1F299
  8
0
 10
4943.495246474061787
 20
326.7153442203285749
 30
0.0
 40
8.8460851054656189
 50
257.3195650331517754
 51
258.2822792251263877
  0
ARC
  5
1F29A
  8
0
 10
4942.2752295149475685
 20
321.3020441767760076
 30
0.0
 40
3.2991984940726189
 50
259.9358756464765179
 51
264.621095631916603
  0
ARC
  5
1F29B
  8
0
 10
4942.4147361523346262
 20
322.7737032600326188
 30
0.0
 40
4.7774548837582884
 50
264.6098651390582859
 51
270.0791884708125963
  0
LINE
  5
1F29C
  8
0
 10
4942.3787192169565969
 20
317.9363168242140887
 30
0.0
 11
4942.3787192169565969
 21
317.9963841429218974
 31
0.0
  0
LINE
  5
1F29D
  8
0
 10
4942.3314755887076899
 20
317.9363168242140887
 30
0.0
 11
4942.3314749570572531
 21
317.99697396691721
 31
0.0
  0
ARC
  5
1F29E
  8
0
 10
4942.3550974028330529
 20
317.936316552992821
 30
0.0
 40
0.0236218141265567
 50
179.9993421404612945
 51
0.000657859522401
  0
LINE
  5
1F29F
  8
0
 10
4942.3851700642080687
 20
317.9505037479640919
 30
0.0
 11
4942.3851700642080687
 21
317.9963398645206212
 31
0.0
  0
LINE
  5
1F2A0
  8
0
 10
4942.3871979252080564
 20
317.9633840602140822
 30
0.0
 11
4942.3871979252080564
 21
317.9963277449205066
 31
0.0
  0
LINE
  5
1F2A1
  8
0
 10
4942.329496086207655
 20
317.9515601162141252
 30
0.0
 11
4942.329496086207655
 21
317.9970088698217978
 31
0.0
  0
ARC
  5
1F2A2
  8
0
 10
4942.3654850249567971
 20
317.9505037479640919
 30
0.0
 40
0.0196850392499841
 50
312.2320540280614978
 51
0.0000000000195413
  0
ARC
  5
1F2A3
  8
0
 10
4942.371419437116856
 20
317.9634172416413094
 30
0.0
 40
0.0157785229803925
 50
330.6307861448074732
 51
359.8795098161406827
  0
LINE
  5
1F2A4
  8
0
 10
4942.3127143214578609
 20
317.9373458631540075
 30
0.0
 11
4942.3127143214578609
 21
317.9973378309254031
 31
0.0
  0
LINE
  5
1F2A5
  8
0
 10
4942.2654706932071349
 20
317.9373458631540075
 30
0.0
 11
4942.2654700555413001
 21
317.9985807695939002
 31
0.0
  0
ARC
  5
1F2A6
  8
0
 10
4942.2890925073334074
 20
317.9373455919327967
 30
0.0
 40
0.0236218141265567
 50
179.9993421404612945
 51
0.000657859522401
  0
LINE
  5
1F2A7
  8
0
 10
4942.2471739289576362
 20
317.9399104754375003
 30
0.0
 11
4942.2471739289576362
 21
317.9991877801496116
 31
0.0
  0
LINE
  5
1F2A8
  8
0
 10
4942.1999303007078197
 20
317.9399104754375003
 30
0.0
 11
4942.1999296637222869
 21
318.0010799416892269
 31
0.0
  0
ARC
  5
1F2A9
  8
0
 10
4942.2235521148322732
 20
317.9399102042161758
 30
0.0
 40
0.0236218141265567
 50
179.9993421404612945
 51
0.000657859522401
  0
LINE
  5
1F2AA
  8
0
 10
4942.1823282529576318
 20
317.9432878458391087
 30
0.0
 11
4942.1823282529576318
 21
318.0019046751536962
 31
0.0
  0
LINE
  5
1F2AB
  8
0
 10
4942.1350846247078152
 20
317.9432878458391087
 30
0.0
 11
4942.1350839878996339
 21
318.0044402317154777
 31
0.0
  0
ARC
  5
1F2AC
  8
0
 10
4942.1587064388322688
 20
317.9432875746177842
 30
0.0
 40
0.0236218141265567
 50
179.9993421404612945
 51
0.000657859522401
  0
LINE
  5
1F2AD
  8
0
 10
4942.1182496964484017
 20
317.9467908758451813
 30
0.0
 11
4942.1182496964484017
 21
318.0054571518895727
 31
0.0
  0
LINE
  5
1F2AE
  8
0
 10
4942.0710060681967661
 20
317.9467908758451813
 30
0.0
 11
4942.0710054242399565
 21
318.0086298762421961
 31
0.0
  0
ARC
  5
1F2AF
  8
0
 10
4942.0946278823230386
 20
317.9467906046239136
 30
0.0
 40
0.0236218141265567
 50
179.9993421404612945
 51
0.000657859522401
  0
LINE
  5
1F2B0
  8
0
 10
4942.0551858464841644
 20
317.9514550565190234
 30
0.0
 11
4942.0551858464841644
 21
318.0097974314181215
 31
0.0
  0
LINE
  5
1F2B1
  8
0
 10
4942.0079422182352573
 20
317.9514550565190234
 30
0.0
 11
4942.0079415711015827
 21
318.0135989192618808
 31
0.0
  0
ARC
  5
1F2B2
  8
0
 10
4942.0315640323578918
 20
317.9514547852978126
 30
0.0
 40
0.0236218141265567
 50
179.9993421404612945
 51
0.000657859522401
  0
LINE
  5
1F2B3
  8
0
 10
4941.9940812265131171
 20
317.957415842174214
 30
0.0
 11
4941.9940812265131171
 21
318.0148037444168949
 31
0.0
  0
LINE
  5
1F2B4
  8
0
 10
4941.9468375982633006
 20
317.957415842174214
 30
0.0
 11
4941.946836954563878
 21
318.0192299831952027
 31
0.0
  0
ARC
  5
1F2B5
  8
0
 10
4941.9704594123877541
 20
317.9574155709528895
 30
0.0
 40
0.0236218141265567
 50
179.9993421404612945
 51
0.000657859522401
  0
LINE
  5
1F2B6
  8
0
 10
4941.934162666222619
 20
317.9634893207248751
 30
0.0
 11
4941.934162666222619
 21
318.0205225620381952
 31
0.0
  0
LINE
  5
1F2B7
  8
0
 10
4941.8869190379728025
 20
317.9634893207248751
 30
0.0
 11
4941.8869183893402806
 21
318.0257772198538078
 31
0.0
  0
ARC
  5
1F2B8
  8
0
 10
4941.910540852099075
 20
317.9634890495036075
 30
0.0
 40
0.0236218141265567
 50
179.9993421404612945
 51
0.000657859522401
  0
LINE
  5
1F2B9
  8
0
 10
4941.8755617444694508
 20
317.9705689176265082
 30
0.0
 11
4941.8755617444694508
 21
318.0271432047571238
 31
0.0
  0
LINE
  5
1F2BA
  8
0
 10
4941.8283181162178153
 20
317.9705689176265082
 30
0.0
 11
4941.8283174634361785
 21
318.0332553610975879
 31
0.0
  0
ARC
  5
1F2BB
  8
0
 10
4941.8519399303440878
 20
317.9705686464051837
 30
0.0
 40
0.0236218141265567
 50
179.9993421404612945
 51
0.000657859522401
  0
LINE
  5
1F2BC
  8
0
 10
4941.8198575231590439
 20
317.9783244066165935
 30
0.0
 11
4941.8198575231590439
 21
318.0344231687054162
 31
0.0
  0
LINE
  5
1F2BD
  8
0
 10
4941.7726138949092274
 20
317.9783244066165935
 30
0.0
 11
4941.7726132385332676
 21
318.0413559699748021
 31
0.0
  0
ARC
  5
1F2BE
  8
0
 10
4941.7962357090336809
 20
317.9783241353953258
 30
0.0
 40
0.0236218141265567
 50
179.9993421404612945
 51
0.000657859522401
  0
LINE
  5
1F2BF
  8
0
 10
4941.7662368264573161
 20
317.9871019840903159
 30
0.0
 11
4941.7662368264573161
 21
318.0423452418506827
 31
0.0
  0
LINE
  5
1F2C0
  8
0
 10
4941.71899319820659
 20
317.9871019840903159
 30
0.0
 11
4941.7189925424527246
 21
318.0500738303983894
 31
0.0
  0
ARC
  5
1F2C1
  8
0
 10
4941.742615012331953
 20
317.9871017128689914
 30
0.0
 40
0.0236218141265567
 50
179.9993421404612945
 51
0.000657859522401
  0
LINE
  5
1F2C2
  8
0
 10
4941.7145595194106136
 20
317.9967994624219045
 30
0.0
 11
4941.7145595194106136
 21
318.0508351925063266
 31
0.0
  0
LINE
  5
1F2C3
  8
0
 10
4941.6673158911617065
 20
317.9967994624219045
 30
0.0
 11
4941.6673152311641388
 21
318.0601787646958769
 31
0.0
  0
ARC
  5
1F2C4
  8
0
 10
4941.690937705287979
 20
317.99679919120058
 30
0.0
 40
0.0236218141265567
 50
179.9993421404612945
 51
0.000657859522401
  0
LINE
  5
1F2C5
  8
0
 10
4941.666170527563736
 20
318.0073347095010945
 30
0.0
 11
4941.666170527563736
 21
318.0604205999215992
 31
0.0
  0
LINE
  5
1F2C6
  8
0
 10
4941.6189268993139194
 20
318.0073347095010945
 30
0.0
 11
4941.6189262411298841
 21
318.0705397646668189
 31
0.0
  0
ARC
  5
1F2C7
  8
0
 10
4941.6425487134383729
 20
318.0073344382798837
 30
0.0
 40
0.0236218141265567
 50
179.9993421404612945
 51
0.000657859522401
  0
LINE
  5
1F2C8
  8
0
 10
4941.5726030480327609
 20
318.0177291435180109
 30
0.0
 11
4941.5726023920351508
 21
318.0807242850339094
 31
0.0
  0
ARC
  5
1F2C9
  8
0
 10
4941.5962248621572144
 20
318.0177288722966864
 30
0.0
 40
0.0236218141265567
 50
179.9993421404612945
 51
343.9582697785176038
  0
LINE
  5
1F2CA
  8
0
 10
4941.5294637982096901
 20
318.0289975841579917
 30
0.0
 11
4941.529463154844052
 21
318.0907797798997194
 31
0.0
  0
ARC
  5
1F2CB
  8
0
 10
4941.5530856123350532
 20
318.028997312936724
 30
0.0
 40
0.0236218141265567
 50
179.9993421404612945
 51
326.0538678391170038
  0
LINE
  5
1F2CC
  8
0
 10
4941.4891802027023004
 20
318.0408487489370941
 30
0.0
 11
4941.4891795640496639
 21
318.1021783421131772
 31
0.0
  0
ARC
  5
1F2CD
  8
0
 10
4941.512802016826754
 20
318.0408484777158264
 30
0.0
 40
0.0236218141265567
 50
179.9993421404612945
 51
316.3307777129991791
  0
LINE
  5
1F2CE
  8
0
 10
4941.4521111549829584
 20
318.0534252017960171
 30
0.0
 11
4941.4521105176090714
 21
318.1146321009044868
 31
0.0
  0
ARC
  5
1F2CF
  8
0
 10
4941.4757329691092309
 20
318.0534249305746926
 30
0.0
 40
0.0236218141265567
 50
179.9993421404612945
 51
307.2109173654558276
  0
LINE
  5
1F2D0
  8
0
 10
4941.41839193384385
 20
318.0660187920396993
 30
0.0
 11
4941.4183912917969792
 21
318.1276743186681983
 31
0.0
  0
ARC
  5
1F2D1
  8
0
 10
4941.4420137479701225
 20
318.0660185208183748
 30
0.0
 40
0.0236218141265567
 50
179.9993421404612945
 51
299.1508305724781849
  0
LINE
  5
1F2D2
  8
0
 10
4941.3880911036612815
 20
318.0793077993179736
 30
0.0
 11
4941.3880904627067139
 21
318.1408583249266258
 31
0.0
  0
ARC
  5
1F2D3
  8
0
 10
4941.4117129177839161
 20
318.0793075280967059
 30
0.0
 40
0.0236218141265567
 50
179.9993421404612945
 51
290.7738967365937128
  0
LINE
  5
1F2D4
  8
0
 10
4941.3613963203952153
 20
318.0929711231582928
 30
0.0
 11
4941.3613956881872582
 21
318.1536817781496893
 31
0.0
  0
ARC
  5
1F2D5
  8
0
 10
4941.3850181345196688
 20
318.0929708519370251
 30
0.0
 40
0.0236218141265567
 50
179.9993421404612945
 51
282.297121985249305
  0
LINE
  5
1F2D6
  8
0
 10
4941.3385732854667367
 20
318.1058798714996101
 30
0.0
 11
4941.3385726574852015
 21
318.1661846860259857
 31
0.0
  0
ARC
  5
1F2D7
  8
0
 10
4941.3621950995911902
 20
318.1058796002782856
 30
0.0
 40
0.0236218141265567
 50
179.9993421404612945
 51
274.218892157106211
  0
LINE
  5
1F2D8
  8
0
 10
4941.319368206614854
 20
318.1212526362064068
 30
0.0
 11
4941.3193676047585541
 21
318.179048522278606
 31
0.0
  0
ARC
  5
1F2D9
  8
0
 10
4941.3429900207393075
 20
318.1212523649850823
 30
0.0
 40
0.0236218141265567
 50
179.9993421404612945
 51
262.7038404842219279
  0
LINE
  5
1F2DA
  8
0
 10
4941.3031437704303244
 20
318.1358840896438096
 30
0.0
 11
4941.3031431868503205
 21
318.1919251519016143
 31
0.0
  0
ARC
  5
1F2DB
  8
0
 10
4941.3267655845547779
 20
318.1358838184224851
 30
0.0
 40
0.0236218141265567
 50
179.9993421404612945
 51
255.5001948732690948
  0
LINE
  5
1F2DC
  8
0
 10
4941.2916379046819202
 20
318.1505680163739953
 30
0.0
 11
4941.2916373651341928
 21
318.2023806011550278
 31
0.0
  0
ARC
  5
1F2DD
  8
0
 10
4941.3152597188072832
 20
318.1505677451527276
 30
0.0
 40
0.0236218141265567
 50
179.9993421404612945
 51
241.3386594179474969
  0
LINE
  5
1F2DE
  8
0
 10
4941.2838797239010091
 20
318.1651882217446996
 30
0.0
 11
4941.2838792526554244
 21
318.2104417326065118
 31
0.0
  0
ARC
  5
1F2DF
  8
0
 10
4941.3075015380272816
 20
318.1651879505233182
 30
0.0
 40
0.0236218141265567
 50
179.9993421404612945
 51
228.4604064160284906
  0
LINE
  5
1F2E0
  8
0
 10
4941.2800825523327148
 20
318.179644693464013
 30
0.0
 11
4941.2800821827431719
 21
318.2151363831264916
 31
0.0
  0
ARC
  5
1F2E1
  8
0
 10
4941.3037043664580779
 20
318.1796444222425748
 30
0.0
 40
0.0236218141265567
 50
179.9993421404612945
 51
212.9387627457024053
  0
ARC
  5
1F2E2
  8
0
 10
4942.309811046957293
 20
317.9515601162141252
 30
0.0
 40
0.0196850392499981
 50
276.6879945107664867
 51
0.0000000000097707
  0
ARC
  5
1F2E3
  8
0
 10
4942.2544879607066832
 20
317.9533170444641996
 30
0.0
 40
0.0196850392500014
 50
246.7160419916203864
 51
303.9220589245114752
  0
ARC
  5
1F2E4
  8
0
 10
4942.19968983320814
 20
317.9557690044641163
 30
0.0
 40
0.0196850392500102
 50
208.1192847100211054
 51
271.6043925143770252
  0
LINE
  5
1F2E5
  8
0
 10
4942.1259060048705578
 20
317.958630172104904
 30
0.0
 11
4942.1259035724251589
 21
318.0049874048858101
 31
0.0
  0
ARC
  5
1F2E6
  8
0
 10
4941.9891590962079135
 20
317.9723406247140929
 30
0.0
 40
0.0196850392500074
 50
283.3356445662014949
 51
342.5874247956718932
  0
ARC
  5
1F2E7
  8
0
 10
4941.9395201254574204
 20
317.9781092784641032
 30
0.0
 40
0.0196850392500052
 50
253.0595889750902074
 51
291.8221246724943967
  0
ARC
  5
1F2E8
  8
0
 10
4941.8913971189576841
 20
317.9844949587140945
 30
0.0
 40
0.0196850392499823
 50
216.4440789097747029
 51
256.8508054025991783
  0
LINE
  5
1F2E9
  8
0
 10
4941.8247737284573304
 20
317.990390511214116
 30
0.0
 11
4941.8247737284573304
 21
318.0337418211626073
 31
0.0
  0
LINE
  5
1F2EA
  8
0
 10
4941.825256449958033
 20
317.9914775734641239
 30
0.0
 11
4941.825256449958033
 21
318.033675326099285
 31
0.0
  0
ARC
  5
1F2EB
  8
0
 10
4941.8011516812066475
 20
317.990390511214116
 30
0.0
 40
0.0236220472500204
 50
321.8234337709047281
 51
359.9999999999772058
  0
ARC
  5
1F2EC
  8
0
 10
4941.8449414892083951
 20
317.9914775734641239
 30
0.0
 40
0.019685039249995
 50
180.0
 51
212.3845014327106924
  0
ARC
  5
1F2ED
  8
0
 10
4941.7458127975733078
 20
318.0015311465627974
 30
0.0
 40
0.027156910411164
 50
317.786142411464084
 51
350.712398245046586
  0
ARC
  5
1F2EE
  8
0
 10
4941.6973041525116059
 20
318.01093747094842
 30
0.0
 40
0.0259399424410247
 50
309.5458144779012173
 51
326.7328060268253012
  0
ARC
  5
1F2EF
  8
0
 10
4941.6521864294581974
 20
318.0199334012149279
 30
0.0
 40
0.0236220472509353
 50
302.9659717559807177
 51
309.8274976840136219
  0
LINE
  5
1F2F0
  8
0
 10
4942.0598428874582169
 20
317.9672071477141913
 30
0.0
 11
4942.0598428874582169
 21
318.0094482356988124
 31
0.0
  0
LINE
  5
1F2F1
  8
0
 10
4942.0650752642068255
 20
317.9783052157141015
 30
0.0
 11
4942.0650752642068255
 21
318.0090613606178067
 31
0.0
  0
ARC
  5
1F2F2
  8
0
 10
4942.0808700847983346
 20
317.9783351350458815
 30
0.0
 40
0.0157948489283501
 50
180.1085323748231133
 51
231.3529529811887926
  0
ARC
  5
1F2F3
  8
0
 10
4942.040157432160413
 20
317.9672072205717086
 30
0.0
 40
0.0196854552975372
 50
319.7672813867316108
 51
359.9997879432834225
  0
ARC
  5
1F2F4
  8
0
 10
4942.1455853190636844
 20
317.9589053975051911
 30
0.0
 40
0.0196803528177567
 50
179.9916031484798111
 51
237.8325786605444989
  0
LINE
  5
1F2F5
  8
0
 10
4942.3977126764566492
 20
317.9358750999641074
 30
0.0
 11
4942.3977126764566492
 21
317.9962787061945733
 31
0.0
  0
LINE
  5
1F2F6
  8
0
 10
4942.4449567709580151
 20
317.9358750999641074
 30
0.0
 11
4942.4449567709580151
 21
317.9962786752390116
 31
0.0
  0
ARC
  5
1F2F7
  8
0
 10
4942.4213347237073322
 20
317.9358750999641074
 30
0.0
 40
0.0236220472500013
 50
180.0
 51
0.0
  0
ARC
  5
1F2F8
  8
0
 10
4941.3152225598578298
 20
314.6262467683184241
 30
0.0
 40
6.6273461823574431
 50
63.3292016037437193
 51
69.8641232654469349
  0
ARC
  5
1F2F9
  8
0
 10
4942.4213443527132767
 20
320.7130862083624834
 30
0.0
 40
0.570855396376111
 50
68.5863855655805992
 51
90.0005303717033769
  0
ARC
  5
1F2FA
  8
0
 10
4942.4174952865159867
 20
320.7032713054409214
 30
0.0
 40
0.5813980540083316
 50
58.3455128703884469
 51
68.5863894936766485
  0
ARC
  5
1F2FB
  8
0
 10
4943.3982356503447591
 20
322.4591624034648021
 30
0.0
 40
1.430580925489056
 50
241.8180361281891066
 51
245.4126868877324057
  0
ARC
  5
1F2FC
  8
0
 10
4942.4140793676542671
 20
317.4993803396394014
 30
0.0
 40
3.6811267129784819
 50
87.1570865454377355
 51
89.8870869180145888
  0
ARC
  5
1F2FD
  8
0
 10
4942.4534195873366116
 20
318.2915808182374917
 30
0.0
 40
2.8879500295242351
 50
83.0474072945046942
 51
87.1570938381173193
  0
ARC
  5
1F2FE
  8
0
 10
4942.5591631462530131
 20
319.1587239426625047
 30
0.0
 40
2.0143832613320112
 50
75.2876772695462932
 51
83.0474072945046942
  0
ARC
  5
1F2FF
  8
0
 10
4942.8726003051569933
 20
320.3524293108490042
 30
0.0
 40
0.7802133546259525
 50
62.2661807543887491
 51
75.2876772695462932
  0
ARC
  5
1F300
  8
0
 10
4942.9942078670828778
 20
320.5837257632169894
 30
0.0
 40
0.518896596656473
 50
42.3258584992201605
 51
62.2661807543887491
  0
ARC
  5
1F301
  8
0
 10
4943.1065770622280979
 20
320.6860666055392812
 30
0.0
 40
0.3669081628046227
 50
18.9280246110323915
 51
42.3258584992201605
  0
LINE
  5
1F302
  8
0
 10
4943.4843615124373173
 20
320.6386450373797743
 30
0.0
 11
4943.4737639352633778
 21
320.7196648476138989
 31
0.0
  0
ARC
  5
1F303
  8
0
 10
4943.0935603256721151
 20
320.674988118732017
 30
0.0
 40
0.3828658160401672
 50
6.7290400716257386
 51
19.8644349043801185
  0
ARC
  5
1F304
  8
0
 10
4943.372608009914984
 20
320.7186456581330845
 30
0.0
 40
0.1374370570361514
 50
298.3619745751066148
 51
324.4023825926773839
  0
ARC
  5
1F305
  8
0
 10
4943.2373502017653664
 20
320.9290984321422115
 30
0.0
 40
0.387349491253775
 50
292.3184017543489972
 51
301.180711990727616
  0
ARC
  5
1F306
  8
0
 10
4943.4611337210089914
 20
320.6529690238688772
 30
0.0
 40
0.0272893181223382
 50
328.3389240551369994
 51
357.8600712608088088
  0
ARC
  5
1F307
  8
0
 10
4943.4209388602857871
 20
320.6420861718839888
 30
0.0
 40
0.0681824170488802
 50
8.3180981639297755
 51
31.1342002225004713
  0
ARC
  5
1F308
  8
0
 10
4941.246178681033598
 20
315.0577939857805063
 30
0.0
 40
6.2495876934200121
 50
67.9074630456832864
 51
70.0498889587243241
  0
ARC
  5
1F309
  8
0
 10
4942.411871879598948
 20
320.0167992414175728
 30
0.0
 40
1.0984907797899559
 50
77.6937054834609739
 51
89.5064741953335954
  0
ARC
  5
1F30A
  8
0
 10
4942.6101055796416404
 20
320.9516446335836122
 30
0.0
 40
0.1429836454265334
 50
57.8827108057590465
 51
75.4603125836185455
  0
ARC
  5
1F30B
  8
0
 10
4942.6590091748776103
 20
321.0295514115097149
 30
0.0
 40
0.0509998007914532
 50
35.6910662508588672
 51
57.8827108057590465
  0
ARC
  5
1F30C
  8
0
 10
4942.6821095935201811
 20
321.0461452851120043
 30
0.0
 40
0.022557121899424
 50
359.616243854461402
 51
35.6910662508615175
  0
ARC
  5
1F30D
  8
0
 10
4942.6448465536241201
 20
321.1010277090438763
 30
0.0
 40
0.0927362481149224
 50
291.4282523856862781
 51
310.2382063401797154
  0
ARC
  5
1F30E
  8
0
 10
4942.545363339450887
 20
321.3545109551743053
 30
0.0
 40
0.3650424470364574
 50
278.2298611003906785
 51
291.4282523856862781
  0
ARC
  5
1F30F
  8
0
 10
4942.3421473231792334
 20
322.7595449131277974
 30
0.0
 40
1.7846963387550421
 50
275.7366141027928279
 51
278.2298611003906785
  0
ARC
  5
1F310
  8
0
 10
4942.4164292547657169
 20
322.3627795941446266
 30
0.0
 40
1.3829173814161091
 50
270.2032001855534986
 51
274.3174125124879197
  0
LINE
  5
1F311
  8
0
 10
4942.7047510969568975
 20
321.0302360612141115
 30
0.0
 11
4942.7046662094580824
 21
321.0459942029640956
 31
0.0
  0
ARC
  5
1F312
  8
0
 10
4942.6609000787129844
 20
321.0141105432342101
 30
0.0
 40
0.0638307706542172
 50
43.3189861618046166
 51
66.7240604938116206
  0
ARC
  5
1F313
  8
0
 10
4942.6926286902025822
 20
321.0440299309757961
 30
0.0
 40
0.0202202839581077
 50
11.5337509083420802
 51
43.3189861618046166
  0
ARC
  5
1F314
  8
0
 10
4942.692465802827428
 20
321.0461082547553815
 30
0.0
 40
0.0200712475869043
 50
307.740359440187774
 51
5.6172478509821051
  0
LINE
  5
1F315
  8
0
 10
4943.5815940342081376
 20
318.2636381094641251
 30
0.0
 11
4943.5825185146695731
 21
318.323897950116816
 31
0.0
  0
ARC
  5
1F316
  8
0
 10
4942.5717536875836231
 20
318.3193171283404013
 30
0.0
 40
1.010775207255286
 50
0.2596647118609101
 51
20.017211007185459
  0
ARC
  5
1F317
  8
0
 10
4943.4862261733578634
 20
318.2730219816717749
 30
0.0
 40
0.0958284192750416
 50
314.6450300096320802
 51
354.3803803207409828
  0
ARC
  5
1F318
  8
0
 10
4943.3626491481927587
 20
318.3981397892931113
 30
0.0
 40
0.2716855969295666
 50
297.0490361855410129
 51
314.6450300096320802
  0
ARC
  5
1F319
  8
0
 10
4943.1054929745805566
 20
318.9017711689330099
 30
0.0
 40
0.8371711088434955
 50
282.6804349668482246
 51
297.0490361855410129
  0
ARC
  5
1F31A
  8
0
 10
4941.347431662852614
 20
326.7153442203285749
 30
0.0
 40
8.8460851054656189
 50
281.7177207748736123
 51
282.6804349668482246
  0
ARC
  5
1F31B
  8
0
 10
4942.5674486219668324
 20
321.3020441767760076
 30
0.0
 40
3.2991984940726189
 50
275.378904368083397
 51
280.0641243535234821
  0
ARC
  5
1F31C
  8
0
 10
4942.4279419845788652
 20
322.7737032600326188
 30
0.0
 40
4.7774548837582884
 50
269.9208115291874037
 51
275.3901348609417141
  0
LINE
  5
1F31D
  8
0
 10
4942.463958919957804
 20
317.9363168242140887
 30
0.0
 11
4942.463958919957804
 21
317.9963841429218974
 31
0.0
  0
LINE
  5
1F31E
  8
0
 10
4942.5112025482076206
 20
317.9363168242140887
 30
0.0
 11
4942.5112031798580574
 21
317.99697396691721
 31
0.0
  0
ARC
  5
1F31F
  8
0
 10
4942.4875807340822575
 20
317.936316552992821
 30
0.0
 40
0.0236218141265567
 50
179.9993421404776086
 51
0.0006578595419423
  0
LINE
  5
1F320
  8
0
 10
4942.4575080727081513
 20
317.9505037479640919
 30
0.0
 11
4942.4575080727081513
 21
317.9963398645206212
 31
0.0
  0
LINE
  5
1F321
  8
0
 10
4942.4554802117072541
 20
317.9633840602140822
 30
0.0
 11
4942.4554802117072541
 21
317.9963277449205066
 31
0.0
  0
LINE
  5
1F322
  8
0
 10
4942.5131820507067459
 20
317.9515601162141252
 30
0.0
 11
4942.5131820507067459
 21
317.9970088698217978
 31
0.0
  0
ARC
  5
1F323
  8
0
 10
4942.4771931119576038
 20
317.9505037479640919
 30
0.0
 40
0.0196850392499841
 50
179.999999999980389
 51
227.7679459719385022
  0
ARC
  5
1F324
  8
0
 10
4942.4712586997984545
 20
317.9634172416413094
 30
0.0
 40
0.0157785229803925
 50
180.1204901838592889
 51
209.3692138551924984
  0
LINE
  5
1F325
  8
0
 10
4942.529963815458359
 20
317.9373458631540075
 30
0.0
 11
4942.529963815458359
 21
317.9973378309254031
 31
0.0
  0
LINE
  5
1F326
  8
0
 10
4942.5772074437081756
 20
317.9373458631540075
 30
0.0
 11
4942.5772080813749199
 21
317.9985807695939002
 31
0.0
  0
ARC
  5
1F327
  8
0
 10
4942.5535856295828125
 20
317.9373455919327967
 30
0.0
 40
0.0236218141265567
 50
179.9993421404776086
 51
0.0006578595419423
  0
LINE
  5
1F328
  8
0
 10
4942.5955042079567647
 20
317.9399104754375003
 30
0.0
 11
4942.5955042079567647
 21
317.9991877801496116
 31
0.0
  0
LINE
  5
1F329
  8
0
 10
4942.6427478362084003
 20
317.9399104754375003
 30
0.0
 11
4942.6427484731930235
 21
318.0010799416892269
 31
0.0
  0
ARC
  5
1F32A
  8
0
 10
4942.6191260220830372
 20
317.9399102042161758
 30
0.0
 40
0.0236218141265567
 50
179.9993421404776086
 51
0.0006578595419423
  0
LINE
  5
1F32B
  8
0
 10
4942.6603498839576787
 20
317.9432878458391087
 30
0.0
 11
4942.6603498839576787
 21
318.0019046751536962
 31
0.0
  0
LINE
  5
1F32C
  8
0
 10
4942.7075935122065857
 20
317.9432878458391087
 30
0.0
 11
4942.7075941490156765
 21
318.0044402317154777
 31
0.0
  0
ARC
  5
1F32D
  8
0
 10
4942.6839716980830417
 20
317.9432875746177842
 30
0.0
 40
0.0236218141265567
 50
179.9993421404776086
 51
0.0006578595419423
  0
LINE
  5
1F32E
  8
0
 10
4942.7244284404678183
 20
317.9467908758451813
 30
0.0
 11
4942.7244284404678183
 21
318.0054571518895727
 31
0.0
  0
LINE
  5
1F32F
  8
0
 10
4942.7716720687176348
 20
317.9467908758451813
 30
0.0
 11
4942.7716727126762635
 21
318.0086298762421961
 31
0.0
  0
ARC
  5
1F330
  8
0
 10
4942.7480502545931813
 20
317.9467906046239136
 30
0.0
 40
0.0236218141265567
 50
179.9993421404776086
 51
0.0006578595419423
  0
LINE
  5
1F331
  8
0
 10
4942.7874922904311461
 20
317.9514550565190234
 30
0.0
 11
4942.7874922904311461
 21
318.0097974314181215
 31
0.0
  0
LINE
  5
1F332
  8
0
 10
4942.8347359186818721
 20
317.9514550565190234
 30
0.0
 11
4942.8347365658137278
 21
318.0135989192618808
 31
0.0
  0
ARC
  5
1F333
  8
0
 10
4942.8111141045574186
 20
317.9514547852978126
 30
0.0
 40
0.0236218141265567
 50
179.9993421404776086
 51
0.0006578595419423
  0
LINE
  5
1F334
  8
0
 10
4942.8485969104021933
 20
317.957415842174214
 30
0.0
 11
4942.8485969104021933
 21
318.0148037444168949
 31
0.0
  0
LINE
  5
1F335
  8
0
 10
4942.8958405386520099
 20
317.957415842174214
 30
0.0
 11
4942.8958411823514325
 21
318.0192299831952027
 31
0.0
  0
ARC
  5
1F336
  8
0
 10
4942.8722187245266468
 20
317.9574155709528895
 30
0.0
 40
0.0236218141265567
 50
179.9993421404776086
 51
0.0006578595419423
  0
LINE
  5
1F337
  8
0
 10
4942.908515470691782
 20
317.9634893207248751
 30
0.0
 11
4942.908515470691782
 21
318.0205225620381952
 31
0.0
  0
LINE
  5
1F338
  8
0
 10
4942.9557590989434175
 20
317.9634893207248751
 30
0.0
 11
4942.9557597475750299
 21
318.0257772198538078
 31
0.0
  0
ARC
  5
1F339
  8
0
 10
4942.9321372848180545
 20
317.9634890495036075
 30
0.0
 40
0.0236218141265567
 50
179.9993421404776086
 51
0.0006578595419423
  0
LINE
  5
1F33A
  8
0
 10
4942.9671163924467692
 20
317.9705689176265082
 30
0.0
 11
4942.9671163924467692
 21
318.0271432047571238
 31
0.0
  0
LINE
  5
1F33B
  8
0
 10
4943.0143600206965857
 20
317.9705689176265082
 30
0.0
 11
4943.0143606734800414
 21
318.0332553610975879
 31
0.0
  0
ARC
  5
1F33C
  8
0
 10
4942.9907382065712227
 20
317.9705686464051837
 30
0.0
 40
0.0236218141265567
 50
179.9993421404776086
 51
0.0006578595419423
  0
LINE
  5
1F33D
  8
0
 10
4943.0228206137562665
 20
317.9783244066165935
 30
0.0
 11
4943.0228206137562665
 21
318.0344231687054162
 31
0.0
  0
LINE
  5
1F33E
  8
0
 10
4943.0700642420060831
 20
317.9783244066165935
 30
0.0
 11
4943.0700648983829524
 21
318.0413559699748021
 31
0.0
  0
ARC
  5
1F33F
  8
0
 10
4943.0464424278807201
 20
317.9783241353953258
 30
0.0
 40
0.0236218141265567
 50
179.9993421404776086
 51
0.0006578595419423
  0
LINE
  5
1F340
  8
0
 10
4943.0764413104579944
 20
317.9871019840903159
 30
0.0
 11
4943.0764413104579944
 21
318.0423452418506827
 31
0.0
  0
LINE
  5
1F341
  8
0
 10
4943.1236849387078109
 20
317.9871019840903159
 30
0.0
 11
4943.1236855944616764
 21
318.0500738303983894
 31
0.0
  0
ARC
  5
1F342
  8
0
 10
4943.1000631245842669
 20
317.9871017128689914
 30
0.0
 40
0.0236218141265567
 50
179.9993421404776086
 51
0.0006578595419423
  0
LINE
  5
1F343
  8
0
 10
4943.1281186175037874
 20
317.9967994624219045
 30
0.0
 11
4943.1281186175037874
 21
318.0508351925063266
 31
0.0
  0
LINE
  5
1F344
  8
0
 10
4943.1753622457526944
 20
317.9967994624219045
 30
0.0
 11
4943.1753629057511716
 21
318.0601787646958769
 31
0.0
  0
ARC
  5
1F345
  8
0
 10
4943.1517404316282409
 20
317.99679919120058
 30
0.0
 40
0.0236218141265567
 50
179.9993421404776086
 51
0.0006578595419423
  0
LINE
  5
1F346
  8
0
 10
4943.1765076093515745
 20
318.0073347095010945
 30
0.0
 11
4943.1765076093515745
 21
318.0604205999215992
 31
0.0
  0
LINE
  5
1F347
  8
0
 10
4943.223751237601391
 20
318.0073347095010945
 30
0.0
 11
4943.2237518957854263
 21
318.0705397646668189
 31
0.0
  0
ARC
  5
1F348
  8
0
 10
4943.2001294234769375
 20
318.0073344382798837
 30
0.0
 40
0.0236218141265567
 50
179.9993421404776086
 51
0.0006578595419423
  0
LINE
  5
1F349
  8
0
 10
4943.2700750888816401
 20
318.0177291435180109
 30
0.0
 11
4943.2700757448801596
 21
318.0807242850339094
 31
0.0
  0
ARC
  5
1F34A
  8
0
 10
4943.2464532747580961
 20
318.0177288722966864
 30
0.0
 40
0.0236218141265567
 50
196.041730221482311
 51
0.0006578595419423
  0
LINE
  5
1F34B
  8
0
 10
4943.3132143387047108
 20
318.0289975841579917
 30
0.0
 11
4943.3132149820712584
 21
318.0907797798997194
 31
0.0
  0
ARC
  5
1F34C
  8
0
 10
4943.2895925245802573
 20
318.028997312936724
 30
0.0
 40
0.0236218141265567
 50
213.9461321608829962
 51
0.0006578595419423
  0
LINE
  5
1F34D
  8
0
 10
4943.35349793421301
 20
318.0408487489370941
 30
0.0
 11
4943.3534985728647371
 21
318.1021783421131772
 31
0.0
  0
ARC
  5
1F34E
  8
0
 10
4943.329876120087647
 20
318.0408484777158264
 30
0.0
 40
0.0236218141265567
 50
223.6692222870007924
 51
0.0006578595419423
  0
LINE
  5
1F34F
  8
0
 10
4943.3905669819323521
 20
318.0534252017960171
 30
0.0
 11
4943.3905676193071486
 21
318.1146321009044868
 31
0.0
  0
ARC
  5
1F350
  8
0
 10
4943.3669451678060796
 20
318.0534249305746926
 30
0.0
 40
0.0236218141265567
 50
232.7890826345442008
 51
0.0006578595419423
  0
LINE
  5
1F351
  8
0
 10
4943.42428620307237
 20
318.0660187920396993
 30
0.0
 11
4943.4242868451183313
 21
318.1276743186681983
 31
0.0
  0
ARC
  5
1F352
  8
0
 10
4943.4006643889460975
 20
318.0660185208183748
 30
0.0
 40
0.0236218141265567
 50
240.8491694275217014
 51
0.0006578595419423
  0
LINE
  5
1F353
  8
0
 10
4943.4545870332540289
 20
318.0793077993179736
 30
0.0
 11
4943.4545876742076871
 21
318.1408583249266258
 31
0.0
  0
ARC
  5
1F354
  8
0
 10
4943.4309652191295754
 20
318.0793075280967059
 30
0.0
 40
0.0236218141265567
 50
249.2261032634062019
 51
0.0006578595419423
  0
LINE
  5
1F355
  8
0
 10
4943.4812818165200952
 20
318.0929711231582928
 30
0.0
 11
4943.4812824487280523
 21
318.1536817781496893
 31
0.0
  0
ARC
  5
1F356
  8
0
 10
4943.4576600023956416
 20
318.0929708519370251
 30
0.0
 40
0.0236218141265567
 50
257.7028780147505813
 51
0.0006578595419423
  0
LINE
  5
1F357
  8
0
 10
4943.5041048514485738
 20
318.1058798714996101
 30
0.0
 11
4943.504105479430109
 21
318.1661846860259857
 31
0.0
  0
ARC
  5
1F358
  8
0
 10
4943.4804830373241202
 20
318.1058796002782856
 30
0.0
 40
0.0236218141265567
 50
265.781107842893789
 51
0.0006578595419423
  0
LINE
  5
1F359
  8
0
 10
4943.523309930299547
 20
318.1212526362064068
 30
0.0
 11
4943.5233105321558469
 21
318.179048522278606
 31
0.0
  0
ARC
  5
1F35A
  8
0
 10
4943.4996881161760029
 20
318.1212523649850823
 30
0.0
 40
0.0236218141265567
 50
277.2961595157780721
 51
0.0006578595419423
  0
LINE
  5
1F35B
  8
0
 10
4943.5395343664849861
 20
318.1358840896438096
 30
0.0
 11
4943.53953495006499
 21
318.1919251519016143
 31
0.0
  0
ARC
  5
1F35C
  8
0
 10
4943.5159125523596231
 20
318.1358838184224851
 30
0.0
 40
0.0236218141265567
 50
284.4998051267307915
 51
0.0006578595419423
  0
LINE
  5
1F35D
  8
0
 10
4943.5510402322333903
 20
318.1505680163739953
 30
0.0
 11
4943.5510407717811177
 21
318.2023806011550278
 31
0.0
  0
ARC
  5
1F35E
  8
0
 10
4943.5274184181080273
 20
318.1505677451527276
 30
0.0
 40
0.0236218141265567
 50
298.6613405820523894
 51
0.0006578595419423
  0
LINE
  5
1F35F
  8
0
 10
4943.5587984130152108
 20
318.1651882217446996
 30
0.0
 11
4943.5587988842598861
 21
318.2104417326065118
 31
0.0
  0
ARC
  5
1F360
  8
0
 10
4943.5351765988889383
 20
318.1651879505233182
 30
0.0
 40
0.0236218141265567
 50
311.5395935839713957
 51
0.0006578595419423
  0
LINE
  5
1F361
  8
0
 10
4943.5625955845807766
 20
318.179644693464013
 30
0.0
 11
4943.5625959541730481
 21
318.2151363831264916
 31
0.0
  0
ARC
  5
1F362
  8
0
 10
4943.5389737704581421
 20
318.1796444222425748
 30
0.0
 40
0.0236218141265567
 50
327.0612372542976232
 51
0.0006578595419423
  0
ARC
  5
1F363
  8
0
 10
4942.5328670899580175
 20
317.9515601162141252
 30
0.0
 40
0.0196850392499981
 50
179.9999999999901945
 51
263.3120054892335133
  0
ARC
  5
1F364
  8
0
 10
4942.5881901762068082
 20
317.9533170444641996
 30
0.0
 40
0.0196850392500014
 50
236.0779410754884964
 51
293.2839580083794999
  0
ARC
  5
1F365
  8
0
 10
4942.6429883037080799
 20
317.9557690044641163
 30
0.0
 40
0.0196850392500102
 50
268.3956074856229748
 51
331.8807152899788093
  0
LINE
  5
1F366
  8
0
 10
4942.7167721320438432
 20
317.958630172104904
 30
0.0
 11
4942.7167745644901515
 21
318.0049874048858101
 31
0.0
  0
ARC
  5
1F367
  8
0
 10
4942.8535190407073969
 20
317.9723406247140929
 30
0.0
 40
0.0196850392500074
 50
197.4125752043279931
 51
256.6643554337983915
  0
ARC
  5
1F368
  8
0
 10
4942.9031580114578901
 20
317.9781092784641032
 30
0.0
 40
0.0196850392500052
 50
248.1778753275054896
 51
286.9404110249097926
  0
ARC
  5
1F369
  8
0
 10
4942.9512810179576263
 20
317.9844949587140945
 30
0.0
 40
0.0196850392499823
 50
283.1491945974008217
 51
323.5559210902251834
  0
LINE
  5
1F36A
  8
0
 10
4943.01790440845798
 20
317.990390511214116
 30
0.0
 11
4943.01790440845798
 21
318.0337418211626073
 31
0.0
  0
LINE
  5
1F36B
  8
0
 10
4943.0174216869572774
 20
317.9914775734641239
 30
0.0
 11
4943.0174216869572774
 21
318.033675326099285
 31
0.0
  0
ARC
  5
1F36C
  8
0
 10
4943.0415264557077535
 20
317.990390511214116
 30
0.0
 40
0.0236220472500204
 50
180.0000000000227942
 51
218.1765662290953003
  0
ARC
  5
1F36D
  8
0
 10
4942.9977366477078249
 20
317.9914775734641239
 30
0.0
 40
0.019685039249995
 50
327.6154985672893076
 51
0.0
  0
ARC
  5
1F36E
  8
0
 10
4943.0968653393429122
 20
318.0015311465627974
 30
0.0
 40
0.027156910411164
 50
189.2876017549533003
 51
222.2138575885358875
  0
ARC
  5
1F36F
  8
0
 10
4943.145373984402795
 20
318.01093747094842
 30
0.0
 40
0.0259399424410247
 50
213.2671939731746988
 51
230.4541855220988111
  0
ARC
  5
1F370
  8
0
 10
4943.1904917074580226
 20
318.0199334012149279
 30
0.0
 40
0.0236220472509353
 50
230.1725023159864065
 51
237.034028244019396
  0
LINE
  5
1F371
  8
0
 10
4942.7828352494580031
 20
317.9672071477141913
 30
0.0
 11
4942.7828352494580031
 21
318.0094482356988124
 31
0.0
  0
LINE
  5
1F372
  8
0
 10
4942.7776028727066659
 20
317.9783052157141015
 30
0.0
 11
4942.7776028727066659
 21
318.0090613606178067
 31
0.0
  0
ARC
  5
1F373
  8
0
 10
4942.7618080521169759
 20
317.9783351350458815
 30
0.0
 40
0.0157948489283501
 50
308.647047018811179
 51
359.8914676251768014
  0
ARC
  5
1F374
  8
0
 10
4942.8025207047548975
 20
317.9672072205717086
 30
0.0
 40
0.0196854552975372
 50
180.000212056716606
 51
220.2327186132683892
  0
ARC
  5
1F375
  8
0
 10
4942.6970928178507165
 20
317.9589053975051911
 30
0.0
 40
0.0196803528177567
 50
302.1674213394554727
 51
0.0083968515201309
  0
ARC
  5
1F376
  8
0
 10
4941.7127325450292119
 20
315.9414812641097114
 30
0.0
 40
5.2448976855461646
 50
69.323995541601704
 51
71.2487717065883288
  0
ENDSEC
  0
EOF
