  0
SECTION
  2
HEADER
  9
$ACADVER
  1
AC1009
  9
$INSBASE
 10
4935.4225810900479701
 20
318.8081368295008815
 30
0.0
  9
$EXTMIN
 10
4932.577334935746876
 20
318.4177379040464757
 30
-0.0000000000112498
  9
$EXTMAX
 10
4944.2341793098803464
 20
329.0537891019803283
 30
0.0000000000002956
  9
$LIMMIN
 10
0.0
 20
0.0
  9
$LIMMAX
 10
11.6929133858000007
 20
8.2677165353999982
  9
$ORTHOMODE
 70
     0
  9
$REGENMODE
 70
     1
  9
$FILLMODE
 70
     1
  9
$QTEXTMODE
 70
     0
  9
$MIRRTEXT
 70
     0
  9
$DRAGMODE
 70
     2
  9
$LTSCALE
 40
0.6431102362
  9
$OSMODE
 70
  4095
  9
$ATTMODE
 70
     1
  9
$TEXTSIZE
 40
0.2
  9
$TRACEWID
 40
0.05
  9
$TEXTSTYLE
  7
STANDARD
  9
$CLAYER
  8
0
  9
$CELTYPE
  6
BYLAYER
  9
$CECOLOR
 62
   256
  9
$DIMSCALE
 40
1.0
  9
$DIMASZ
 40
0.1875
  9
$DIMEXO
 40
0.0625
  9
$DIMDLI
 40
0.4443307087
  9
$DIMRND
 40
0.0
  9
$DIMDLE
 40
0.0
  9
$DIMEXE
 40
0.125
  9
$DIMTP
 40
0.01
  9
$DIMTM
 40
0.01
  9
$DIMTXT
 40
2.0
  9
$DIMCEN
 40
0.1052362205
  9
$DIMTSZ
 40
0.0
  9
$DIMTOL
 70
     1
  9
$DIMLIM
 70
     0
  9
$DIMTIH
 70
     1
  9
$DIMTOH
 70
     1
  9
$DIMSE1
 70
     0
  9
$DIMSE2
 70
     0
  9
$DIMTAD
 70
     0
  9
$DIMZIN
 70
     0
  9
$DIMBLK
  1

  9
$DIMASO
 70
     1
  9
$DIMSHO
 70
     1
  9
$DIMPOST
  1
\X
  9
$DIMAPOST
  1

  9
$DIMALT
 70
     1
  9
$DIMALTD
 70
     2
  9
$DIMALTF
 40
25.3999999999999986
  9
$DIMLFAC
 40
1.0
  9
$DIMTOFL
 70
     0
  9
$DIMTVP
 40
0.0
  9
$DIMTIX
 70
     0
  9
$DIMSOXD
 70
     0
  9
$DIMSAH
 70
     0
  9
$DIMBLK1
  1

  9
$DIMBLK2
  1

  9
$DIMSTYLE
  2
STANDARD
  9
$DIMCLRD
 70
     0
  9
$DIMCLRE
 70
     0
  9
$DIMCLRT
 70
     0
  9
$DIMTFAC
 40
1.0
  9
$DIMGAP
 40
0.09
  9
$LUNITS
 70
     2
  9
$LUPREC
 70
     4
  9
$SKETCHINC
 40
0.1
  9
$FILLETRAD
 40
0.0
  9
$AUNITS
 70
     0
  9
$AUPREC
 70
     0
  9
$MENU
  1
.
  9
$ELEVATION
 40
0.0
  9
$PELEVATION
 40
0.0
  9
$THICKNESS
 40
0.0
  9
$LIMCHECK
 70
     0
  9
$BLIPMODE
 70
     0
  9
$CHAMFERA
 40
0.0
  9
$CHAMFERB
 40
0.0
  9
$SKPOLY
 70
     0
  9
$TDCREATE
 40
2458060.468368056230247
  9
$TDUPDATE
 40
2460326.7016435191035271
  9
$TDINDWG
 40
0.6114075231
  9
$TDUSRTIMER
 40
0.6114075231
  9
$USRTIMER
 70
     1
  9
$ANGBASE
 50
0.0
  9
$ANGDIR
 70
     0
  9
$PDMODE
 70
     0
  9
$PDSIZE
 40
0.3125
  9
$PLINEWID
 40
0.0
  9
$COORDS
 70
     1
  9
$SPLFRAME
 70
     0
  9
$SPLINETYPE
 70
     6
  9
$SPLINESEGS
 70
     8
  9
$ATTDIA
 70
     1
  9
$ATTREQ
 70
     1
  9
$HANDLING
 70
     1
  9
$HANDSEED
  5
1F6A5
  9
$SURFTAB1
 70
     6
  9
$SURFTAB2
 70
     6
  9
$SURFTYPE
 70
     6
  9
$SURFU
 70
     6
  9
$SURFV
 70
     6
  9
$UCSNAME
  2

  9
$UCSORG
 10
0.0
 20
0.0
 30
0.0
  9
$UCSXDIR
 10
1.0
 20
0.0
 30
0.0
  9
$UCSYDIR
 10
0.0
 20
1.0
 30
0.0
  9
$PUCSNAME
  2

  9
$PUCSORG
 10
0.0
 20
0.0
 30
0.0
  9
$PUCSXDIR
 10
1.0
 20
0.0
 30
0.0
  9
$PUCSYDIR
 10
0.0
 20
1.0
 30
0.0
  9
$USERI1
 70
     0
  9
$USERI2
 70
     0
  9
$USERI3
 70
     0
  9
$USERI4
 70
     0
  9
$USERI5
 70
     0
  9
$USERR1
 40
0.0
  9
$USERR2
 40
0.0
  9
$USERR3
 40
0.0
  9
$USERR4
 40
0.0
  9
$USERR5
 40
0.0
  9
$WORLDVIEW
 70
     1
  9
$SHADEDGE
 70
     3
  9
$SHADEDIF
 70
    70
  9
$TILEMODE
 70
     1
  9
$MAXACTVP
 70
    64
  9
$PLIMCHECK
 70
     0
  9
$PEXTMIN
 10
1.0000000000000000E+20
 20
1.0000000000000000E+20
 30
1.0000000000000000E+20
  9
$PEXTMAX
 10
-1.0000000000000000E+20
 20
-1.0000000000000000E+20
 30
-1.0000000000000000E+20
  9
$PLIMMIN
 10
0.0
 20
0.0
  9
$PLIMMAX
 10
12.0
 20
9.0
  9
$UNITMODE
 70
     0
  9
$VISRETAIN
 70
     1
  9
$PLINEGEN
 70
     0
  9
$PSLTSCALE
 70
     1
  0
ENDSEC
  0
SECTION
  2
TABLES
  0
TABLE
  2
VPORT
 70
     1
  0
VPORT
  2
*ACTIVE
 70
     0
 10
0.0
 20
0.0
 11
1.0
 21
1.0
 12
1134.8616897400011112
 22
197.7405013062634112
 13
0.0
 23
0.0
 14
1.0
 24
1.0
 15
0.0
 25
0.0
 16
0.0
 26
0.0
 36
17.1152628219792007
 17
3803.5440673828129547
 27
125.9952621967499056
 37
0.0
 40
10.7075638262678403
 41
2.1211111111111101
 42
50.0
 43
0.0
 44
0.0
 50
0.0
 51
0.0
 71
     0
 72
   100
 73
     1
 74
     1
 75
     0
 76
     0
 77
     0
 78
     0
  0
ENDTAB
  0
TABLE
  2
LTYPE
 70
     2
  0
LTYPE
  2
CONTINUOUS
 70
     0
  3
Solid line
 72
    65
 73
     0
 40
0.0
  0
LTYPE
  2
PHANTOM2
 70
     0
  3
___ _ _ ___ _ _ ___ _ _ ___ _ _
 72
    65
 73
     6
 40
1.25
 49
0.625
 49
-0.125
 49
0.125
 49
-0.125
 49
0.125
 49
-0.125
  0
ENDTAB
  0
TABLE
  2
LAYER
 70
     2
  0
LAYER
  2
0
 70
     0
 62
   255
  6
CONTINUOUS
  0
LAYER
  2
DEFPOINTS
 70
     0
 62
     7
  6
CONTINUOUS
  0
ENDTAB
  0
TABLE
  2
STYLE
 70
     1
  0
STYLE
  2
STANDARD
 70
     0
 40
0.0
 41
0.8
 50
0.0
 71
     0
 42
0.2
  3
txt
  4

  0
ENDTAB
  0
TABLE
  2
VIEW
 70
     0
  0
ENDTAB
  0
TABLE
  2
UCS
 70
     0
  0
ENDTAB
  0
TABLE
  2
APPID
 70
    10
  0
APPID
  2
ACAD
 70
     0
  0
APPID
  2
ACAD_MLEADERVER
 70
     0
  0
APPID
  2
ACAD_EXEMPT_FROM_CAD_STANDARDS
 70
     0
  0
APPID
  2
ACAD_NAV_VCDISPLAY
 70
     0
  0
APPID
  2
ACAECLAYERSTANDARD
 70
     0
  0
APPID
  2
ACCMTRANSPARENCY
 70
     0
  0
APPID
  2
ACAD_DSTYLE_DIMJAG
 70
     0
  0
APPID
  2
ACAD_DSTYLE_DIMTALN
 70
     0
  0
APPID
  2
ACDBATTR
 70
     0
  0
APPID
  2
ACADANNOTATIVE
 70
     0
  0
ENDTAB
  0
TABLE
  2
DIMSTYLE
 70
     1
  0
DIMSTYLE
  2
STANDARD
 70
     0
  3

  4

  5

  6

  7

 40
1.0
 41
0.1875
 42
0.0625
 43
0.38
 44
0.125
 45
0.0
 46
0.0
 47
0.01
 48
0.01
140
0.15625
141
0.09
142
0.0
143
25.3999999999999986
144
1.0
145
0.0
146
1.0
147
0.09
 71
     1
 72
     0
 73
     1
 74
     1
 75
     0
 76
     0
 77
     0
 78
     4
170
     0
171
     2
172
     0
173
     0
174
     0
175
     0
176
     0
177
     0
178
     0
  0
ENDTAB
  0
ENDSEC
  0
SECTION
  2
BLOCKS
  0
BLOCK
  8
0
  2
$MODEL_SPACE
 70
     0
 10
0.0
 20
0.0
 30
0.0
  3
$MODEL_SPACE
  1

  0
ENDBLK
  5
21
  8
0
  0
BLOCK
 67
     1
  8
0
  2
$PAPER_SPACE
 70
     0
 10
0.0
 20
0.0
 30
0.0
  3
$PAPER_SPACE
  1

  0
ENDBLK
  5
1D
 67
     1
  8
0
  0
BLOCK
  8
0
  2
_FILLED
 70
     0
 10
0.0
 20
0.0
 30
0.0
  3
_FILLED
  1

  0
SOLID
  5
1E8C7
  8
0
  6
BYBLOCK
 62
     0
 10
0.0
 20
0.0
 30
0.0
 11
-1.0
 21
0.1666666667
 31
0.0
 12
-1.0
 22
-0.1666666667
 32
0.0
 13
-1.0
 23
-0.1666666667
 33
0.0
  0
ENDBLK
  5
1E8C8
  8
0
  6
BYBLOCK
 62
     0
  0
ENDSEC
  0
SECTION
  2
ENTITIES
  0
ATTDEF
  5
3930
  8
DEFPOINTS
 10
4935.4181374380959824
 20
318.812417547146822
 30
0.0
 40
0.001
  1
K-28682T
  3

  2
MODELNUMBER
 70
     0
1001
ACDBATTR
1070
     0
1070
     1
  0
ATTDEF
  5
3931
  8
DEFPOINTS
 10
4935.4181374380959824
 20
318.8107508804801
 30
0.0
 40
0.001
  1
SPAVIVA
  3

  2
TRADENAME
 70
     0
1001
ACDBATTR
1070
     0
1070
     1
  0
ATTDEF
  5
3932
  8
DEFPOINTS
 10
4935.4181374380959824
 20
318.8090842138134917
 30
0.0
 40
0.001
  1
GROOMING HANDSHOWER KIT
  3

  2
PRODUCT
 70
     0
1001
ACDBATTR
1070
     0
1070
     1
  0
LINE
  5
1EF78
  8
0
 10
4937.0439601160323946
 20
327.6130097215512933
 30
0.0
 11
4937.0439601160323946
 21
325.5511426299083837
 31
0.0
  0
LINE
  5
1EF79
  8
0
 10
4936.5912059932315969
 20
327.703664504952485
 30
0.0
 11
4936.5912059932315969
 21
325.4604881293524841
 31
0.0
  0
LINE
  5
1EF7A
  8
0
 10
4936.4990338391307887
 20
327.6051170861522905
 30
0.0
 11
4936.4990338391307887
 21
325.5590355481526217
 31
0.0
  0
ARC
  5
1EF7B
  8
0
 10
4947.606463991187411
 20
326.5820763171524845
 30
0.0
 40
11.1544438228815892
 50
174.7376660214094954
 51
185.2623339785903909
  0
ARC
  5
1EF7C
  8
0
 10
4936.5772076467410443
 20
327.5958760788952873
 30
0.0
 40
0.078718107265209
 50
90.0050685090185141
 51
173.2582925686550084
  0
ARC
  5
1EF7D
  8
0
 10
4936.6306043536269499
 20
327.7036661445573031
 30
0.0
 40
0.0393983604293056
 50
89.9976155749778144
 51
180.0023844250059142
  0
LINE
  5
1EF7E
  8
0
 10
4936.5772006831666658
 20
327.6745941858525271
 30
0.0
 11
4936.5912059903348563
 21
327.6745941858525271
 31
0.0
  0
ARC
  5
1EF7F
  8
0
 10
4936.6093631706698943
 20
326.4120567990178756
 30
0.0
 40
1.33117721238292
 50
73.3167573687110234
 51
89.0856395901590048
  0
ARC
  5
1EF80
  8
0
 10
4936.9652601160323684
 20
327.6130097215512933
 30
0.0
 40
0.0787
 50
0.0
 51
70.5098050432630146
  0
ARC
  5
1EF81
  8
0
 10
4936.5772076467410443
 20
325.5682765554096818
 30
0.0
 40
0.078718107265209
 50
186.7417074313449916
 51
269.9949314909293889
  0
ARC
  5
1EF82
  8
0
 10
4936.6306058951304294
 20
325.4604880312512023
 30
0.0
 40
0.0393999018988285
 50
179.9998573399975044
 51
270.0001426600318268
  0
LINE
  5
1EF83
  8
0
 10
4936.5772006831666658
 20
325.4895584484524989
 30
0.0
 11
4936.5912059903348563
 21
325.4895584484524989
 31
0.0
  0
ARC
  5
1EF84
  8
0
 10
4936.6185028304189473
 20
326.6930490555678261
 30
0.0
 40
1.2720185078718429
 50
270.5451733663053915
 51
287.0524296748233155
  0
ARC
  5
1EF85
  8
0
 10
4936.9652605161745669
 20
325.5511426299083837
 30
0.0
 40
0.0786995998563727
 50
289.4899890365016972
 51
0.0002059202250229
  0
LINE
  5
1EF86
  8
0
 10
4943.7409176354276497
 20
327.4836486718310766
 30
0.0
 11
4943.7409176354276497
 21
325.2827012191028189
 31
0.0
  0
LINE
  5
1EF87
  8
0
 10
4943.850571903072705
 20
327.5962101335348962
 30
0.0
 11
4944.1228184228293685
 21
327.603334822302827
 31
0.0
  0
LINE
  5
1EF88
  8
0
 10
4944.1346184228286802
 20
327.5915348223027763
 30
0.0
 11
4944.1346184228286802
 21
325.1748166023566
 31
0.0
  0
ARC
  5
1EF89
  8
0
 10
4944.1228184233741558
 20
327.5915348228489279
 30
0.0
 40
0.0117999994538778
 50
359.9999973482744053
 51
90.0000026517321459
  0
ARC
  5
1EF8A
  8
0
 10
4943.8535176354280338
 20
327.4836486718310766
 30
0.0
 40
0.1126
 50
91.4990878278003805
 51
180.0
  0
LINE
  5
1EF8B
  8
0
 10
4943.7314577929282677
 20
327.0434093429028053
 30
0.0
 11
4943.7409176354276497
 21
327.0434093429028053
 31
0.0
  0
ARC
  5
1EF8C
  8
0
 10
4943.7314577929282677
 20
327.0316093429028115
 30
0.0
 40
0.0118
 50
90.0
 51
180.0
  0
LINE
  5
1EF8D
  8
0
 10
4943.7314577929282677
 20
327.0079762720027929
 30
0.0
 11
4943.7409176354276497
 21
327.0079762720027929
 31
0.0
  0
LINE
  5
1EF8E
  8
0
 10
4943.719657792928956
 20
327.0316093429028115
 30
0.0
 11
4943.719657792928956
 21
327.0197762720027868
 31
0.0
  0
ARC
  5
1EF8F
  8
0
 10
4943.7314577929282677
 20
327.0197762720027868
 30
0.0
 40
0.0118
 50
180.0
 51
270.0
  0
LINE
  5
1EF90
  8
0
 10
4943.7314577928291328
 20
326.9048470383527842
 30
0.0
 11
4943.7409176353276052
 21
326.9048470383527842
 31
0.0
  0
ARC
  5
1EF91
  8
0
 10
4943.7314577928291328
 20
326.8930470383527904
 30
0.0
 40
0.0118
 50
90.0
 51
180.0
  0
LINE
  5
1EF92
  8
0
 10
4943.7314577928291328
 20
326.8694139674527719
 30
0.0
 11
4943.7409176353276052
 21
326.8694139674527719
 31
0.0
  0
LINE
  5
1EF93
  8
0
 10
4943.7196577928280021
 20
326.8930470383527904
 30
0.0
 11
4943.7196577928280021
 21
326.8812139674527089
 31
0.0
  0
ARC
  5
1EF94
  8
0
 10
4943.7314577928291328
 20
326.8812139674527089
 30
0.0
 40
0.0118
 50
180.0
 51
270.0
  0
LINE
  5
1EF95
  8
0
 10
4943.850571903072705
 20
325.1701412916706886
 30
0.0
 11
4944.1228184228293685
 21
325.1630166029027009
 31
0.0
  0
ARC
  5
1EF96
  8
0
 10
4944.1228184233741558
 20
325.1748166023566
 30
0.0
 40
0.0117999994538778
 50
269.9999973482679252
 51
0.0000026517256357
  0
ARC
  5
1EF97
  8
0
 10
4943.8535176354280338
 20
325.2827027533743944
 30
0.0
 40
0.1126
 50
180.0
 51
268.5009121721996053
  0
LINE
  5
1EF98
  8
0
 10
4933.2356807294454484
 20
327.646323356014193
 30
0.0
 11
4933.8162154443416512
 21
325.1317512440824089
 31
0.0
  0
LINE
  5
1EF99
  8
0
 10
4933.241534034864344
 20
327.6557821917824072
 30
0.0
 11
4933.2429121477152876
 21
327.6561130473518801
 31
0.0
  0
ARC
  5
1EF9A
  8
0
 10
4986.6859782963738326
 20
339.5855657623487218
 30
0.0
 40
54.758315911367923
 50
192.5801206461599975
 51
193.4741696139853104
  0
ARC
  5
1EF9B
  8
0
 10
4928.4389026600792931
 20
328.8470938392812855
 30
0.0
 40
4.9481414309567109
 50
346.1064394721552162
 51
353.1191075467467044
  0
ARC
  5
1EF9C
  8
0
 10
4928.2631708871340379
 20
328.8121064280907717
 30
0.0
 40
5.118719808860094
 50
353.7435884048409775
 51
0.8015491846175136
  0
ARC
  5
1EF9D
  8
0
 10
4933.3931999585165613
 20
328.883857019888012
 30
0.0
 40
0.0118110234472106
 50
131.5554274905396994
 51
180.6971818292271053
  0
ARC
  5
1EF9E
  8
0
 10
4933.5229465301990786
 20
326.4395529679849801
 30
0.0
 40
0.0492725725064919
 50
283.9657271994444159
 51
291.6778842996532717
  0
ARC
  5
1EF9F
  8
0
 10
4933.5347333776908272
 20
326.4099006171221049
 30
0.0
 40
0.0173634564814713
 50
291.6778842996532717
 51
307.7995472199820028
  0
ARC
  5
1EFA0
  8
0
 10
4929.3057140902183164
 20
334.2167214430049853
 30
0.0
 40
8.8958184460292582
 50
298.4629491615946222
 51
298.8862402916251995
  0
ARC
  5
1EFA1
  8
0
 10
4933.3050051747186444
 20
327.0245571934032114
 30
0.0
 40
0.6671147746431576
 50
296.5350991576315209
 51
319.214366638507272
  0
ARC
  5
1EFA2
  8
0
 10
4933.567487024744878
 20
326.7512050193755044
 30
0.0
 40
0.2919796105144198
 50
326.1998235628971088
 51
350.1403337782779204
  0
ARC
  5
1EFA3
  8
0
 10
4933.7807345111768882
 20
326.71414204579429
 30
0.0
 40
0.0755352655193244
 50
350.1403337782779204
 51
79.6630534877389636
  0
ARC
  5
1EFA4
  8
0
 10
4933.7976433587264182
 20
326.518717747058588
 30
0.0
 40
0.2697544567105617
 50
90.7126311070646949
 51
110.7176483437363999
  0
ARC
  5
1EFA5
  8
0
 10
4934.7364931427109696
 20
324.0124059691265757
 30
0.0
 40
2.9461384030038729
 50
110.5523204328574991
 51
115.4529603303021048
  0
ARC
  5
1EFA6
  8
0
 10
4933.426196395592342
 20
326.7293024636248902
 30
0.0
 40
0.0702730559022083
 50
308.4960357690661112
 51
325.2663953766127065
  0
ARC
  5
1EFA7
  8
0
 10
4932.5611883182236852
 20
327.5469737665932826
 30
0.0
 40
1.259821922588598
 50
317.0923557671949879
 51
331.2682167999146827
  0
ARC
  5
1EFA8
  8
0
 10
4933.1101660599797469
 20
327.2428105972916796
 30
0.0
 40
0.6322265119080722
 50
331.5233645930276793
 51
354.8186677064758783
  0
ARC
  5
1EFA9
  8
0
 10
4933.6075538273062193
 20
327.2008310261766155
 30
0.0
 40
0.1331163747008457
 50
353.4798969438941185
 51
23.3694780093970316
  0
ARC
  5
1EFAA
  8
0
 10
4933.7127689614126211
 20
327.2420825797581188
 30
0.0
 40
0.020537007031545
 50
34.222724528450378
 51
141.2147248732964044
  0
ARC
  5
1EFAB
  8
0
 10
4917.7016450444189104
 20
341.6550666677721892
 30
0.0
 40
21.5222480301825208
 50
316.8663949329555862
 51
318.0038517111939882
  0
ARC
  5
1EFAC
  8
0
 10
4932.0125397451429308
 20
327.7762864315770912
 30
0.0
 40
1.625830827023824
 50
329.0942945784852895
 51
355.5908505539613884
  0
ARC
  5
1EFAD
  8
0
 10
4933.4989726618377972
 20
327.6616728782854011
 30
0.0
 40
0.1349857370049218
 50
355.5908505539613884
 51
21.7825009783729016
  0
ARC
  5
1EFAE
  8
0
 10
4933.6193267425496742
 20
327.705062969585299
 30
0.0
 40
0.0083569711790947
 50
53.3065734463341414
 51
163.483092040168998
  0
ARC
  5
1EFAF
  8
0
 10
4930.1018456546644302
 20
329.1057877423962736
 30
0.0
 40
3.7777972452846931
 50
329.3407989004638239
 51
338.2751764307819258
  0
ARC
  5
1EFB0
  8
0
 10
4931.8123341599712148
 20
327.9628965745149003
 30
0.0
 40
1.7262925185793789
 50
333.0572376755234814
 51
4.8537705293804621
  0
ARC
  5
1EFB1
  8
0
 10
4929.4604188918556247
 20
328.9773008041464095
 30
0.0
 40
4.163572182832171
 50
337.4381674284098835
 51
347.9622634394075931
  0
ARC
  5
1EFB2
  8
0
 10
4930.5095314558320752
 20
328.3320773971735775
 30
0.0
 40
2.9526793059199159
 50
341.2176860423966787
 51
1.8026986168517469
  0
ARC
  5
1EFB3
  8
0
 10
4928.9365146229802122
 20
328.9198615599611912
 30
0.0
 40
4.5512224500073639
 50
342.2404977248313003
 51
353.7573212478989717
  0
ARC
  5
1EFB4
  8
0
 10
4929.6621675507012696
 20
328.5530061248990137
 30
0.0
 40
3.749607798295818
 50
344.2201813990066057
 51
1.136379821358896
  0
ARC
  5
1EFB5
  8
0
 10
4928.2121109977715605
 20
328.9529404685388272
 30
0.0
 40
5.2091109877873221
 50
345.2483101547725255
 51
356.4166598321107244
  0
ARC
  5
1EFB6
  8
0
 10
4590.505091880965665
 20
247.7538594092818869
 30
0.0
 40
351.9280075894017727
 50
12.9115733750640604
 51
12.9843043728569594
  0
ARC
  5
1EFB7
  8
0
 10
4933.2433782529569726
 20
327.6481004693433761
 30
0.0
 40
0.0079
 50
103.4999978917344947
 51
192.999999999140698
  0
ARC
  5
1EFB8
  8
0
 10
4931.3075426834056998
 20
318.6071091622391123
 30
0.0
 40
3.609146141417642
 50
3.487217329843217
 51
7.8481676621490601
  0
ARC
  5
1EFB9
  8
0
 10
4938.5717346925639504
 20
319.6084018922198879
 30
0.0
 40
3.7237300117039891
 50
182.6219378058233929
 51
187.8481676621489953
  0
LINE
  5
1EFBA
  8
0
 10
4934.9296696296878508
 20
318.8081368295008815
 30
0.0
 11
4935.9154925504062703
 21
318.8081368295008815
 31
0.0
  0
LINE
  5
1EFBB
  8
0
 10
4934.9680344709304336
 20
318.8041997164027066
 30
0.0
 11
4935.877127709164597
 21
318.8041997164027066
 31
0.0
  0
ARC
  5
1EFBC
  8
0
 10
4934.9680344709304336
 20
318.8120737325097025
 30
0.0
 40
0.0078740161069009
 50
209.9991173910094062
 51
269.9999979462846227
  0
LINE
  5
1EFBD
  8
0
 10
4934.8519029507751839
 20
319.4380580844563724
 30
0.0
 11
4934.8519029507751839
 21
322.3671534790918827
 31
0.0
  0
LINE
  5
1EFBE
  8
0
 10
4934.8519029507751839
 20
322.9664888386832899
 30
0.0
 11
4934.8519029507751839
 21
323.2097226561072034
 31
0.0
  0
LINE
  5
1EFBF
  8
0
 10
4933.3813518118931825
 20
328.9100784947697207
 30
0.0
 11
4934.5012785068502126
 21
324.0593403180474184
 31
0.0
  0
ARC
  5
1EFC0
  8
0
 10
4933.4891577397393121
 20
328.9098947344457997
 30
0.0
 40
0.1078060844596017
 50
151.1253524977890095
 51
179.9023367173018926
  0
ARC
  5
1EFC1
  8
0
 10
4933.4543798985259855
 20
328.9290730609840239
 30
0.0
 40
0.068090766908316
 50
101.9923907969338046
 51
151.1253524977890095
  0
ARC
  5
1EFC2
  8
0
 10
4934.352522319111813
 20
324.7008841295329944
 30
0.0
 40
4.3906179730342236
 50
100.0169079348763006
 51
101.9923907969338046
  0
ARC
  5
1EFC3
  8
0
 10
4933.8656317791446781
 20
327.4574206030374057
 30
0.0
 40
1.591411705595384
 50
94.812987352300226
 51
100.0169079348763006
  0
ARC
  5
1EFC4
  8
0
 10
4933.8616053393843686
 20
327.5052402000604275
 30
0.0
 40
1.543422893601319
 50
85.5325114541870022
 51
94.812987352300226
  0
ARC
  5
1EFC5
  8
0
 10
4933.9150971744656999
 20
328.1898849864937233
 30
0.0
 40
0.8566916069901287
 50
64.0947213539563307
 51
85.5325114541870022
  0
ARC
  5
1EFC6
  8
0
 10
4933.7302763182433409
 20
327.8093506834346158
 30
0.0
 40
1.279734281787543
 50
41.9751381040385567
 51
64.0947213539563307
  0
ARC
  5
1EFC7
  8
0
 10
4932.9752041003530394
 20
327.1300736441360755
 30
0.0
 40
2.2953874461827128
 50
32.6565363237862769
 51
41.9751381040385567
  0
LINE
  5
1EFC8
  8
0
 10
4934.9077375198367008
 20
328.3686688607725159
 30
0.0
 11
4935.4449536521087794
 21
326.042192366696213
 31
0.0
  0
ARC
  5
1EFC9
  8
0
 10
4934.9115954321196114
 20
328.3478043985131762
 30
0.0
 40
0.0078744433897267
 50
32.0538662258112979
 51
96.1804653426979712
  0
ARC
  5
1EFCA
  8
0
 10
4932.6493447608991119
 20
326.9312342601704131
 30
0.0
 40
2.6770408031898478
 50
29.5601232754916587
 51
32.0538662258112979
  0
ARC
  5
1EFCB
  8
0
 10
4932.1664230063297509
 20
326.6573409150728935
 30
0.0
 40
3.2322263447201149
 50
22.654894123520279
 51
29.5601232754916587
  0
LINE
  5
1EFCC
  8
0
 10
4935.1492559590587916
 20
327.9023287542187859
 30
0.0
 11
4935.4917682727373176
 21
326.418823596865991
 31
0.0
  0
LINE
  5
1EFCD
  8
0
 10
4934.8638781346480755
 20
323.2293966719076934
 30
0.0
 11
4935.9818148090362229
 21
323.2293966719076934
 31
0.0
  0
LINE
  5
1EFCE
  8
0
 10
4934.8637029507735861
 20
323.2215226561071972
 30
0.0
 11
4935.9818148090362229
 21
323.2215226561071972
 31
0.0
  0
LINE
  5
1EFCF
  8
0
 10
4935.9617733934646822
 20
323.22383651258599
 30
0.0
 11
4935.9562132342425684
 21
323.2293966719076934
 31
0.0
  0
ARC
  5
1EFD0
  8
0
 10
4935.9673595370868497
 20
323.2294226561072037
 30
0.0
 40
0.0079
 50
224.9999994854547936
 51
270.0000000000521254
  0
LINE
  5
1EFD1
  8
0
 10
4935.9936148090364441
 20
323.2097226561072034
 30
0.0
 11
4935.9936148090364441
 21
319.446008872128175
 31
0.0
  0
ARC
  5
1EFD2
  8
0
 10
4935.9818148090362229
 20
323.2097226561072034
 30
0.0
 40
0.0118
 50
0.0000000000325689
 51
90.0
  0
ARC
  5
1EFD3
  8
0
 10
4934.8637029507735861
 20
323.2097226561072034
 30
0.0
 40
0.0118
 50
90.0000000000521254
 51
179.9999999999674003
  0
LINE
  5
1EFD4
  8
0
 10
4935.9936148090364441
 20
323.2411966719078009
 30
0.0
 11
4935.9936148090364441
 21
323.4661443372868916
 31
0.0
  0
LINE
  5
1EFD5
  8
0
 10
4934.8520781346478543
 20
323.2411966719078009
 30
0.0
 11
4934.8520781346478543
 21
323.3077346404090235
 31
0.0
  0
ARC
  5
1EFD6
  8
0
 10
4934.8638781346480755
 20
323.2411966719078009
 30
0.0
 40
0.0118
 50
180.0000000000260059
 51
270.0
  0
ARC
  5
1EFD7
  8
0
 10
4935.9818148090362229
 20
323.2411966719078009
 30
0.0
 40
0.0118
 50
270.0
 51
359.9999999999935199
  0
LINE
  5
1EFD8
  8
0
 10
4934.8833887866303485
 20
323.22383651258599
 30
0.0
 11
4934.8889489458506432
 21
323.2293966719076934
 31
0.0
  0
ARC
  5
1EFD9
  8
0
 10
4934.8778026430081809
 20
323.2294226561072037
 30
0.0
 40
0.0079
 50
269.9999999999478746
 51
315.0000005145450928
  0
ARC
  5
1EFDA
  8
0
 10
4924.106164720939887
 20
323.148662312888689
 30
0.0
 40
11.8916888805913707
 50
1.529853486789218
 51
10.20944138797738
  0
ARC
  5
1EFDB
  8
0
 10
4935.7978697662729246
 20
325.2775587991250177
 30
0.0
 40
0.0078098456338939
 50
278.7323949893868757
 51
10.3754889523059894
  0
ARC
  5
1EFDC
  8
0
 10
4914.7635705351631259
 20
321.4263432987493729
 30
0.0
 40
21.3917665649643816
 50
10.3754889523059894
 51
11.7086460305198106
  0
ARC
  5
1EFDD
  8
0
 10
4938.8401360249599747
 20
327.1795286005656749
 30
0.0
 40
3.4336917023488431
 50
192.7995853140411953
 51
204.282286819621504
  0
ARC
  5
1EFDE
  8
0
 10
4937.1909160882260039
 20
326.3497232411493201
 30
0.0
 40
1.7616540390188249
 50
199.5102768052097133
 51
218.3605120938115078
  0
ARC
  5
1EFDF
  8
0
 10
4938.5988392069193651
 20
326.848579182434321
 30
0.0
 40
3.2553423459647939
 50
194.3421513894994916
 51
199.5102768052097133
  0
ARC
  5
1EFE0
  8
0
 10
4939.5376194966893308
 20
318.6071091622391123
 30
0.0
 40
3.609146141417642
 50
172.151832337850891
 51
176.5127826701568097
  0
ARC
  5
1EFE1
  8
0
 10
4932.2734274875310803
 20
319.6084018922198879
 30
0.0
 40
3.7237300117039891
 50
352.1518323378509194
 51
357.5005205912619886
  0
ARC
  5
1EFE2
  8
0
 10
4935.877127709164597
 20
318.8120737325097025
 30
0.0
 40
0.0078740161069009
 50
270.0000020537153773
 51
330.0008826089907075
  0
ARC
  5
1EFE3
  8
0
 10
4934.9296696296878508
 20
318.8278368295009955
 30
0.0
 40
0.0197
 50
183.4872173298398934
 51
270.0
  0
ARC
  5
1EFE4
  8
0
 10
4935.9154925504062703
 20
318.8278368295009955
 30
0.0
 40
0.0197
 50
270.0
 51
356.5127826701502727
  0
ARC
  5
1EFE5
  8
0
 10
4933.2044729907547662
 20
323.3157679397622815
 30
0.0
 40
1.6476247279287519
 50
359.7206427141110225
 51
10.7068939128478906
  0
ARC
  5
1EFE6
  8
0
 10
4933.7426459071593854
 20
323.4217732827877967
 30
0.0
 40
1.0991349049452901
 50
10.4892343782399298
 51
21.950640159353199
  0
ARC
  5
1EFE7
  8
0
 10
4934.4907207394371653
 20
323.740294158307222
 30
0.0
 40
0.2866607090696449
 50
18.7922504172354401
 51
69.3991532803261748
  0
ARC
  5
1EFE8
  8
0
 10
4934.6473110904262285
 20
324.2469963723527826
 30
0.0
 40
0.2447995800787738
 50
238.5210948906446049
 51
256.8415833733014892
  0
ARC
  5
1EFE9
  8
0
 10
4934.560329490454933
 20
324.0918367602751005
 30
0.0
 40
0.0674020579958338
 50
208.8244996512939053
 51
232.6956104497837998
  0
LINE
  5
1EFEA
  8
0
 10
4934.8126850816379374
 20
322.3916203529075233
 30
0.0
 11
4934.8627135185206498
 21
322.3907471032919716
 31
0.0
  0
LINE
  5
1EFEB
  8
0
 10
4934.8126850816306614
 20
322.941188739132599
 30
0.0
 11
4934.8632496584923501
 21
322.9420713471212139
 31
0.0
  0
ARC
  5
1EFEC
  8
0
 10
4934.1960163544226816
 20
322.599407618339626
 30
0.0
 40
0.7500791378792253
 50
13.7046350348314601
 51
28.7830436019139917
  0
ARC
  5
1EFED
  8
0
 10
4934.8642029507736879
 20
322.9664888386832899
 30
0.0
 40
0.0123
 50
180.0
 51
208.7830436019139881
  0
ARC
  5
1EFEE
  8
0
 10
4934.4685190060072273
 20
322.6658599592601036
 30
0.0
 40
0.4695909763921023
 50
344.3412783922472045
 51
13.7046350348314601
  0
ARC
  5
1EFEF
  8
0
 10
4934.146142900904124
 20
322.7562252420889877
 30
0.0
 40
0.804392764741782
 50
331.5495103833205235
 51
344.3412783922472045
  0
ARC
  5
1EFF0
  8
0
 10
4934.8642029507736879
 20
322.3671534790918827
 30
0.0
 40
0.0123
 50
151.5495103833204951
 51
180.0
  0
LINE
  5
1EFF1
  8
0
 10
4934.7928376202480649
 20
322.9209918156905132
 30
0.0
 11
4934.7928376202480649
 21
322.4118172763496091
 31
0.0
  0
ARC
  5
1EFF2
  8
0
 10
4934.8130376202479965
 20
322.9209918156905132
 30
0.0
 40
0.0202
 50
91.0000000187382767
 51
180.0
  0
ARC
  5
1EFF3
  8
0
 10
4934.8130376202479965
 20
322.4118172763496091
 30
0.0
 40
0.0202
 50
180.0000000000129887
 51
268.9999999983044177
  0
ARC
  5
1EFF4
  8
0
 10
4934.3040674879530343
 20
322.6664045460199759
 30
0.0
 40
0.5510997369823257
 50
332.4861999955924148
 51
27.5138000044075817
  0
ARC
  5
1EFF5
  8
0
 10
4933.6111551007688831
 20
326.6188199848658087
 30
0.0
 40
0.0133648952148088
 50
51.0144419645193068
 51
158.1806799995287065
  0
ARC
  5
1EFF6
  8
0
 10
4933.6713583502059919
 20
326.5947168518767967
 30
0.0
 40
0.0782138910651691
 50
158.1806799995287065
 51
223.1781212063096973
  0
ARC
  5
1EFF7
  8
0
 10
4933.6224001614800727
 20
326.5487772208996944
 30
0.0
 40
0.0110770611000181
 50
223.1781212063096973
 51
336.7120188378731882
  0
ARC
  5
1EFF8
  8
0
 10
4933.5727478667522519
 20
326.5786228040195169
 30
0.0
 40
0.0689246245725493
 50
330.2275978766152775
 51
47.2167880867570275
  0
ARC
  5
1EFF9
  8
0
 10
4933.6720566437934394
 20
326.6520224934898806
 30
0.0
 40
0.0133648952148088
 50
51.0144419645193068
 51
158.1806799995287065
  0
ARC
  5
1EFFA
  8
0
 10
4933.7322598932323672
 20
326.627919360501096
 30
0.0
 40
0.0782138910651691
 50
158.1806799995287065
 51
223.1781212063096973
  0
ARC
  5
1EFFB
  8
0
 10
4933.683301704504629
 20
326.5819797295238232
 30
0.0
 40
0.0110770611000181
 50
223.1781212063096973
 51
336.7120188378731882
  0
ARC
  5
1EFFC
  8
0
 10
4933.6336494097768082
 20
326.6118253126437025
 30
0.0
 40
0.0689246245725493
 50
330.2275978766152775
 51
47.2167880867570275
  0
ARC
  5
1EFFD
  8
0
 10
4933.5367866760152538
 20
326.9439482347275998
 30
0.0
 40
0.0133648952148088
 50
51.0144419645193068
 51
158.1806799995287065
  0
ARC
  5
1EFFE
  8
0
 10
4933.5969899254523625
 20
326.9198451017388152
 30
0.0
 40
0.0782138910651691
 50
158.1806799995287065
 51
223.1781212063096973
  0
ARC
  5
1EFFF
  8
0
 10
4933.5480317367264433
 20
326.8739054707614855
 30
0.0
 40
0.0110770611000181
 50
223.1781212063096973
 51
336.7120188378731882
  0
ARC
  5
1F000
  8
0
 10
4933.4983794419968035
 20
326.9037510538813081
 30
0.0
 40
0.0689246245725493
 50
330.2275978766152775
 51
47.2167880867570275
  0
ARC
  5
1F001
  8
0
 10
4933.5890168350324529
 20
327.0027748443300766
 30
0.0
 40
0.0133648952148088
 50
51.0144419645193068
 51
158.1806799995287065
  0
ARC
  5
1F002
  8
0
 10
4933.6492200844695617
 20
326.9786717113411783
 30
0.0
 40
0.0782138910651691
 50
158.1806799995287065
 51
223.1781212063096973
  0
ARC
  5
1F003
  8
0
 10
4933.6002618957436425
 20
326.9327320803639054
 30
0.0
 40
0.0110770611000181
 50
223.1781212063096973
 51
336.7120188378731882
  0
ARC
  5
1F004
  8
0
 10
4933.5506096010158217
 20
326.962577663483728
 30
0.0
 40
0.0689246245725493
 50
330.2275978766152775
 51
47.2167880867570275
  0
ARC
  5
1F005
  8
0
 10
4933.4763077848037938
 20
327.2444104984206206
 30
0.0
 40
0.0133648952148088
 50
35.9120100605433734
 51
143.0782480955699896
  0
ARC
  5
1F006
  8
0
 10
4933.5281517461671683
 20
327.2054541647497103
 30
0.0
 40
0.0782138910651691
 50
143.0782480955699896
 51
208.075689302303914
  0
ARC
  5
1F007
  8
0
 10
4933.4689151327138461
 20
327.1738570515204856
 30
0.0
 40
0.0110770611000181
 50
208.075689302303914
 51
321.609586933897674
  0
ARC
  5
1F008
  8
0
 10
4933.428753882152705
 20
327.2156084964875049
 30
0.0
 40
0.0689246245725493
 50
315.1251659726307821
 51
32.1143561827829629
  0
ARC
  5
1F009
  8
0
 10
4933.5283581584935746
 20
327.3350036107706842
 30
0.0
 40
0.0133648952148088
 50
35.9120100605433734
 51
143.0782480955699896
  0
ARC
  5
1F00A
  8
0
 10
4933.5802021198560396
 20
327.2960472770997171
 30
0.0
 40
0.0782138910651691
 50
143.0782480955699896
 51
208.075689302303914
  0
ARC
  5
1F00B
  8
0
 10
4933.5209655064027174
 20
327.2644501638707197
 30
0.0
 40
0.0110770611000181
 50
208.075689302303914
 51
321.609586933897674
  0
ARC
  5
1F00C
  8
0
 10
4933.4808042558433954
 20
327.3062016088376254
 30
0.0
 40
0.0689246245725493
 50
315.1251659726307821
 51
32.1143561827829629
  0
ARC
  5
1F00D
  8
0
 10
4933.858946593991277
 20
326.6890592312992112
 30
0.0
 40
0.0971786427458133
 50
161.8501902570320112
 51
220.0672422185396897
  0
ARC
  5
1F00E
  8
0
 10
4933.721119302268562
 20
326.66237136734469
 30
0.0
 40
0.0728912145056436
 50
330.5258844912601717
 51
51.3915479843065128
  0
ARC
  5
1F00F
  8
0
 10
4933.95742746036467
 20
326.7339537171312145
 30
0.0
 40
0.145304069818572
 50
172.4013031848681976
 51
210.2394737531930957
  0
ARC
  5
1F010
  8
0
 10
4933.746342315002039
 20
326.6916966244928062
 30
0.0
 40
0.0909689961831056
 50
340.1292897199334107
 51
42.5114872181653283
  0
ARC
  5
1F011
  8
0
 10
4933.7589398418585915
 20
327.1099453653345108
 30
0.0
 40
0.0971786427458133
 50
161.8501902570320112
 51
220.0672422185396897
  0
ARC
  5
1F012
  8
0
 10
4933.6211125501376955
 20
327.083257501380217
 30
0.0
 40
0.0728912145056436
 50
330.5258844912601717
 51
51.3915479843065128
  0
ARC
  5
1F013
  8
0
 10
4933.7442380830489128
 20
327.6381571220169917
 30
0.0
 40
0.145304069818572
 50
172.4013031848681976
 51
210.2394737531930957
  0
ARC
  5
1F014
  8
0
 10
4933.5331529376871913
 20
327.5959000293785266
 30
0.0
 40
0.0909689961831056
 50
340.1292897199334107
 51
42.5114872181653283
  0
ARC
  5
1F015
  8
0
 10
4933.8498349174560644
 20
327.196944365196714
 30
0.0
 40
0.145304069818572
 50
172.4013031848681976
 51
210.2394737531930957
  0
ARC
  5
1F016
  8
0
 10
4933.6387497720934334
 20
327.154687272558192
 30
0.0
 40
0.0909689961831056
 50
340.1292897199334107
 51
42.5114872181653283
  0
ARC
  5
1F017
  8
0
 10
4933.7214164604456528
 20
327.5058570802822828
 30
0.0
 40
0.145304069818572
 50
172.4013031848681976
 51
210.2394737531930957
  0
ARC
  5
1F018
  8
0
 10
4933.5103313150830218
 20
327.4635999876438177
 30
0.0
 40
0.0909689961831056
 50
340.1292897199334107
 51
42.5114872181653283
  0
ARC
  5
1F019
  8
0
 10
4933.4828976009375765
 20
327.4617555391080259
 30
0.0
 40
0.0861349858294243
 50
138.3684546321829885
 51
208.8669510662585935
  0
ARC
  5
1F01A
  8
0
 10
4933.3435161942352352
 20
327.4773460634303888
 30
0.0
 40
0.0857813448425544
 50
318.2013523806505191
 51
29.0340533177718498
  0
ARC
  5
1F01B
  8
0
 10
4933.5244454313406095
 20
327.5796697218439135
 30
0.0
 40
0.0861349858294243
 50
138.3684546321829885
 51
208.8669510662585935
  0
ARC
  5
1F01C
  8
0
 10
4933.3850640246409966
 20
327.5952602461662764
 30
0.0
 40
0.0857813448425544
 50
318.2013523806505191
 51
29.0340533177718498
  0
ARC
  5
1F01D
  8
0
 10
4933.6160216339312683
 20
327.8140656341794852
 30
0.0
 40
0.1131558445161653
 50
153.2446198654226919
 51
204.9775638641968953
  0
ARC
  5
1F01E
  8
0
 10
4933.4095020489903618
 20
327.8172699132877028
 30
0.0
 40
0.1157778151706409
 50
333.8720864038186846
 51
24.3500973257815509
  0
ARC
  5
1F01F
  8
0
 10
4933.6462584319024245
 20
327.9745878308386864
 30
0.0
 40
0.119863554259905
 50
161.7809637847500142
 51
205.5992541199699986
  0
ARC
  5
1F020
  8
0
 10
4933.1816291752083998
 20
327.9151965356992946
 30
0.0
 40
0.3639038743340013
 50
11.3115274172783895
 51
15.4375320102936797
  0
ARC
  5
1F021
  8
0
 10
4933.4664999023189011
 20
327.6604332418997956
 30
0.0
 40
0.1148156741802931
 50
143.8628092352618069
 51
196.3522622772237867
  0
ARC
  5
1F022
  8
0
 10
4933.2561002294105492
 20
327.6971253483491182
 30
0.0
 40
0.1216928862620254
 50
325.448601430519318
 51
14.7664700819841599
  0
ARC
  5
1F023
  8
0
 10
4933.5051061071508229
 20
327.8005633936618892
 30
0.0
 40
0.1148156741802931
 50
143.8628092352618069
 51
196.3522622772237867
  0
ARC
  5
1F024
  8
0
 10
4933.2947064342433805
 20
327.8372555001112119
 30
0.0
 40
0.1216928862620254
 50
325.448601430519318
 51
14.7664700819841599
  0
ARC
  5
1F025
  8
0
 10
4933.5566979647292101
 20
328.0728227502759182
 30
0.0
 40
0.1148156741802931
 50
152.3207802403620974
 51
197.9531281877920037
  0
ARC
  5
1F026
  8
0
 10
4933.4879229185326039
 20
327.7894108090126224
 30
0.0
 40
0.1673315617928231
 50
149.9638031991486002
 51
186.1201796051412032
  0
ARC
  5
1F027
  8
0
 10
4933.1065252324988251
 20
327.8701872844837908
 30
0.0
 40
0.2365559692138112
 50
335.3619804334194896
 51
0.722002370891676
  0
ARC
  5
1F028
  8
0
 10
4933.5132522780668296
 20
327.9515248844497819
 30
0.0
 40
0.1574479775693198
 50
151.7454365696555101
 51
190.5005285628355978
  0
LINE
  5
1F029
  8
0
 10
4933.8256241755098017
 20
325.1258098290081193
 30
0.0
 11
4933.8270078526711586
 21
325.1261165829005222
 31
0.0
  0
ARC
  5
1F02A
  8
0
 10
4987.0908454126738434
 20
337.8318936087571274
 30
0.0
 40
54.758315911367923
 50
192.5258302850907057
 51
193.4198792529458046
  0
ARC
  5
1F02B
  8
0
 10
4930.0312843367846654
 20
321.9497309962616782
 30
0.0
 40
4.9481414309567109
 50
32.8808923523394725
 51
39.8935604269505077
  0
ARC
  5
1F02C
  8
0
 10
4929.8580001938707937
 20
321.9041417346077765
 30
0.0
 40
5.118719808860094
 50
25.1984507144745784
 51
32.2564114942243521
  0
ARC
  5
1F02D
  8
0
 10
4934.5002931736280516
 20
324.0885094487892957
 30
0.0
 40
0.0118110234472106
 50
205.3028180698802032
 51
254.4445724085495044
  0
ARC
  5
1F02E
  8
0
 10
4933.5453962534193124
 20
326.3423125330863854
 30
0.0
 40
0.0492725725064919
 50
94.3221155993940243
 51
102.0342726996461948
  0
ARC
  5
1F02F
  8
0
 10
4933.5429914667720368
 20
326.3741309033571838
 30
0.0
 40
0.0173634564814713
 50
78.2004526791031367
 51
94.3221155993940243
  0
ARC
  5
1F030
  8
0
 10
4933.1642590921019291
 20
317.5035267903531917
 30
0.0
 40
8.8958184460292582
 50
87.113759607464317
 51
87.5370507374889542
  0
ARC
  5
1F031
  8
0
 10
4933.6059608327486785
 20
325.7209750161791249
 30
0.0
 40
0.6671147746431576
 50
66.7856332605938832
 51
89.4649007414417667
  0
ARC
  5
1F032
  8
0
 10
4933.7220482514430842
 20
326.0817267921407847
 30
0.0
 40
0.2919796105144198
 50
35.8596661208137704
 51
59.8001763361605114
  0
ARC
  5
1F033
  8
0
 10
4933.8974664846282394
 20
326.2085203170021259
 30
0.0
 40
0.0755352655193244
 50
306.3369464113657727
 51
35.8596661208137704
  0
ARC
  5
1F034
  8
0
 10
4933.8269956825097324
 20
326.3915788642229927
 30
0.0
 40
0.2697544567105617
 50
275.2823515553936886
 51
295.2873687920102839
  0
ARC
  5
1F035
  8
0
 10
4933.5721335151147287
 20
329.0558016253148139
 30
0.0
 40
2.9461384030038729
 50
270.5470395687913197
 51
275.4476794662297152
  0
ARC
  5
1F036
  8
0
 10
4933.5854556266067448
 20
326.0394749439566908
 30
0.0
 40
0.0702730559022083
 50
60.7336045224737475
 51
77.503964130026219
  0
ARC
  5
1F037
  8
0
 10
4933.1664350214850856
 20
324.9253622628996823
 30
0.0
 40
1.259821922588598
 50
54.7317830992180774
 51
68.9076441319049735
  0
ARC
  5
1F038
  8
0
 10
4933.5265165908940617
 20
325.4393983101525123
 30
0.0
 40
0.6322265119080722
 50
31.1813321925916291
 51
54.476635306117231
  0
ARC
  5
1F039
  8
0
 10
4933.9551631225849633
 20
325.6951697439428131
 30
0.0
 40
0.1331163747008457
 50
2.6305218897161411
 51
32.5201029552237486
  0
ARC
  5
1F03A
  8
0
 10
4934.0678133495675866
 20
325.7042163719830228
 30
0.0
 40
0.020537007031545
 50
244.7852750257447099
 51
351.7772753706165076
  0
ARC
  5
1F03B
  8
0
 10
4925.9953468265548508
 20
305.7310973456139891
 30
0.0
 40
21.5222480301825208
 50
67.9961481878896024
 51
69.1336049660968257
  0
ARC
  5
1F03C
  8
0
 10
4932.7738370056231361
 20
324.47874570139669
 30
0.0
 40
1.625830827023824
 50
30.4091493451271511
 51
56.9057053206504477
  0
ARC
  5
1F03D
  8
0
 10
4934.0595907879069273
 20
325.2333689807725818
 30
0.0
 40
0.1349857370049218
 50
4.2174989207157081
 51
30.4091493451271511
  0
ARC
  5
1F03E
  8
0
 10
4934.1867852832046992
 20
325.247129981202022
 30
0.0
 40
0.0083569711790947
 50
222.5169078588828029
 51
332.693426452746678
  0
ARC
  5
1F03F
  8
0
 10
4931.6393315435043405
 20
322.4462046810767788
 30
0.0
 40
3.7777972452846931
 50
47.7248234682792685
 51
56.6592009986292879
  0
ARC
  5
1F040
  8
0
 10
4932.6756979195479289
 20
324.2232572641523802
 30
0.0
 40
1.7262925185793789
 50
21.1462293696999701
 51
52.9427622235626387
  0
ARC
  5
1F041
  8
0
 10
4931.0064960211957441
 20
322.2805049917246834
 30
0.0
 40
4.163572182832171
 50
38.0377364596734182
 51
48.5618324706929911
  0
ARC
  5
1F042
  8
0
 10
4931.6665848245766028
 20
323.3203286250632118
 30
0.0
 40
2.9526793059199159
 50
24.1973012822580884
 51
44.7823138566750814
  0
ARC
  5
1F043
  8
0
 10
4930.5104342758413623
 20
322.1024665281407806
 30
0.0
 40
4.5512224500073639
 50
32.242678651207747
 51
43.7595021742742532
  0
ARC
  5
1F044
  8
0
 10
4590.749452858877703
 20
246.6954157245882016
 30
0.0
 40
351.9280075894017727
 50
13.0156955262428706
 51
13.0884265240443103
  0
ARC
  5
1F045
  8
0
 10
4933.8239143022901771
 20
325.1335225674043841
 30
0.0
 40
0.0079
 50
192.956906372445701
 51
282.5000020073804876
  0
ARC
  5
1F046
  8
0
 10
4933.7032630790354233
 20
326.219856497575222
 30
0.0
 40
0.0133648952148088
 50
227.8193198995701891
 51
334.9855579345692718
  0
ARC
  5
1F047
  8
0
 10
4933.7468072832325561
 20
326.2679116174227261
 30
0.0
 40
0.0782138910651691
 50
162.8218786928024997
 51
227.8193198995701891
  0
ARC
  5
1F048
  8
0
 10
4933.6826653460084344
 20
326.287740027010102
 30
0.0
 40
0.0110770611000181
 50
49.2879810612608722
 51
162.8218786928024997
  0
ARC
  5
1F049
  8
0
 10
4933.6511216015351238
 20
326.2391488612688022
 30
0.0
 40
0.0689246245725493
 50
338.7832118122868224
 51
55.7724020224555233
  0
ARC
  5
1F04A
  8
0
 10
4933.7725560450917328
 20
326.2167117596366097
 30
0.0
 40
0.0133648952148088
 50
227.8193198995701891
 51
334.9855579345692718
  0
ARC
  5
1F04B
  8
0
 10
4933.8161002492888656
 20
326.2647668794841138
 30
0.0
 40
0.0782138910651691
 50
162.8218786928024997
 51
227.8193198995701891
  0
ARC
  5
1F04C
  8
0
 10
4933.751958312064744
 20
326.2845952890716035
 30
0.0
 40
0.0110770611000181
 50
49.2879810612608722
 51
162.8218786928024997
  0
ARC
  5
1F04D
  8
0
 10
4933.7204145675914333
 20
326.2360041233300763
 30
0.0
 40
0.0689246245725493
 50
338.7832118122868224
 51
55.7724020224555233
  0
ARC
  5
1F04E
  8
0
 10
4933.7789480248047767
 20
325.8950321905377905
 30
0.0
 40
0.0133648952148088
 50
227.8193198995701891
 51
334.9855579345692718
  0
ARC
  5
1F04F
  8
0
 10
4933.8224922290037284
 20
325.9430873103854083
 30
0.0
 40
0.0782138910651691
 50
162.8218786928024997
 51
227.8193198995701891
  0
ARC
  5
1F050
  8
0
 10
4933.7583502917777878
 20
325.9629157199728979
 30
0.0
 40
0.0110770611000181
 50
49.2879810612608722
 51
162.8218786928024997
  0
ARC
  5
1F051
  8
0
 10
4933.7268065473053866
 20
325.9143245542314276
 30
0.0
 40
0.0689246245725493
 50
338.7832118122868224
 51
55.7724020224555233
  0
ARC
  5
1F052
  8
0
 10
4933.8516800690285891
 20
325.8650553786409887
 30
0.0
 40
0.0133648952148088
 50
227.8193198995701891
 51
334.9855579345692718
  0
ARC
  5
1F053
  8
0
 10
4933.8952242732284503
 20
325.9131104984884928
 30
0.0
 40
0.0782138910651691
 50
162.8218786928024997
 51
227.8193198995701891
  0
ARC
  5
1F054
  8
0
 10
4933.8310823360016002
 20
325.9329389080759825
 30
0.0
 40
0.0110770611000181
 50
49.2879810612608722
 51
162.8218786928024997
  0
ARC
  5
1F055
  8
0
 10
4933.799538591529199
 20
325.8843477423346826
 30
0.0
 40
0.0689246245725493
 50
338.7832118122868224
 51
55.7724020224555233
  0
ARC
  5
1F056
  8
0
 10
4933.8563039440396096
 20
325.5984662957608862
 30
0.0
 40
0.0133648952148088
 50
242.9217518035555941
 51
350.087989838524777
  0
ARC
  5
1F057
  8
0
 10
4933.8858236552841845
 20
325.6562069132742749
 30
0.0
 40
0.0782138910651691
 50
177.9243105967914005
 51
242.9217518035555941
  0
ARC
  5
1F058
  8
0
 10
4933.8187308770329764
 20
325.6586385884718879
 30
0.0
 40
0.0110770611000181
 50
64.3904129652004826
 51
177.9243105967914005
  0
ARC
  5
1F059
  8
0
 10
4933.8009368128496135
 20
325.603507104877508
 30
0.0
 40
0.0689246245725493
 50
353.8856437162954194
 51
70.8748339264646319
  0
ARC
  5
1F05A
  8
0
 10
4933.9427999164690846
 20
325.5398591275974809
 30
0.0
 40
0.0133648952148088
 50
242.9217518035555941
 51
350.087989838524777
  0
ARC
  5
1F05B
  8
0
 10
4933.9723196277127499
 20
325.5975997451109265
 30
0.0
 40
0.0782138910651691
 50
177.9243105967914005
 51
242.9217518035555941
  0
ARC
  5
1F05C
  8
0
 10
4933.9052268494624514
 20
325.6000314203084827
 30
0.0
 40
0.0110770611000181
 50
64.3904129652004826
 51
177.9243105967914005
  0
ARC
  5
1F05D
  8
0
 10
4933.8874327852790884
 20
325.5448999367141028
 30
0.0
 40
0.0689246245725493
 50
353.8856437162954194
 51
70.8748339264646319
  0
ARC
  5
1F05E
  8
0
 10
4933.9567674569552764
 20
326.2653505216662779
 30
0.0
 40
0.0971786427458133
 50
165.9327576805665103
 51
224.1498096420745014
  0
ARC
  5
1F05F
  8
0
 10
4933.8211899181469562
 20
326.228917907204675
 30
0.0
 40
0.0728912145056436
 50
334.6084519148276968
 51
55.4741154078151197
  0
ARC
  5
1F060
  8
0
 10
4934.0649619205696581
 20
326.2681707952272063
 30
0.0
 40
0.145304069818572
 50
175.7605261459048052
 51
213.5986967142058859
  0
ARC
  5
1F061
  8
0
 10
4933.8567155583987187
 20
326.2136175816285117
 30
0.0
 40
0.0909689961831056
 50
343.4885126809605822
 51
45.8707101791778271
  0
ARC
  5
1F062
  8
0
 10
4934.0513863200503692
 20
325.8432204954402209
 30
0.0
 40
0.0971786427458133
 50
165.9327576805665103
 51
224.1498096420745014
  0
ARC
  5
1F063
  8
0
 10
4933.915808781242049
 20
325.806787880978618
 30
0.0
 40
0.0728912145056436
 50
334.6084519148276968
 51
55.4741154078151197
  0
ARC
  5
1F064
  8
0
 10
4934.2697252594389283
 20
325.3620220860947825
 30
0.0
 40
0.145304069818572
 50
175.7605261459048052
 51
213.5986967142058859
  0
ARC
  5
1F065
  8
0
 10
4934.0614788972688984
 20
325.3074688724960879
 30
0.0
 40
0.0909689961831056
 50
343.4885126809605822
 51
45.8707101791778271
  0
ARC
  5
1F066
  8
0
 10
4934.1712201241061848
 20
325.8048720906459153
 30
0.0
 40
0.145304069818572
 50
175.7605261459048052
 51
213.5986967142058859
  0
ARC
  5
1F067
  8
0
 10
4933.9629737619361549
 20
325.7503188770472775
 30
0.0
 40
0.0909689961831056
 50
343.4885126809605822
 51
45.8707101791778271
  0
ARC
  5
1F068
  8
0
 10
4934.1912168000926613
 20
325.4709282351972774
 30
0.0
 40
0.145304069818572
 50
175.7605261459048052
 51
213.5986967142058859
  0
ARC
  5
1F069
  8
0
 10
4933.9829704379226314
 20
325.4163750215985829
 30
0.0
 40
0.0909689961831056
 50
343.4885126809605822
 51
45.8707101791778271
  0
ARC
  5
1F06A
  8
0
 10
4933.9575046259433293
 20
325.40600665227538
 30
0.0
 40
0.0861349858294243
 50
177.1330488328250965
 51
247.6315452669234958
  0
ARC
  5
1F06B
  8
0
 10
4933.8390638833279809
 20
325.3308931949471798
 30
0.0
 40
0.0857813448425544
 50
356.9659465813193151
 51
67.7986475184004718
  0
ARC
  5
1F06C
  8
0
 10
4934.0465377439004442
 20
325.3182394567621145
 30
0.0
 40
0.0861349858294243
 50
177.1330488328250965
 51
247.6315452669234958
  0
ARC
  5
1F06D
  8
0
 10
4933.9280970012850958
 20
325.243125999434028
 30
0.0
 40
0.0857813448425544
 50
356.9659465813193151
 51
67.7986475184004718
  0
ARC
  5
1F06E
  8
0
 10
4934.2315982941636321
 20
325.1477101708999271
 30
0.0
 40
0.1131558445161653
 50
181.0224360348825883
 51
232.7553800336663983
  0
ARC
  5
1F06F
  8
0
 10
4934.047384384117322
 20
325.0542979569543718
 30
0.0
 40
0.1157778151706409
 50
1.649902573292795
 51
52.1279134952690626
  0
ARC
  5
1F070
  8
0
 10
4934.3291432473615714
 20
325.016688715873272
 30
0.0
 40
0.119863554259905
 50
180.4007457791238949
 51
224.2190361143908035
  0
ARC
  5
1F071
  8
0
 10
4933.8855018072854364
 20
324.8663891990394177
 30
0.0
 40
0.3639038743340013
 50
10.5624678887773307
 51
14.6884724818374899
  0
ARC
  5
1F072
  8
0
 10
4934.0298610441377605
 20
325.2202480377985125
 30
0.0
 40
0.1148156741802931
 50
189.6477376218726931
 51
242.1371906638391067
  0
ARC
  5
1F073
  8
0
 10
4933.8568398313482248
 20
325.0950362453835965
 30
0.0
 40
0.1216928862620254
 50
11.2335298170908899
 51
60.5513984685902074
  0
ARC
  5
1F074
  8
0
 10
4934.1259890863284454
 20
325.1112237378035843
 30
0.0
 40
0.1148156741802931
 50
189.6477376218726931
 51
242.1371906638391067
  0
ARC
  5
1F075
  8
0
 10
4933.9529678735361813
 20
324.9860119453887819
 30
0.0
 40
0.1216928862620254
 50
11.2335298170908899
 51
60.5513984685902074
  0
ARC
  5
1F076
  8
0
 10
4934.2917101867478777
 20
324.8891350305094079
 30
0.0
 40
0.1148156741802931
 50
188.0468717113207902
 51
233.6792196587047101
  0
ARC
  5
1F077
  8
0
 10
4933.0622796840443698
 20
323.8887248134374772
 30
0.0
 40
1.38430895491981
 50
18.8278593952180309
 51
42.7251720754925373
  0
ARC
  5
1F078
  8
0
 10
4961.3288058232510593
 20
340.7232571047995862
 30
0.0
 40
31.5468033316480287
 50
210.2559804163907131
 51
211.2970510543352134
  0
LINE
  5
1F079
  8
0
 10
4935.780848806596623
 20
318.4419949920027193
 30
0.0
 11
4935.780848806596623
 21
318.5088987400304745
 31
0.0
  0
LINE
  5
1F07A
  8
0
 10
4935.780848806596623
 20
318.5716290445968184
 30
0.0
 11
4935.780848806596623
 21
318.5803271369305207
 31
0.0
  0
LINE
  5
1F07B
  8
0
 10
4935.780848806596623
 20
318.6430573005046085
 30
0.0
 11
4935.780848806596623
 21
318.6517337186305099
 31
0.0
  0
LINE
  5
1F07C
  8
0
 10
4935.780848806596623
 20
318.7144634491889974
 30
0.0
 11
4935.780848806596623
 21
318.7231615412305246
 31
0.0
  0
LINE
  5
1F07D
  8
0
 10
4935.7690377829967474
 20
318.4301839684026731
 30
0.0
 11
4935.780848806596623
 21
318.4419949920027193
 31
0.0
  0
ARC
  5
1F07E
  8
0
 10
4935.820248806597192
 20
318.7647997164027061
 30
0.0
 40
0.0394
 50
90.0
 51
152.0893865256362858
  0
LINE
  5
1F07F
  8
0
 10
4935.8261087718974522
 20
318.7493285066598787
 30
0.0
 11
4935.8261087718974522
 21
318.7597255004228032
 31
0.0
  0
LINE
  5
1F080
  8
0
 10
4935.8261087718974522
 20
318.6882963304780105
 30
0.0
 11
4935.8261087718974522
 21
318.6779005459064251
 31
0.0
  0
LINE
  5
1F081
  8
0
 10
4935.8261087718974522
 20
318.6168904724158892
 30
0.0
 11
4935.8261087718974522
 21
318.6064941605566787
 31
0.0
  0
LINE
  5
1F082
  8
0
 10
4935.8261087718974522
 20
318.5454619846698847
 30
0.0
 11
4935.8261087718974522
 21
318.5350655003862244
 31
0.0
  0
LINE
  5
1F083
  8
0
 10
4935.8261087718974522
 20
318.7597255004228032
 30
0.0
 11
4935.785431856535979
 21
318.783242600895278
 31
0.0
  0
LINE
  5
1F084
  8
0
 10
4935.780848806596623
 20
318.7231615412305246
 30
0.0
 11
4935.8261087718974522
 21
318.7493285066598787
 31
0.0
  0
LINE
  5
1F085
  8
0
 10
4935.8261087718974522
 20
318.6882963304780105
 30
0.0
 11
4935.780848806596623
 21
318.7144634491889974
 31
0.0
  0
LINE
  5
1F086
  8
0
 10
4935.780848806596623
 20
318.6517337186305099
 30
0.0
 11
4935.8261087718974522
 21
318.6779005459064251
 31
0.0
  0
LINE
  5
1F087
  8
0
 10
4935.8261087718974522
 20
318.6168904724158892
 30
0.0
 11
4935.780848806596623
 21
318.6430573005046085
 31
0.0
  0
LINE
  5
1F088
  8
0
 10
4935.780848806596623
 20
318.5803271369305207
 30
0.0
 11
4935.8261087718974522
 21
318.6064941605566787
 31
0.0
  0
LINE
  5
1F089
  8
0
 10
4935.8261087718974522
 20
318.5454619846698847
 30
0.0
 11
4935.780848806596623
 21
318.5716290445968184
 31
0.0
  0
LINE
  5
1F08A
  8
0
 10
4935.780848806596623
 20
318.5088987400304745
 30
0.0
 11
4935.8261087718974522
 21
318.5350655003862244
 31
0.0
  0
LINE
  5
1F08B
  8
0
 10
4935.0643133734984076
 20
318.4419949920027193
 30
0.0
 11
4935.0643133734984076
 21
318.4737849899350977
 31
0.0
  0
LINE
  5
1F08C
  8
0
 10
4935.0643133734984076
 20
318.5365152945013847
 30
0.0
 11
4935.0643133734984076
 21
318.545213386835087
 31
0.0
  0
LINE
  5
1F08D
  8
0
 10
4935.0643133734984076
 20
318.6079435504091748
 30
0.0
 11
4935.0643133734984076
 21
318.6166199685350762
 31
0.0
  0
LINE
  5
1F08E
  8
0
 10
4935.0643133734984076
 20
318.6793496990935068
 30
0.0
 11
4935.0643133734984076
 21
318.6880477911349772
 31
0.0
  0
LINE
  5
1F08F
  8
0
 10
4935.0761243970973737
 20
318.4301839684026731
 30
0.0
 11
4935.0643133734984076
 21
318.4419949920027193
 31
0.0
  0
ARC
  5
1F090
  8
0
 10
4935.0249133734969291
 20
318.7647997164027061
 30
0.0
 40
0.0394
 50
4.9640247964770259
 51
90.0
  0
LINE
  5
1F091
  8
0
 10
4935.0190534081966689
 20
318.7142147565645018
 30
0.0
 11
4935.0190534081966689
 21
318.7246117503274263
 31
0.0
  0
LINE
  5
1F092
  8
0
 10
4935.0190534081966689
 20
318.65318258038252
 30
0.0
 11
4935.0190534081966689
 21
318.6427867958109914
 31
0.0
  0
LINE
  5
1F093
  8
0
 10
4935.0190534081966689
 20
318.5817767223203987
 30
0.0
 11
4935.0190534081966689
 21
318.5713804104611881
 31
0.0
  0
LINE
  5
1F094
  8
0
 10
4935.0190534081966689
 20
318.5103482345743942
 30
0.0
 11
4935.0190534081966689
 21
318.4999517502907906
 31
0.0
  0
LINE
  5
1F095
  8
0
 10
4935.0190534081966689
 20
318.7246117503274263
 30
0.0
 11
4935.0641655929848639
 21
318.74983569650459
 31
0.0
  0
LINE
  5
1F096
  8
0
 10
4935.0643133734984076
 20
318.6880477911349772
 30
0.0
 11
4935.0190534081966689
 21
318.7142147565645018
 31
0.0
  0
LINE
  5
1F097
  8
0
 10
4935.0190534081966689
 20
318.65318258038252
 30
0.0
 11
4935.0643133734984076
 21
318.6793496990935068
 31
0.0
  0
LINE
  5
1F098
  8
0
 10
4935.0643133734984076
 20
318.6166199685350762
 30
0.0
 11
4935.0190534081966689
 21
318.6427867958109914
 31
0.0
  0
LINE
  5
1F099
  8
0
 10
4935.0190534081966689
 20
318.5817767223203987
 30
0.0
 11
4935.0643133734984076
 21
318.6079435504091748
 31
0.0
  0
LINE
  5
1F09A
  8
0
 10
4935.0643133734984076
 20
318.545213386835087
 30
0.0
 11
4935.0190534081966689
 21
318.5713804104611881
 31
0.0
  0
LINE
  5
1F09B
  8
0
 10
4935.0190534081966689
 20
318.5103482345743942
 30
0.0
 11
4935.0643133734984076
 21
318.5365152945013847
 31
0.0
  0
LINE
  5
1F09C
  8
0
 10
4935.0643133734984076
 20
318.4737849899350977
 30
0.0
 11
4935.0190534081966689
 21
318.4999517502907906
 31
0.0
  0
LINE
  5
1F09D
  8
0
 10
4935.780848806596623
 20
318.4419949920027193
 30
0.0
 11
4935.0643133734984076
 21
318.4419949920027193
 31
0.0
  0
LINE
  5
1F09E
  8
0
 10
4935.0641655929848639
 20
318.74983569650459
 30
0.0
 11
4935.0641655929848639
 21
318.7682090074313805
 31
0.0
  0
LINE
  5
1F09F
  8
0
 10
4935.785431856535979
 20
318.783242600895278
 30
0.0
 11
4935.0641655929848639
 21
318.74983569650459
 31
0.0
  0
LINE
  5
1F0A0
  8
0
 10
4935.0190534081966689
 20
318.7194132534459072
 30
0.0
 11
4935.8261087718974522
 21
318.7545270035413978
 31
0.0
  0
LINE
  5
1F0A1
  8
0
 10
4935.780848806596623
 20
318.7188124952097041
 30
0.0
 11
4935.0643133734984076
 21
318.6836987451142136
 31
0.0
  0
LINE
  5
1F0A2
  8
0
 10
4935.0190534081966689
 20
318.6479846880966988
 30
0.0
 11
4935.8261087718974522
 21
318.6830984381921894
 31
0.0
  0
LINE
  5
1F0A3
  8
0
 10
4935.780848806596623
 20
318.6473955095675024
 30
0.0
 11
4935.0643133734984076
 21
318.6122817594721255
 31
0.0
  0
LINE
  5
1F0A4
  8
0
 10
4935.0190534081966689
 20
318.5765785663908787
 30
0.0
 11
4935.8261087718974522
 21
318.6116923164863124
 31
0.0
  0
LINE
  5
1F0A5
  8
0
 10
4935.780848806596623
 20
318.5759780907636127
 30
0.0
 11
4935.0643133734984076
 21
318.540864340668179
 31
0.0
  0
LINE
  5
1F0A6
  8
0
 10
4935.0190534081966689
 20
318.5051499924326208
 30
0.0
 11
4935.8261087718974522
 21
318.5402637425281114
 31
0.0
  0
LINE
  5
1F0A7
  8
0
 10
4935.780848806596623
 20
318.5088987400304745
 30
0.0
 11
4935.0643133734984076
 21
318.4737849899350977
 31
0.0
  0
LINE
  5
1F0A8
  8
0
 10
4935.0761243971483054
 20
318.4301839683528215
 30
0.0
 11
4935.7690377829476347
 21
318.4301839683528215
 31
0.0
  0
LINE
  5
1F0AA
  8
0
 10
4938.7361523597855921
 20
327.6114155130489962
 30
0.0
 11
4938.7361523597855921
 21
325.5522543223564753
 31
0.0
  0
ARC
  5
1F0AB
  8
0
 10
4938.3459542152932045
 20
326.7276004224560211
 30
0.0
 40
1.015464082496442
 50
70.5778521175361533
 51
92.8988250363571382
  0
ARC
  5
1F0AC
  8
0
 10
4938.6574523597855659
 20
327.6110571855367084
 30
0.0
 40
0.0787
 50
0.0
 51
70.5778521175350733
  0
ARC
  5
1F0AD
  8
0
 10
4938.2951964542862697
 20
327.7299802108551035
 30
0.0
 40
0.0118
 50
92.8988250363571382
 51
180.0000000000129887
  0
ARC
  5
1F0AE
  8
0
 10
4938.3459542152932045
 20
326.435352757924818
 30
0.0
 40
1.015464082496442
 50
267.1011749636427908
 51
289.4221478824637757
  0
ARC
  5
1F0AF
  8
0
 10
4938.2951964542862697
 20
325.4329729695256788
 30
0.0
 40
0.0118
 50
180.0
 51
267.1011749636427908
  0
ARC
  5
1F0B0
  8
0
 10
4938.6574523597855659
 20
325.5518959948440738
 30
0.0
 40
0.0787
 50
289.4221478824649125
 51
0.0
  0
LINE
  5
1F0B1
  8
0
 10
4938.2833964542860485
 20
327.7299802108551035
 30
0.0
 11
4938.2833964542860485
 21
325.4329729695256788
 31
0.0
  0
LINE
  5
1F0B2
  8
0
 10
4938.2076401075846661
 20
327.5815895375404239
 30
0.0
 11
4938.2833964542860485
 21
327.5815895375404239
 31
0.0
  0
LINE
  5
1F0B3
  8
0
 10
4938.2076401075846661
 20
327.4949907497403956
 30
0.0
 11
4938.2833964542860485
 21
327.4949907497403956
 31
0.0
  0
ARC
  5
1F0B4
  8
0
 10
4938.2076478002863951
 20
327.5382901436403813
 30
0.0
 40
0.0432993945833549
 50
90.0101793396953269
 51
269.9898206603047015
  0
LINE
  5
1F0B5
  8
0
 10
4938.2076401075846661
 20
327.4903986825403877
 30
0.0
 11
4938.2833964542860485
 21
327.4903986825403877
 31
0.0
  0
LINE
  5
1F0B6
  8
0
 10
4938.2076401075846661
 20
327.4037998947404162
 30
0.0
 11
4938.2833964542860485
 21
327.4037998947404162
 31
0.0
  0
ARC
  5
1F0B7
  8
0
 10
4938.2076478002863951
 20
327.4470992886404019
 30
0.0
 40
0.0432993945833549
 50
90.0101793396953269
 51
269.9898206603047015
  0
LINE
  5
1F0B8
  8
0
 10
4938.2076401075846661
 20
327.3798710749404108
 30
0.0
 11
4938.2833964542860485
 21
327.3798710749404108
 31
0.0
  0
LINE
  5
1F0B9
  8
0
 10
4938.2076401075846661
 20
327.2932722871403826
 30
0.0
 11
4938.2833964542860485
 21
327.2932722871403826
 31
0.0
  0
ARC
  5
1F0BA
  8
0
 10
4938.2076478002863951
 20
327.3365716810404251
 30
0.0
 40
0.0432993945833549
 50
90.0101793396953269
 51
269.9898206603047015
  0
LINE
  5
1F0BB
  8
0
 10
4938.2076401075846661
 20
327.2524757190403761
 30
0.0
 11
4938.2833964542860485
 21
327.2524757190403761
 31
0.0
  0
LINE
  5
1F0BC
  8
0
 10
4938.2076401075846661
 20
327.1658769312404047
 30
0.0
 11
4938.2833964542860485
 21
327.1658769312404047
 31
0.0
  0
ARC
  5
1F0BD
  8
0
 10
4938.2076478002863951
 20
327.2091763251403904
 30
0.0
 40
0.0432993945833549
 50
90.0101793396953269
 51
269.9898206603047015
  0
LINE
  5
1F0BE
  8
0
 10
4938.2076401075846661
 20
327.1110584163404269
 30
0.0
 11
4938.2833964542860485
 21
327.1110584163404269
 31
0.0
  0
LINE
  5
1F0BF
  8
0
 10
4938.2076401075846661
 20
327.0244596285403986
 30
0.0
 11
4938.2833964542860485
 21
327.0244596285403986
 31
0.0
  0
ARC
  5
1F0C0
  8
0
 10
4938.2076478002863951
 20
327.0677590224403843
 30
0.0
 40
0.0432993945833549
 50
90.0101793396953269
 51
269.9898206603047015
  0
LINE
  5
1F0C1
  8
0
 10
4938.2076401075846661
 20
326.9587781959403969
 30
0.0
 11
4938.2833964542860485
 21
326.9587781959403969
 31
0.0
  0
LINE
  5
1F0C2
  8
0
 10
4938.2076401075846661
 20
326.8721794081404255
 30
0.0
 11
4938.2833964542860485
 21
326.8721794081404255
 31
0.0
  0
ARC
  5
1F0C3
  8
0
 10
4938.2076478002863951
 20
326.9154788020404112
 30
0.0
 40
0.0432993945833549
 50
90.0101793396953269
 51
269.9898206603047015
  0
LINE
  5
1F0C4
  8
0
 10
4938.2076401075846661
 20
326.7990367461404162
 30
0.0
 11
4938.2833964542860485
 21
326.7990367461404162
 31
0.0
  0
LINE
  5
1F0C5
  8
0
 10
4938.2076401075846661
 20
326.7124379583403879
 30
0.0
 11
4938.2833964542860485
 21
326.7124379583403879
 31
0.0
  0
ARC
  5
1F0C6
  8
0
 10
4938.2076478002863951
 20
326.7557373522403736
 30
0.0
 40
0.0432993945833549
 50
90.0101793396953269
 51
269.9898206603047015
  0
LINE
  5
1F0C7
  8
0
 10
4938.2076401075846661
 20
326.6354024270403897
 30
0.0
 11
4938.2833964542860485
 21
326.6354024270403897
 31
0.0
  0
LINE
  5
1F0C8
  8
0
 10
4938.2076401075846661
 20
326.5488036391403739
 30
0.0
 11
4938.2833964542860485
 21
326.5488036391403739
 31
0.0
  0
ARC
  5
1F0C9
  8
0
 10
4938.2076478002863951
 20
326.592103033140404
 30
0.0
 40
0.0432993945833549
 50
90.0101793396953269
 51
269.9898206603047015
  0
LINE
  5
1F0CA
  8
0
 10
4938.2019548881862647
 20
326.709851272040396
 30
0.0
 11
4938.2833964542860485
 21
326.709851272040396
 31
0.0
  0
ARC
  5
1F0CB
  8
0
 10
4938.2019654537098177
 20
326.6704135919356986
 30
0.0
 40
0.0394376815199604
 50
90.015349784533143
 51
254.8601140991540035
  0
LINE
  5
1F0CC
  8
0
 10
4938.2060714870231095
 20
326.8586717449402954
 30
0.0
 11
4938.2833964542860485
 21
326.8586717449402954
 31
0.0
  0
ARC
  5
1F0CD
  8
0
 10
4938.2021866024888368
 20
326.8192642367690723
 30
0.0
 40
0.0395985356814831
 50
84.3698395793607432
 51
233.0159367275439024
  0
LINE
  5
1F0CE
  8
0
 10
4938.2076401075846661
 20
327.7212085590404058
 30
0.0
 11
4938.2833964542860485
 21
327.7212085590404058
 31
0.0
  0
LINE
  5
1F0CF
  8
0
 10
4938.2076401075846661
 20
327.6983056188403793
 30
0.0
 11
4938.2833964542860485
 21
327.6983056188403793
 31
0.0
  0
LINE
  5
1F0D0
  8
0
 10
4938.2076401075846661
 20
327.6514065870402987
 30
0.0
 11
4938.2833964542860485
 21
327.6514065870402987
 31
0.0
  0
ARC
  5
1F0D1
  8
0
 10
4938.2076617702532531
 20
327.6778952001373
 30
0.0
 40
0.0433133643202131
 50
90.028655806549736
 51
194.341261670736003
  0
ARC
  5
1F0D2
  8
0
 10
4938.2084054200331593
 20
327.653460940000798
 30
0.0
 40
0.0448512087168265
 50
90.9777061207069835
 51
211.6743438495010992
  0
ARC
  5
1F0D3
  8
0
 10
4938.2076401075846661
 20
327.6081148858403935
 30
0.0
 40
0.0432917011999985
 50
90.0
 51
233.7456644998075888
  0
LINE
  5
1F0D4
  8
0
 10
4938.2019548881862647
 20
327.3834415827403745
 30
0.0
 11
4938.2833964542860485
 21
327.3834415827403745
 31
0.0
  0
ARC
  5
1F0D5
  8
0
 10
4938.2019366621379959
 20
327.4228498678738219
 30
0.0
 40
0.0393942767496328
 50
158.023171985527199
 51
270.0265083093025282
  0
ARC
  5
1F0D6
  8
0
 10
4938.2019548881862647
 20
327.4965403643403761
 30
0.0
 40
0.0394285440999933
 50
146.2613258879439968
 51
219.9023057443116898
  0
ARC
  5
1F0D7
  8
0
 10
4938.1983419112129923
 20
327.5017123491214193
 30
0.0
 40
0.0385974412058387
 50
144.8243261341445134
 51
193.6174783310827934
  0
ARC
  5
1F0D8
  8
0
 10
4938.2087704978976035
 20
327.4811618011240171
 30
0.0
 40
0.0492924658654915
 50
159.6074108289442108
 51
203.1707199940927069
  0
ARC
  5
1F0D9
  8
0
 10
4938.1952981897857171
 20
327.4463250502403753
 30
0.0
 40
0.0353904656000068
 50
133.2961561788933977
 51
205.6514730972905056
  0
ARC
  5
1F0DA
  8
0
 10
4938.1952981897857171
 20
327.3886544635403766
 30
0.0
 40
0.0353904656000049
 50
147.2552311439719972
 51
229.6360685807374011
  0
ARC
  5
1F0DB
  8
0
 10
4938.1897464040857813
 20
327.3861349231403892
 30
0.0
 40
0.0334633501999989
 50
137.3563730824261029
 51
220.2245091578838867
  0
ARC
  5
1F0DC
  8
0
 10
4938.1894015783145733
 20
327.4181378537102205
 30
0.0
 40
0.0331160560525293
 50
147.5072181586253066
 51
185.8194912987997895
  0
ARC
  5
1F0DD
  8
0
 10
4938.1897464040857813
 20
327.4113804015403844
 30
0.0
 40
0.0334633501999899
 50
142.7662831744931964
 51
202.1610237284760956
  0
ARC
  5
1F0DE
  8
0
 10
4938.1897464040857813
 20
327.4061055003404022
 30
0.0
 40
0.0334633502001212
 50
175.4794818893799118
 51
197.3612146199486119
  0
ARC
  5
1F0DF
  8
0
 10
4938.1897464040857813
 20
327.3429147071403804
 30
0.0
 40
0.0334633502000003
 50
132.8824756059082119
 51
213.4526283119076879
  0
ARC
  5
1F0E0
  8
0
 10
4938.1897464040857813
 20
327.3757029533402942
 30
0.0
 40
0.0334633501999871
 50
171.0326521148379868
 51
209.3348493638542891
  0
ARC
  5
1F0E1
  8
0
 10
4938.2019728003206183
 20
327.3304355379835897
 30
0.0
 40
0.0394458384101381
 50
159.4230179437720096
 51
269.9739823041875866
  0
LINE
  5
1F0E2
  8
0
 10
4938.2019548881871742
 20
327.2909897036403777
 30
0.0
 11
4938.2833964542860485
 21
327.2909897036403777
 31
0.0
  0
LINE
  5
1F0E3
  8
0
 10
4938.1952981897857171
 20
327.277562391340382
 30
0.0
 11
4938.2833964542860485
 21
327.277562391340382
 31
0.0
  0
ARC
  5
1F0E4
  8
0
 10
4938.1954522439664288
 20
327.3129801366774814
 30
0.0
 40
0.0355339627824141
 50
157.1839723952784027
 51
269.7515987167566891
  0
LINE
  5
1F0E5
  8
0
 10
4938.2019548881862647
 20
327.2606784931404036
 30
0.0
 11
4938.2833964542860485
 21
327.2606784931404036
 31
0.0
  0
ARC
  5
1F0E6
  8
0
 10
4938.2019548881862647
 20
327.2212499490403843
 30
0.0
 40
0.0394285441000015
 50
90.0
 51
197.4892173509381905
  0
ARC
  5
1F0E7
  8
0
 10
4938.1952981897857171
 20
327.2209112792403971
 30
0.0
 40
0.0353904656000016
 50
126.0212739840818017
 51
210.4736670494467035
  0
ARC
  5
1F0E8
  8
0
 10
4938.1897464040857813
 20
327.2067918945404017
 30
0.0
 40
0.0334633501999986
 50
153.0254944621476909
 51
256.8026566631851892
  0
ARC
  5
1F0E9
  8
0
 10
4938.1840255508859627
 20
327.2032487637404188
 30
0.0
 40
0.0315359137999985
 50
139.5781833461088013
 51
273.3114131342447877
  0
ARC
  5
1F0EA
  8
0
 10
4938.1763745702000961
 20
327.2168574872096087
 30
0.0
 40
0.0279273518396968
 50
114.8128046046892052
 51
211.2614019696092953
  0
ARC
  5
1F0EB
  8
0
 10
4938.1898248145889738
 20
327.2827089391420827
 30
0.0
 40
0.0335201072987119
 50
146.3959641708244135
 51
247.4493924650026031
  0
ARC
  5
1F0EC
  8
0
 10
4938.1840255508859627
 20
327.2670921217404043
 30
0.0
 40
0.0315359137999881
 50
151.5063141364865942
 51
235.6035563282823091
  0
ARC
  5
1F0ED
  8
0
 10
4938.1776326024846639
 20
327.24176358434039
 30
0.0
 40
0.0295205686999963
 50
144.5700945909457005
 51
206.0910172854460995
  0
ARC
  5
1F0EE
  8
0
 10
4938.1776326024846639
 20
327.2333291369404265
 30
0.0
 40
0.0295205686999941
 50
171.7867900826599907
 51
197.5727529385528101
  0
ARC
  5
1F0EF
  8
0
 10
4938.1776326024846639
 20
327.2476672943403742
 30
0.0
 40
0.0295205686999856
 50
147.6336526439737895
 51
185.7387766988161957
  0
ARC
  5
1F0F0
  8
0
 10
4938.1840255508859627
 20
327.3101033988403969
 30
0.0
 40
0.0315359138000018
 50
142.1770549962496943
 51
213.7222715056012134
  0
ARC
  5
1F0F1
  8
0
 10
4938.1840255508859627
 20
327.3044586599403942
 30
0.0
 40
0.0315359138000474
 50
174.8653298759020061
 51
210.3541711568464052
  0
ARC
  5
1F0F2
  8
0
 10
4938.1884025798553921
 20
327.3299195266029074
 30
0.0
 40
0.0359926400048201
 50
152.4860917075833981
 51
196.7489763983058992
  0
ARC
  5
1F0F3
  8
0
 10
4938.1840255508859627
 20
326.6578294188403788
 30
0.0
 40
0.031535913800002
 50
128.392023800574492
 51
255.4358759671166013
  0
ARC
  5
1F0F4
  8
0
 10
4938.1897464040857813
 20
326.6616430888403784
 30
0.0
 40
0.0334633502000006
 50
145.7123294431436022
 51
253.3848807699021108
  0
ARC
  5
1F0F5
  8
0
 10
4938.1952981897857171
 20
326.5975791093404155
 30
0.0
 40
0.0353904655999983
 50
97.6558834267763132
 51
218.6993281833337903
  0
ARC
  5
1F0F6
  8
0
 10
4938.1776326024846639
 20
326.605762613540378
 30
0.0
 40
0.0295205686999974
 50
114.922333218792204
 51
245.0456683365480046
  0
ARC
  5
1F0F7
  8
0
 10
4938.149744712485699
 20
326.5969069255403952
 30
0.0
 40
0.0197239061000005
 50
117.5784492595778943
 51
231.473155457625495
  0
ARC
  5
1F0F8
  8
0
 10
4938.1952981897857171
 20
326.7349282964403869
 30
0.0
 40
0.0353904655999932
 50
150.5439378460654041
 51
244.1506451782919953
  0
ARC
  5
1F0F9
  8
0
 10
4938.1777976940757071
 20
326.72110739684382
 30
0.0
 40
0.0296123095700201
 50
129.9921221407512917
 51
253.5859310916272875
  0
ARC
  5
1F0FA
  8
0
 10
4938.16495030628721
 20
326.6289226409404023
 30
0.0
 40
0.025589859200002
 50
122.2964291741174065
 51
229.5371291103953126
  0
ARC
  5
1F0FB
  8
0
 10
4938.171393548085689
 20
326.669551594540394
 30
0.0
 40
0.0276689737000016
 50
108.7487014824969975
 51
231.230574842458509
  0
ARC
  5
1F0FC
  8
0
 10
4938.1542027816858536
 20
326.7004986686404209
 30
0.0
 40
0.0216837213999994
 50
132.8927623450445026
 51
247.6535554827812859
  0
ARC
  5
1F0FD
  8
0
 10
4938.1478777277861809
 20
326.6999215386404103
 30
0.0
 40
0.0196764917000005
 50
129.6460047756931999
 51
243.8974624973253924
  0
ARC
  5
1F0FE
  8
0
 10
4938.1776314277858546
 20
326.8321489333404202
 30
0.0
 40
0.0295188773000037
 50
122.1927331307193043
 51
235.3392664253067892
  0
ARC
  5
1F0FF
  8
0
 10
4938.1952981897857171
 20
326.8688496259404133
 30
0.0
 40
0.0353904655999957
 50
135.2179423477224134
 51
226.095156209070808
  0
ARC
  5
1F100
  8
0
 10
4938.1840255508859627
 20
326.9089184566403787
 30
0.0
 40
0.0315359138000005
 50
115.9262687708200019
 51
219.5833412053181917
  0
ARC
  5
1F101
  8
0
 10
4938.1897464040857813
 20
326.9035975009404069
 30
0.0
 40
0.0334633501999996
 50
135.346543872935797
 51
217.0752978540494098
  0
ARC
  5
1F102
  8
0
 10
4938.16495030628721
 20
326.8705239468403079
 30
0.0
 40
0.0255898592000038
 50
110.5126534408585997
 51
216.8685424220479092
  0
ARC
  5
1F103
  8
0
 10
4938.171393548085689
 20
326.8615836566403914
 30
0.0
 40
0.0276689736999998
 50
112.8612083285900951
 51
220.6626623304464943
  0
ARC
  5
1F104
  8
0
 10
4938.1542027816858536
 20
326.8660827564403917
 30
0.0
 40
0.021683721399998
 50
150.1601609958553922
 51
256.8488451596701907
  0
ARC
  5
1F105
  8
0
 10
4938.1591436754861206
 20
326.8860180260404036
 30
0.0
 40
0.0235151555999988
 50
106.4326128237315032
 51
213.3064608984950041
  0
ARC
  5
1F106
  8
0
 10
4938.1542038931665957
 20
326.8992070874389242
 30
0.0
 40
0.0216845994413875
 50
112.0134274171566062
 51
211.4434674677711996
  0
ARC
  5
1F107
  8
0
 10
4938.2019714530788406
 20
326.9627686863610734
 30
0.0
 40
0.0394429618576304
 50
90.0240625552783484
 51
218.0997219175233113
  0
ARC
  5
1F108
  8
0
 10
4938.1952981897857171
 20
326.9963515167403898
 30
0.0
 40
0.0353904655999979
 50
105.6998537063948049
 51
212.2533719348143961
  0
ARC
  5
1F109
  8
0
 10
4938.171393548085689
 20
326.9462488752404283
 30
0.0
 40
0.0276689737000022
 50
105.8355706061413031
 51
214.267349773719701
  0
ARC
  5
1F10A
  8
0
 10
4938.1776326024846639
 20
326.9356042554404098
 30
0.0
 40
0.0295205686999938
 50
120.6832049209892972
 51
216.3535252198612966
  0
ARC
  5
1F10B
  8
0
 10
4938.16495030628721
 20
326.9365908686403941
 30
0.0
 40
0.0255898591999976
 50
143.9704118281869967
 51
241.917268953025598
  0
ARC
  5
1F10C
  8
0
 10
4938.1591436754861206
 20
326.9389498456404226
 30
0.0
 40
0.0235151556000009
 50
127.5062663854128004
 51
235.6294373855880053
  0
ARC
  5
1F10D
  8
0
 10
4938.1542027816858536
 20
326.9184457955403786
 30
0.0
 40
0.0216837214000071
 50
143.1339261259388138
 51
206.3355365164960062
  0
ARC
  5
1F10E
  8
0
 10
4938.1542027816858536
 20
326.9229569621404039
 30
0.0
 40
0.0216837213999855
 50
147.0520338786315904
 51
185.9708206924838123
  0
ARC
  5
1F10F
  8
0
 10
4938.1542027816858536
 20
326.9125437978403852
 30
0.0
 40
0.0216837213998984
 50
172.1781827360468071
 51
197.9111404135441035
  0
ARC
  5
1F110
  8
0
 10
4938.1542027816858536
 20
326.8876614079404135
 30
0.0
 40
0.0216837214000015
 50
164.5589999490036064
 51
226.9237320487798968
  0
LINE
  5
1F111
  8
0
 10
4938.2019548881862647
 20
327.0022116447403846
 30
0.0
 11
4938.2833964542860485
 21
327.0022116447403846
 31
0.0
  0
ARC
  5
1F112
  8
0
 10
4938.2019811004956864
 20
327.0977677700561799
 30
0.0
 40
0.0394509533922905
 50
90.0380689105463716
 51
205.4604803883862019
  0
ARC
  5
1F113
  8
0
 10
4938.1954691449072925
 20
327.1145425297493716
 30
0.0
 40
0.0355500176431226
 50
90.2755285451355149
 51
202.6146523596518136
  0
ARC
  5
1F114
  8
0
 10
4938.1897479492008642
 20
327.1169299563841264
 30
0.0
 40
0.0334646671919604
 50
90.0026454330684658
 51
215.5810463425391958
  0
ARC
  5
1F115
  8
0
 10
4938.1840255508859627
 20
327.1205131727404023
 30
0.0
 40
0.0315359137999991
 50
90.0
 51
227.0333452028517058
  0
ARC
  5
1F116
  8
0
 10
4938.1776326024846639
 20
327.1074190320404114
 30
0.0
 40
0.0295205687000019
 50
148.0205747643207133
 51
247.1678607317664103
  0
ARC
  5
1F117
  8
0
 10
4938.171393548085689
 20
327.0800933028403961
 30
0.0
 40
0.0276689736999999
 50
141.1473237552150124
 51
251.8013264066528052
  0
ARC
  5
1F118
  8
0
 10
4938.1897464040857813
 20
327.0151070730403831
 30
0.0
 40
0.0334633501999994
 50
122.3140078131799982
 51
207.4944405288412099
  0
ARC
  5
1F119
  8
0
 10
4938.1840255508859627
 20
327.0213992280404227
 30
0.0
 40
0.0315359138000025
 50
119.1714775259118966
 51
216.6104486229334043
  0
ARC
  5
1F11A
  8
0
 10
4938.1774558312372392
 20
327.0283628575529065
 30
0.0
 40
0.0293882765084828
 50
112.6758879063709031
 51
219.3391523337919864
  0
ARC
  5
1F11B
  8
0
 10
4938.171393548085689
 20
327.0198306725404223
 30
0.0
 40
0.027668973699999
 50
143.472655932664594
 51
245.5676804627561864
  0
ARC
  5
1F11C
  8
0
 10
4938.16495030628721
 20
327.0346752469404237
 30
0.0
 40
0.0255898591999993
 50
113.8069360056384056
 51
213.9781772324147937
  0
ARC
  5
1F11D
  8
0
 10
4938.1662852559666135
 20
327.0302936289103855
 30
0.0
 40
0.0263676623196288
 50
182.220505468063493
 51
212.1230111356831003
  0
ARC
  5
1F11E
  8
0
 10
4938.162141818254895
 20
326.9969631366939211
 30
0.0
 40
0.02654389993097
 50
133.258546175688906
 51
203.8059561745716906
  0
ARC
  5
1F11F
  8
0
 10
4938.16495030628721
 20
326.991867822740403
 30
0.0
 40
0.025589859200003
 50
137.9931464000923995
 51
246.6044748306977112
  0
ARC
  5
1F120
  8
0
 10
4938.1591436754861206
 20
326.9762583686404014
 30
0.0
 40
0.0235151555999992
 50
146.6478334209620868
 51
235.553955329000587
  0
ARC
  5
1F121
  8
0
 10
4938.1591436754861206
 20
326.9481546195403894
 30
0.0
 40
0.0235151556000208
 50
143.3041746941171937
 51
191.2867887793904913
  0
ARC
  5
1F122
  8
0
 10
4938.1683397021333803
 20
327.0627072403901252
 30
0.0
 40
0.0290813813870114
 50
147.6068905721184876
 51
210.0974338859271029
  0
ARC
  5
1F123
  8
0
 10
4938.16495030628721
 20
327.0780971787403928
 30
0.0
 40
0.0255898592000065
 50
127.1565554067593951
 51
196.5051103906191088
  0
ARC
  5
1F124
  8
0
 10
4938.171393548085689
 20
327.0935503449404109
 30
0.0
 40
0.0276689737000159
 50
147.2107722317591936
 51
182.3313629569474017
  0
ARC
  5
1F125
  8
0
 10
4938.171393548085689
 20
327.1252057166403802
 30
0.0
 40
0.0276689736999957
 50
120.4033437960376034
 51
213.1628638252419989
  0
ARC
  5
1F126
  8
0
 10
4938.171393548085689
 20
327.1537971961403741
 30
0.0
 40
0.0276689736999936
 50
147.0974723914721949
 51
211.1091724432808974
  0
ARC
  5
1F127
  8
0
 10
4938.1776326024846639
 20
327.1705576754404206
 30
0.0
 40
0.0295205687000021
 50
138.8277937799961137
 51
241.6895095101388051
  0
ARC
  5
1F128
  8
0
 10
4938.1727538822869974
 20
327.1644542302746004
 30
0.0
 40
0.0290945904488015
 50
136.8112279155874091
 51
191.0307262481294117
  0
ARC
  5
1F129
  8
0
 10
4938.1693225373901441
 20
327.1348200254680023
 30
0.0
 40
0.0255692357257052
 50
158.7736796671021011
 51
190.4401074712988873
  0
LINE
  5
1F12A
  8
0
 10
4938.1952981897857171
 20
327.1500921363403904
 30
0.0
 11
4938.2833964542860485
 21
327.1500921363403904
 31
0.0
  0
LINE
  5
1F12B
  8
0
 10
4938.1840255508859627
 20
327.1520490865403872
 30
0.0
 11
4938.2833964542860485
 21
327.1520490865403872
 31
0.0
  0
LINE
  5
1F12C
  8
0
 10
4938.1897464040857813
 20
327.1503934067404202
 30
0.0
 11
4938.2833964542860485
 21
327.1503934067404202
 31
0.0
  0
LINE
  5
1F12D
  8
0
 10
4938.2019548881862647
 20
327.1372187147404134
 30
0.0
 11
4938.2833964542860485
 21
327.1372187147404134
 31
0.0
  0
ARC
  5
1F12E
  8
0
 10
4938.2019548881862647
 20
327.5497555766403934
 30
0.0
 40
0.0394285441000029
 50
132.0240409489144042
 51
197.494793244078096
  0
ARC
  5
1F12F
  8
0
 10
4938.2019548881862647
 20
327.5813410363404046
 30
0.0
 40
0.0394285440999976
 50
156.5310538841272034
 51
203.6119738060313011
  0
ARC
  5
1F130
  8
0
 10
4938.2019548881862647
 20
327.5905911766403733
 30
0.0
 40
0.0394285440999845
 50
161.2428513586345105
 51
186.7364525266413011
  0
ARC
  5
1F131
  8
0
 10
4938.2019548881862647
 20
327.5417625172403859
 30
0.0
 40
0.0394285440999831
 50
174.1824326585031883
 51
206.9901859953639871
  0
ARC
  5
1F132
  8
0
 10
4938.2076401075855756
 20
327.5276637007403906
 30
0.0
 40
0.0432917012001308
 50
177.2302150369062019
 51
188.9364895337816108
  0
ARC
  5
1F133
  8
0
 10
4938.1542027816858536
 20
326.6312867757404206
 30
0.0
 40
0.0216837213999994
 50
133.7833673163324022
 51
249.9407681023477039
  0
ARC
  5
1F134
  8
0
 10
4938.1591436754861206
 20
326.6593985409404013
 30
0.0
 40
0.0235151555999997
 50
126.5476855236097009
 51
226.9329466165688984
  0
ARC
  5
1F135
  8
0
 10
4938.149744712485699
 20
326.6655703694403883
 30
0.0
 40
0.0197239061000015
 50
116.1947711526956937
 51
231.8595733448165959
  0
ARC
  5
1F136
  8
0
 10
4938.1468362792702465
 20
326.6738007119608938
 30
0.0
 40
0.0199424956513505
 50
135.9936783417626032
 51
213.5710066532139138
  0
ARC
  5
1F137
  8
0
 10
4938.1458283522861166
 20
326.6434997260403748
 30
0.0
 40
0.019651440599995
 50
135.3904990362555054
 51
209.012314319692706
  0
ARC
  5
1F138
  8
0
 10
4938.1478777277861809
 20
326.6381142205403876
 30
0.0
 40
0.0196764916999988
 50
131.8771558088787117
 51
223.3758265204776023
  0
ARC
  5
1F139
  8
0
 10
4938.1465582332848498
 20
326.615125650340417
 30
0.0
 40
0.0196514406000046
 50
140.9273524583879009
 51
217.7383491059248115
  0
ARC
  5
1F13A
  8
0
 10
4938.1478777277861809
 20
326.6606687640403948
 30
0.0
 40
0.0196764916999969
 50
166.2089469679594913
 51
199.3498376191116108
  0
ARC
  5
1F13B
  8
0
 10
4938.1713870268858955
 20
326.7684093249404214
 30
0.0
 40
0.0276618344999962
 50
132.8748126022694009
 51
247.5104787049604909
  0
ARC
  5
1F13C
  8
0
 10
4938.1840255508859627
 20
326.7864885297403816
 30
0.0
 40
0.0315359137999963
 50
130.5583769511661956
 51
232.2959039414699021
  0
ARC
  5
1F13D
  8
0
 10
4938.16495030628721
 20
326.7956744673404046
 30
0.0
 40
0.0255898591999986
 50
120.6661245155550972
 51
221.3448553592415067
  0
ARC
  5
1F13E
  8
0
 10
4938.1496811298211469
 20
326.7814283748380717
 30
0.0
 40
0.0196729453279003
 50
121.1964740384127026
 51
213.8934698638867076
  0
ARC
  5
1F13F
  8
0
 10
4938.1542027816858536
 20
326.7645087255403951
 30
0.0
 40
0.0216837213999987
 50
121.8481038968438952
 51
217.7939561926957026
  0
ARC
  5
1F140
  8
0
 10
4938.1591436754861206
 20
326.7431197024404241
 30
0.0
 40
0.0235151556000052
 50
128.2649226033886123
 51
224.8372719965566091
  0
ARC
  5
1F141
  8
0
 10
4938.1649504693859853
 20
326.7143153019404167
 30
0.0
 40
0.0255900605000014
 50
118.7007661176319999
 51
244.8907949933613963
  0
ARC
  5
1F142
  8
0
 10
4938.1497149464148606
 20
326.7285148499219076
 30
0.0
 40
0.019693084730755
 50
135.606954844396995
 51
229.3927996294694935
  0
ARC
  5
1F143
  8
0
 10
4938.1478777277861809
 20
326.7183081710404053
 30
0.0
 40
0.0196764917000156
 50
154.6113334805772865
 51
188.9313889332146061
  0
ARC
  5
1F144
  8
0
 10
4938.1465582332848498
 20
326.7076440269403861
 30
0.0
 40
0.0196514406000055
 50
139.0491878081722064
 51
201.0071507527231063
  0
ARC
  5
1F145
  8
0
 10
4938.1897464040857813
 20
326.7848922800404239
 30
0.0
 40
0.033463350200003
 50
138.8216650371406047
 51
222.0035502345058944
  0
ARC
  5
1F146
  8
0
 10
4938.1591436754861206
 20
326.8197762842403904
 30
0.0
 40
0.023515155599999
 50
116.0864267627597997
 51
219.6341147240283078
  0
ARC
  5
1F147
  8
0
 10
4938.1542027816858536
 20
326.8205193999403946
 30
0.0
 40
0.0216837213999971
 50
113.5106893289840002
 51
231.2260394861413033
  0
ARC
  5
1F148
  8
0
 10
4938.1501819263121433
 20
326.8208400212287188
 30
0.0
 40
0.0201032885530004
 50
92.0898005440530767
 51
241.2059553373644007
  0
ARC
  5
1F149
  8
0
 10
4938.149744712485699
 20
326.8052730643403834
 30
0.0
 40
0.0197239060999991
 50
156.6644031592942099
 51
217.191155910421287
  0
ARC
  5
1F14A
  8
0
 10
4938.1478777277861809
 20
326.747442648040419
 30
0.0
 40
0.0196764917000018
 50
139.3857393945698107
 51
214.3838344401202107
  0
ARC
  5
1F14B
  8
0
 10
4938.1500607019779636
 20
326.7592322204291122
 30
0.0
 40
0.0218200027597164
 50
158.436412220247405
 51
195.9166380481129863
  0
ARC
  5
1F14C
  8
0
 10
4938.1478777277861809
 20
326.7749458013403796
 30
0.0
 40
0.0196764916999956
 50
154.5781364593129865
 51
219.1057089714975064
  0
ARC
  5
1F14D
  8
0
 10
4938.1478777277861809
 20
326.7791137125403793
 30
0.0
 40
0.0196764917000135
 50
137.7315569764699035
 51
186.0796518520645861
  0
ARC
  5
1F14E
  8
0
 10
4938.149744712485699
 20
326.8436879387404019
 30
0.0
 40
0.0197239061000047
 50
139.4827149739236063
 51
215.3277857411094089
  0
ARC
  5
1F14F
  8
0
 10
4938.149744712485699
 20
326.83570060944038
 30
0.0
 40
0.0197239060999959
 50
168.3180742221655919
 51
202.2407027799301034
  0
ARC
  5
1F150
  8
0
 10
4938.149744712485699
 20
326.8488032076404011
 30
0.0
 40
0.0197239060999939
 50
145.8329904065955134
 51
187.4506274380497075
  0
LINE
  5
1F151
  8
0
 10
4938.2076401075846661
 20
325.5919977784403727
 30
0.0
 11
4938.2833964542860485
 21
325.5919977784403727
 31
0.0
  0
LINE
  5
1F152
  8
0
 10
4938.2076401075846661
 20
325.678596566240401
 30
0.0
 11
4938.2833964542860485
 21
325.678596566240401
 31
0.0
  0
ARC
  5
1F153
  8
0
 10
4938.2076478002863951
 20
325.6352971723404153
 30
0.0
 40
0.0432993945833549
 50
90.0101793396953269
 51
269.9898206603047015
  0
LINE
  5
1F154
  8
0
 10
4938.2076401075846661
 20
325.6857996626404201
 30
0.0
 11
4938.2833964542860485
 21
325.6857996626404201
 31
0.0
  0
LINE
  5
1F155
  8
0
 10
4938.2076401075846661
 20
325.7723984504403916
 30
0.0
 11
4938.2833964542860485
 21
325.7723984504403916
 31
0.0
  0
ARC
  5
1F156
  8
0
 10
4938.2076478002863951
 20
325.7290990565404059
 30
0.0
 40
0.0432993945833549
 50
90.0101793396953269
 51
269.9898206603047015
  0
LINE
  5
1F157
  8
0
 10
4938.2076401075846661
 20
325.7986574660403107
 30
0.0
 11
4938.2833964542860485
 21
325.7986574660403107
 31
0.0
  0
LINE
  5
1F158
  8
0
 10
4938.2076401075846661
 20
325.8852562538403959
 30
0.0
 11
4938.2833964542860485
 21
325.8852562538403959
 31
0.0
  0
ARC
  5
1F159
  8
0
 10
4938.2076478002863951
 20
325.8419568599404101
 30
0.0
 40
0.0432993945833549
 50
90.0101793396953269
 51
269.9898206603047015
  0
LINE
  5
1F15A
  8
0
 10
4938.2076401075846661
 20
325.9283106726404071
 30
0.0
 11
4938.2833964542860485
 21
325.9283106726404071
 31
0.0
  0
LINE
  5
1F15B
  8
0
 10
4938.2076401075846661
 20
326.0146489195403774
 30
0.0
 11
4938.2833964542860485
 21
326.0146489195403774
 31
0.0
  0
ARC
  5
1F15C
  8
0
 10
4938.2075175066902375
 20
325.9714797960904207
 30
0.0
 40
0.043169297543755
 50
89.8372796462801944
 51
270.1627203537198056
  0
LINE
  5
1F15D
  8
0
 10
4938.2076401075846661
 20
326.0710568142404213
 30
0.0
 11
4938.2833964542860485
 21
326.0710568142404213
 31
0.0
  0
LINE
  5
1F15E
  8
0
 10
4938.2076401075846661
 20
326.1576556020403928
 30
0.0
 11
4938.2833964542860485
 21
326.1576556020403928
 31
0.0
  0
ARC
  5
1F15F
  8
0
 10
4938.2076478002863951
 20
326.114356208140407
 30
0.0
 40
0.0432993945833549
 50
90.0101793396953269
 51
269.9898206603047015
  0
LINE
  5
1F160
  8
0
 10
4938.2076401075846661
 20
326.2244983660403932
 30
0.0
 11
4938.2833964542860485
 21
326.2244983660403932
 31
0.0
  0
LINE
  5
1F161
  8
0
 10
4938.2076401075846661
 20
326.3110971538404215
 30
0.0
 11
4938.2833964542860485
 21
326.3110971538404215
 31
0.0
  0
ARC
  5
1F162
  8
0
 10
4938.2076478002863951
 20
326.2677977599403789
 30
0.0
 40
0.0432993945833549
 50
90.0101793396953269
 51
269.9898206603047015
  0
LINE
  5
1F163
  8
0
 10
4938.2076401075846661
 20
326.3849317710403852
 30
0.0
 11
4938.2833964542860485
 21
326.3849317710403852
 31
0.0
  0
LINE
  5
1F164
  8
0
 10
4938.2076401075846661
 20
326.471545944240404
 30
0.0
 11
4938.2833964542860485
 21
326.471545944240404
 31
0.0
  0
ARC
  5
1F165
  8
0
 10
4938.2076478002863951
 20
326.4282465503403046
 30
0.0
 40
0.0432993945833549
 50
90.0101793396953269
 51
269.9898206603047015
  0
LINE
  5
1F166
  8
0
 10
4938.2060714870231095
 20
326.3307037765404175
 30
0.0
 11
4938.2833964542860485
 21
326.3307037765404175
 31
0.0
  0
LINE
  5
1F167
  8
0
 10
4938.2076401075846661
 20
325.4417446213403764
 30
0.0
 11
4938.2833964542860485
 21
325.4417446213403764
 31
0.0
  0
LINE
  5
1F168
  8
0
 10
4938.2076401075846661
 20
325.4693801971404241
 30
0.0
 11
4938.2833964542860485
 21
325.4693801971404241
 31
0.0
  0
LINE
  5
1F169
  8
0
 10
4938.2076401075846661
 20
325.519301379940373
 30
0.0
 11
4938.2833964542860485
 21
325.519301379940373
 31
0.0
  0
ARC
  5
1F16A
  8
0
 10
4938.2076617702532531
 20
325.4850579802434254
 30
0.0
 40
0.0433133643202131
 50
161.7384794153045107
 51
269.971344193450193
  0
ARC
  5
1F16B
  8
0
 10
4938.2073833805497998
 20
325.512534084162894
 30
0.0
 40
0.0431546506638603
 50
144.4480412506329969
 51
270.3408546268938153
  0
ARC
  5
1F16C
  8
0
 10
4938.2076401075846661
 20
325.5625930811403919
 30
0.0
 40
0.0432917011999985
 50
122.8966370795912013
 51
270.0
  0
LINE
  5
1F16D
  8
0
 10
4938.2019548881862647
 20
325.7947874979403764
 30
0.0
 11
4938.2833964542860485
 21
325.7947874979403764
 31
0.0
  0
ARC
  5
1F16E
  8
0
 10
4938.2019366621379959
 20
325.7553792128068721
 30
0.0
 40
0.0393942767496328
 50
89.973491690697557
 51
203.15137177620241
  0
ARC
  5
1F16F
  8
0
 10
4938.2025393432732017
 20
325.6781354380469224
 30
0.0
 40
0.039908962903649
 50
139.3378176610069943
 51
214.0956636857636965
  0
ARC
  5
1F170
  8
0
 10
4938.2003764625151234
 20
325.6614808833838879
 30
0.0
 40
0.0405541637314099
 50
161.7174332485018908
 51
208.6062891449496135
  0
ARC
  5
1F171
  8
0
 10
4938.1947146077782236
 20
325.6856612314177823
 30
0.0
 40
0.0347864849878211
 50
142.0892127265094871
 51
205.5959830080406903
  0
ARC
  5
1F172
  8
0
 10
4938.1983972523412376
 20
325.7294772334548725
 30
0.0
 40
0.0383744889898893
 50
154.6953119867750956
 51
224.4598174202548932
  0
ARC
  5
1F173
  8
0
 10
4938.2002165257708839
 20
325.7886181175074967
 30
0.0
 40
0.0401389834234222
 50
134.4899677085859935
 51
208.8603587389079053
  0
ARC
  5
1F174
  8
0
 10
4938.1863354932420407
 20
325.7887057907760209
 30
0.0
 40
0.0300523775349818
 50
127.7807755646318952
 51
223.6815869542984103
  0
ARC
  5
1F175
  8
0
 10
4938.1894015783145733
 20
325.7580758768705778
 30
0.0
 40
0.0331160560525293
 50
174.1805087012000968
 51
212.4927818413746934
  0
ARC
  5
1F176
  8
0
 10
4938.1897464040857813
 20
325.7648333290404139
 30
0.0
 40
0.0334633501999899
 50
158.4909483844340912
 51
217.2337168255068036
  0
ARC
  5
1F177
  8
0
 10
4938.1897464040857813
 20
325.7701082302402824
 30
0.0
 40
0.0334633502001212
 50
163.4102415252795879
 51
184.5205181106200882
  0
ARC
  5
1F178
  8
0
 10
4938.1896347472884372
 20
325.8353846323582843
 30
0.0
 40
0.0333699858273629
 50
143.6732282435532113
 51
226.1791672925554053
  0
ARC
  5
1F179
  8
0
 10
4938.2019728003206183
 20
325.8509623095970937
 30
0.0
 40
0.0394458384101381
 50
90.0260176958123139
 51
198.0489427307448125
  0
LINE
  5
1F17A
  8
0
 10
4938.2019548881871742
 20
325.8904081439404194
 30
0.0
 11
4938.2833964542860485
 21
325.8904081439404194
 31
0.0
  0
LINE
  5
1F17B
  8
0
 10
4938.1952981897857171
 20
325.905586185440427
 30
0.0
 11
4938.2833964542860485
 21
325.905586185440427
 31
0.0
  0
LINE
  5
1F17C
  8
0
 10
4938.2019548881862647
 20
325.9234620852403737
 30
0.0
 11
4938.2833964542860485
 21
325.9234620852403737
 31
0.0
  0
ARC
  5
1F17D
  8
0
 10
4938.2019548881862647
 20
325.9628906293403929
 30
0.0
 40
0.0394285441000015
 50
162.5107826490618095
 51
270.0
  0
ARC
  5
1F17E
  8
0
 10
4938.201948216990786
 20
326.2253898079760006
 30
0.0
 40
0.0394051905003493
 50
145.7662504483920998
 51
270.0097000246283869
  0
ARC
  5
1F17F
  8
0
 10
4938.1954468347748843
 20
326.1956353801098203
 30
0.0
 40
0.0355246397567387
 50
150.5593019177771055
 51
269.7602577984476966
  0
LINE
  5
1F180
  8
0
 10
4938.2019548881862647
 20
326.1859846180403792
 30
0.0
 11
4938.2833964542860485
 21
326.1859846180403792
 31
0.0
  0
LINE
  5
1F181
  8
0
 10
4938.2019548881862647
 20
326.0492190150404213
 30
0.0
 11
4938.2833964542860485
 21
326.0492190150404213
 31
0.0
  0
ARC
  5
1F182
  8
0
 10
4938.2019548881862647
 20
325.620952390340392
 30
0.0
 40
0.0394285441000029
 50
162.505206755921904
 51
227.9759590510855958
  0
ARC
  5
1F183
  8
0
 10
4938.2117752629401366
 20
325.5873078792624824
 30
0.0
 40
0.0492939931539245
 50
158.7677541486710027
 51
199.1295951540375881
  0
ARC
  5
1F184
  8
0
 10
4938.2389091069735514
 20
325.5766525310800716
 30
0.0
 40
0.0765392325870241
 50
175.0825188166892872
 51
193.6612401114263946
  0
ARC
  5
1F185
  8
0
 10
4938.2019548881862647
 20
325.6289454497403995
 30
0.0
 40
0.0394285440999831
 50
159.7186174345243046
 51
185.8175673414968117
  0
ARC
  5
1F186
  8
0
 10
4938.2019666918167786
 20
326.5195824487066716
 30
0.0
 40
0.0394387466327322
 50
115.4600445158544062
 51
269.9828519319841007
  0
LINE
  5
1F187
  8
0
 10
4938.2019548881862647
 20
326.4801437038403833
 30
0.0
 11
4938.2833964542860485
 21
326.4801437038403833
 31
0.0
  0
ARC
  5
1F188
  8
0
 10
4938.2021288203877702
 20
326.3701004983299185
 30
0.0
 40
0.0395935134581212
 50
132.4205690306260976
 51
275.7149049109240195
  0
ARC
  5
1F189
  8
0
 10
4938.1458283522861166
 20
326.6283921046403975
 30
0.0
 40
0.0196514406000132
 50
157.3941447536319913
 51
202.9074591117835951
  0
ARC
  5
1F18A
  8
0
 10
4938.1458283522861166
 20
326.5965842116403905
 30
0.0
 40
0.0196514406000018
 50
149.5735225597769045
 51
227.8724650139126879
  0
ARC
  5
1F18B
  8
0
 10
4938.1897464040857813
 20
326.5366031104404101
 30
0.0
 40
0.0334633502000009
 50
119.4450965279953039
 51
215.816840670758296
  0
ARC
  5
1F18C
  8
0
 10
4938.1840255508859627
 20
326.5268503658404029
 30
0.0
 40
0.0315359137999959
 50
149.3987228178677924
 51
239.1751241250877911
  0
ARC
  5
1F18D
  8
0
 10
4938.171393548085689
 20
326.5680195481403985
 30
0.0
 40
0.0276689737000005
 50
130.726222942480689
 51
239.080174859188304
  0
ARC
  5
1F18E
  8
0
 10
4938.1591436754861206
 20
326.5722718162404021
 30
0.0
 40
0.0235151555999987
 50
111.5753684255830933
 51
246.6750810710722988
  0
ARC
  5
1F18F
  8
0
 10
4938.165521278901906
 20
326.5422666397068951
 30
0.0
 40
0.0260341676884877
 50
150.1418585997336947
 51
242.3232473025854006
  0
ARC
  5
1F190
  8
0
 10
4938.149744712485699
 20
326.5271919297404111
 30
0.0
 40
0.0197239060999977
 50
121.4837590883494016
 51
252.1345591375595916
  0
ARC
  5
1F191
  8
0
 10
4938.1542027816858536
 20
326.5598979386404039
 30
0.0
 40
0.0216837213999998
 50
148.795643532476987
 51
227.4512915563178126
  0
ARC
  5
1F192
  8
0
 10
4938.1464598229222247
 20
326.5475337472432784
 30
0.0
 40
0.0195693338265103
 50
140.370237917092993
 51
220.4342994416460897
  0
ARC
  5
1F193
  8
0
 10
4938.1461608849767799
 20
326.5702032154158019
 30
0.0
 40
0.0179452104227713
 50
129.4017203368165099
 51
220.7428099237064032
  0
ARC
  5
1F194
  8
0
 10
4938.1456011786849558
 20
326.5814755058403875
 30
0.0
 40
0.0196850393999806
 50
156.4311086994893003
 51
203.5656138514929125
  0
ARC
  5
1F195
  8
0
 10
4938.1458283522861166
 20
326.5663689687403917
 30
0.0
 40
0.0196514405999985
 50
143.5761514968370989
 51
210.857304774695109
  0
ARC
  5
1F196
  8
0
 10
4938.1458097195109076
 20
326.5345768279171921
 30
0.0
 40
0.0196450995412331
 50
157.4931479810242934
 51
219.7945952792956064
  0
ARC
  5
1F197
  8
0
 10
4938.1478777277861809
 20
326.5022844163403875
 30
0.0
 40
0.0196764917000005
 50
136.4562615888312109
 51
218.7177799983826105
  0
ARC
  5
1F198
  8
0
 10
4938.1542027816858536
 20
326.4894521922403783
 30
0.0
 40
0.0216837213999996
 50
83.1947309856706028
 51
222.5966836025829991
  0
ARC
  5
1F199
  8
0
 10
4938.1591436754861206
 20
326.4855473844403946
 30
0.0
 40
0.0235151555999989
 50
100.0217056166080027
 51
229.0721778494788055
  0
ARC
  5
1F19A
  8
0
 10
4938.1776087983280377
 20
326.4896989818848851
 30
0.0
 40
0.0294959474469503
 50
134.5305973772850052
 51
234.3046367505417038
  0
ARC
  5
1F19B
  8
0
 10
4938.1952981897857171
 20
326.4598702185404022
 30
0.0
 40
0.0353904655999942
 50
122.583360147479894
 51
214.0787435162040993
  0
ARC
  5
1F19C
  8
0
 10
4938.171393548085689
 20
326.466896387140423
 30
0.0
 40
0.027668973699999
 50
144.4348108589416881
 51
258.5725702307100278
  0
ARC
  5
1F19D
  8
0
 10
4938.1650448160025917
 20
326.4564910184496966
 30
0.0
 40
0.0256610598247764
 50
151.1595994946102053
 51
262.8233612312574223
  0
ARC
  5
1F19E
  8
0
 10
4938.149744712485699
 20
326.4611763438404068
 30
0.0
 40
0.0197239061000018
 50
140.363813268067787
 51
251.7564242716971989
  0
ARC
  5
1F19F
  8
0
 10
4938.1462100994112916
 20
326.4891816749533859
 30
0.0
 40
0.0193317068228672
 50
154.3684488151648964
 51
254.4413571025885972
  0
ARC
  5
1F1A0
  8
0
 10
4938.1478777277861809
 20
326.4630316417403719
 30
0.0
 40
0.0196764916999636
 50
140.8917739154813091
 51
181.973930578287991
  0
ARC
  5
1F1A1
  8
0
 10
4938.1465582332848498
 20
326.4553091533404086
 30
0.0
 40
0.0196514406000033
 50
142.3445164106285006
 51
202.781333541446088
  0
ARC
  5
1F1A2
  8
0
 10
4938.1478777277861809
 20
326.4446450093403769
 30
0.0
 40
0.0196764916999958
 50
148.7285614045906925
 51
224.9079950781278967
  0
ARC
  5
1F1A3
  8
0
 10
4938.1542027816858536
 20
326.4230283536404045
 30
0.0
 40
0.0216837213999995
 50
118.6025926986135062
 51
216.3711010065568132
  0
ARC
  5
1F1A4
  8
0
 10
4938.1897464040857813
 20
326.4125655314404071
 30
0.0
 40
0.0334633501999987
 50
138.0209347584662964
 51
226.896350745544197
  0
ARC
  5
1F1A5
  8
0
 10
4938.1840255508859627
 20
326.3975311030403077
 30
0.0
 40
0.0315359138000067
 50
151.6074609619550131
 51
227.5816504271436997
  0
ARC
  5
1F1A6
  8
0
 10
4938.1591436754861206
 20
326.4030155191404106
 30
0.0
 40
0.0235151556
 50
89.5313818520954072
 51
224.3587084866680073
  0
ARC
  5
1F1A7
  8
0
 10
4938.1466233400451529
 20
326.4029108181218248
 30
0.0
 40
0.0184318297179794
 50
134.6115661492605113
 51
254.3130057190942921
  0
ARC
  5
1F1A8
  8
0
 10
4938.149744712485699
 20
326.4033590209403997
 30
0.0
 40
0.0197239060999981
 50
143.0711317092562922
 51
245.993137101634602
  0
ARC
  5
1F1A9
  8
0
 10
4938.1478777277861809
 20
326.3838394678404029
 30
0.0
 40
0.0196764917000052
 50
150.4829910665418993
 51
223.4894822021612129
  0
ARC
  5
1F1AA
  8
0
 10
4938.1478777277861809
 20
326.41551053234042
 30
0.0
 40
0.0196764916999913
 50
137.9230332045158889
 51
198.9563804225668946
  0
ARC
  5
1F1AB
  8
0
 10
4938.149744712485699
 20
326.4344502190404
 30
0.0
 40
0.0197239060999864
 50
174.8737206884518969
 51
203.3784873825022999
  0
ARC
  5
1F1AC
  8
0
 10
4938.16495030628721
 20
326.3746082040403849
 30
0.0
 40
0.0255898591999983
 50
119.1263535024692999
 51
224.8497945081730052
  0
ARC
  5
1F1AD
  8
0
 10
4938.171393548085689
 20
326.3692546875403764
 30
0.0
 40
0.0276689736999999
 50
140.7175234360111915
 51
255.7281721584216996
  0
ARC
  5
1F1AE
  8
0
 10
4938.1776326024846639
 20
326.3764473470404255
 30
0.0
 40
0.0295205687000029
 50
146.9574999078215001
 51
253.3326102418612038
  0
ARC
  5
1F1AF
  8
0
 10
4938.1542027816858536
 20
326.3635294632404111
 30
0.0
 40
0.021683721400002
 50
131.2774389373232964
 51
238.0695489791187924
  0
ARC
  5
1F1B0
  8
0
 10
4938.1496424493416271
 20
326.3576798328243171
 30
0.0
 40
0.0196270918977288
 50
147.9637370480394054
 51
238.355213990739486
  0
ARC
  5
1F1B1
  8
0
 10
4938.149744712485699
 20
326.3422497806403726
 30
0.0
 40
0.0197239060999929
 50
156.9628304168973045
 51
202.3447392128516071
  0
ARC
  5
1F1B2
  8
0
 10
4938.149744712485699
 20
326.3272525709404022
 30
0.0
 40
0.0197239061
 50
129.4321293416849983
 51
210.8745348156624004
  0
ARC
  5
1F1B3
  8
0
 10
4938.1591436754861206
 20
326.3282832590404041
 30
0.0
 40
0.0235151556000015
 50
109.8825166307670997
 51
225.35781741340341
  0
ARC
  5
1F1B4
  8
0
 10
4938.1952981897857171
 20
326.3248778131404038
 30
0.0
 40
0.0353904656000001
 50
138.5789676638395918
 51
234.6260896081251133
  0
ARC
  5
1F1B5
  8
0
 10
4938.1897464040857813
 20
326.2923011464404226
 30
0.0
 40
0.0334633502000016
 50
144.6210974980076003
 51
220.8342852247660062
  0
ARC
  5
1F1B6
  8
0
 10
4938.1840255508859627
 20
326.2738009307403786
 30
0.0
 40
0.0315359137999995
 50
151.0195473290669099
 51
240.6319255212162034
  0
LINE
  5
1F1B7
  8
0
 10
4938.1952981897857171
 20
326.1602269348402956
 30
0.0
 11
4938.2833964542860485
 21
326.1602269348402956
 31
0.0
  0
ARC
  5
1F1B8
  8
0
 10
4938.1897464040857813
 20
326.1784964629403021
 30
0.0
 40
0.0334633501999992
 50
152.8460124484008134
 51
251.2413036074314903
  0
ARC
  5
1F1B9
  8
0
 10
4938.1776326024846639
 20
326.171861633140395
 30
0.0
 40
0.0295205687000048
 50
126.8643797822134047
 51
212.2396114630236923
  0
ARC
  5
1F1BA
  8
0
 10
4938.1840255508859627
 20
326.1594193277402951
 30
0.0
 40
0.0315359138000004
 50
150.8304669568553038
 51
239.8288275666650122
  0
ARC
  5
1F1BB
  8
0
 10
4938.1840255508859627
 20
325.858494520440388
 30
0.0
 40
0.0315359137999943
 50
135.597087199969593
 51
210.9610958303696009
  0
ARC
  5
1F1BC
  8
0
 10
4938.1856760624123126
 20
325.8329692495220797
 30
0.0
 40
0.0334000710532242
 50
156.7146611305919066
 51
228.121173721004709
  0
ARC
  5
1F1BD
  8
0
 10
4938.1897464040857813
 20
325.8200384732404018
 30
0.0
 40
0.0334633501999122
 50
185.5135824518488903
 51
208.7914916275333894
  0
ARC
  5
1F1BE
  8
0
 10
4938.1840255508859627
 20
325.8528497815403853
 30
0.0
 40
0.031535913800023
 50
174.8653298759182064
 51
197.4596674570117045
  0
ARC
  5
1F1BF
  8
0
 10
4938.1954437231561315
 20
325.8700674408265741
 30
0.0
 40
0.0355190427644394
 50
90.2347605840397904
 51
203.3969486959879021
  0
ARC
  5
1F1C0
  8
0
 10
4938.1897464040857813
 20
325.9002049718404237
 30
0.0
 40
0.0334633501999987
 50
110.4946818921213065
 51
213.5819034430732017
  0
ARC
  5
1F1C1
  8
0
 10
4938.1840255508859627
 20
325.9050781923403974
 30
0.0
 40
0.0315359138000011
 50
108.3827540323205056
 51
221.2278117604379872
  0
ARC
  5
1F1C2
  8
0
 10
4938.1776326024846639
 20
325.9637684106400002
 30
0.0
 40
0.0295205686993044
 50
143.8699452526855964
 51
260.9332373453613059
  0
ARC
  5
1F1C3
  8
0
 10
4938.1897479082799691
 20
325.9802338112351094
 30
0.0
 40
0.0334647028391663
 50
79.1391106064053957
 51
206.9309789130088006
  0
ARC
  5
1F1C4
  8
0
 10
4938.1952981897857171
 20
325.9656498646403975
 30
0.0
 40
0.0353904656000004
 50
142.3447337650783027
 51
218.1090452905509096
  0
ARC
  5
1F1C5
  8
0
 10
4938.1840255508859627
 20
325.9722138872404003
 30
0.0
 40
0.0315359137999955
 50
147.1025222013022073
 51
233.6609448454032929
  0
ARC
  5
1F1C6
  8
0
 10
4938.1776326024846639
 20
326.0166815282403832
 30
0.0
 40
0.0295205686999992
 50
130.1932906157180128
 51
231.1379763938552969
  0
ARC
  5
1F1C7
  8
0
 10
4938.1840255508859627
 20
326.0578617210402967
 30
0.0
 40
0.0315359137999987
 50
151.5693739287343931
 51
270.0
  0
ARC
  5
1F1C8
  8
0
 10
4938.195433574679555
 20
326.0749867304926966
 30
0.0
 40
0.0355168931864351
 50
157.8940008929758108
 51
269.7815968381819971
  0
ARC
  5
1F1C9
  8
0
 10
4938.1897464040857813
 20
326.0736936895403915
 30
0.0
 40
0.0334633502000001
 50
143.5347796112488084
 51
266.8019819988535914
  0
ARC
  5
1F1CA
  8
0
 10
4938.2019548881862647
 20
326.0886615717403743
 30
0.0
 40
0.0394285441000011
 50
157.1702776195882905
 51
270.0
  0
ARC
  5
1F1CB
  8
0
 10
4938.1776326024846639
 20
326.0867556581404187
 30
0.0
 40
0.0295205686999973
 50
116.7056451360165994
 51
217.9940338211087862
  0
ARC
  5
1F1CC
  8
0
 10
4938.171393548085689
 20
326.0694028354404281
 30
0.0
 40
0.0276689736999991
 50
150.8609267556809925
 51
227.5937477399573083
  0
ARC
  5
1F1CD
  8
0
 10
4938.171393548085689
 20
326.0285423047404265
 30
0.0
 40
0.0276689736999948
 50
130.1200103002668982
 51
213.4496865971723878
  0
ARC
  5
1F1CE
  8
0
 10
4938.171393548085689
 20
326.0377474636404145
 30
0.0
 40
0.0276689736999936
 50
145.1075823375541063
 51
189.5753436073943021
  0
ARC
  5
1F1CF
  8
0
 10
4938.16495030628721
 20
326.1013338421403773
 30
0.0
 40
0.0255898592000046
 50
143.612687039283287
 51
230.1412623528547101
  0
ARC
  5
1F1D0
  8
0
 10
4938.171393548085689
 20
326.1258224680403828
 30
0.0
 40
0.0276689737000009
 50
127.1620322036598054
 51
230.8746311130331037
  0
ARC
  5
1F1D1
  8
0
 10
4938.16495030628721
 20
326.131695731240427
 30
0.0
 40
0.025589859200001
 50
118.0630888029498067
 51
223.1867495397860921
  0
ARC
  5
1F1D2
  8
0
 10
4938.16495030628721
 20
326.1282779334404154
 30
0.0
 40
0.0255898591999974
 50
176.1709200635918933
 51
211.7666038905944959
  0
ARC
  5
1F1D3
  8
0
 10
4938.16495030628721
 20
326.1757239841404044
 30
0.0
 40
0.0255898591999985
 50
144.0195767455898022
 51
239.3466409371118004
  0
ARC
  5
1F1D4
  8
0
 10
4938.1591436754861206
 20
326.1810059485404167
 30
0.0
 40
0.0235151556000027
 50
134.0668877362734861
 51
221.4477388975122949
  0
ARC
  5
1F1D5
  8
0
 10
4938.1606808896522125
 20
326.1656212580629131
 30
0.0
 40
0.0252579706577004
 50
161.1929518281447997
 51
229.0170053667891068
  0
ARC
  5
1F1D6
  8
0
 10
4938.171393548085689
 20
326.196086920540381
 30
0.0
 40
0.0276689736999993
 50
108.3973242838863058
 51
216.5012997539137132
  0
ARC
  5
1F1D7
  8
0
 10
4938.1591436754861206
 20
326.2147985608403928
 30
0.0
 40
0.0235151555999979
 50
145.8329659232441884
 51
229.0784609389430102
  0
ARC
  5
1F1D8
  8
0
 10
4938.16495030628721
 20
326.2320808247404216
 30
0.0
 40
0.0255898591999976
 50
119.705119617997596
 51
231.0909899591071905
  0
ARC
  5
1F1D9
  8
0
 10
4938.1776326024846639
 20
326.2694135512404046
 30
0.0
 40
0.0295205687000013
 50
136.0765659225876902
 51
247.4029015255428874
  0
ARC
  5
1F1DA
  8
0
 10
4938.171393548085689
 20
326.2780612431404279
 30
0.0
 40
0.0276689736999989
 50
119.5161231313802972
 51
216.5683130358032997
  0
ARC
  5
1F1DB
  8
0
 10
4938.16495030628721
 20
326.2990538788404251
 30
0.0
 40
0.0255898592000012
 50
101.3473344814660067
 51
216.3638997466707963
  0
ARC
  5
1F1DC
  8
0
 10
4938.1542027816858536
 20
326.2752917724404256
 30
0.0
 40
0.0216837214000042
 50
129.6804330957866114
 51
211.0929044033231889
  0
ARC
  5
1F1DD
  8
0
 10
4938.1591436754861206
 20
326.2646167624404256
 30
0.0
 40
0.0235151556000026
 50
129.719077681340508
 51
229.7019099645102926
  0
ARC
  5
1F1DE
  8
0
 10
4938.1542027816858536
 20
326.250409382540397
 30
0.0
 40
0.0216837214000029
 50
148.1175572273515968
 51
227.2166501261486076
  0
ARC
  5
1F1DF
  8
0
 10
4938.1542027816858536
 20
326.2399962182403783
 30
0.0
 40
0.021683721400005
 50
166.1066847065750096
 51
222.2759090071971002
  0
ARC
  5
1F1E0
  8
0
 10
4938.1591436754861206
 20
326.2240033347404164
 30
0.0
 40
0.0235151556000902
 50
169.7122811267234965
 51
190.1111380605956072
  0
ARC
  5
1F1E1
  8
0
 10
4938.1542027816858536
 20
326.2637457226404081
 30
0.0
 40
0.0216837213999261
 50
164.5594877358082897
 51
197.9098154732290027
  0
ARC
  5
1F1E2
  8
0
 10
4938.1542027816858536
 20
326.2968704239403905
 30
0.0
 40
0.0216837213999792
 50
163.3788315510061864
 51
209.8398390041558059
  0
ARC
  5
1F1E3
  8
0
 10
4938.149744712485699
 20
326.3141499727403811
 30
0.0
 40
0.0197239060999965
 50
160.6006648407465036
 51
238.4267874672449068
  0
ARC
  5
1F1E4
  8
0
 10
4938.1542027816858536
 20
326.3135559081403017
 30
0.0
 40
0.0216837213999968
 50
147.843388359991593
 51
226.9311942172849967
  0
ARC
  5
1F1E5
  8
0
 10
4938.149744712485699
 20
326.3192652416403803
 30
0.0
 40
0.0197239060999259
 50
168.3180742221400976
 51
187.4506274380852062
  0
ARC
  5
1F1E6
  8
0
 10
4938.1783469198508101
 20
326.0073693908414043
 30
0.0
 40
0.0348481999497205
 50
160.6839626746742056
 51
226.0125866641155881
  0
ARC
  5
1F1E7
  8
0
 10
4938.171393548085689
 20
325.997954176740393
 30
0.0
 40
0.0276689737000082
 50
172.3325746979930102
 51
225.2957427587745087
  0
ARC
  5
1F1E8
  8
0
 10
4938.1776326024846639
 20
325.9296240434404126
 30
0.0
 40
0.0295205686999943
 50
144.6678939460028062
 51
214.9293810309048069
  0
ARC
  5
1F1E9
  8
0
 10
4938.1776326024846639
 20
325.9152858860401238
 30
0.0
 40
0.0295205686992732
 50
165.9451718759557934
 51
213.8326186322723004
  0
ARC
  5
1F1EA
  8
0
 10
4938.1840255508859627
 20
325.8958610586403779
 30
0.0
 40
0.0315359138000271
 50
173.4056513664434931
 51
216.3306482941601985
  0
ARC
  5
1F1EB
  8
0
 10
4938.1776326024846639
 20
325.9471557922403804
 30
0.0
 40
0.0295205687000205
 50
163.6577964072731959
 51
197.2739794467121044
  0
ARC
  5
1F1EC
  8
0
 10
4938.1952981897857171
 20
325.7166281301404069
 30
0.0
 40
0.035390465599981
 50
169.2221657227379978
 51
206.108604730632095
  0
ARC
  5
1F1ED
  8
0
 10
4938.2076401075846661
 20
325.5548382945403887
 30
0.0
 40
0.04329170120001
 50
174.9462661856368868
 51
209.1137835865152113
  0
ARC
  5
1F1EE
  8
0
 10
4938.1458283522861166
 20
326.5194534543404075
 30
0.0
 40
0.0196514406000102
 50
157.4138153240760971
 51
212.814488495496704
  0
LINE
  5
1F1EF
  8
0
 10
4938.1952981897857171
 20
326.0394700953403913
 30
0.0
 11
4938.2833964542860485
 21
326.0394700953403913
 31
0.0
  0
LINE
  5
1F1F0
  8
0
 10
4938.1840255508859627
 20
326.0263258072404255
 30
0.0
 11
4938.2833964542860485
 21
326.0263258072404255
 31
0.0
  0
LINE
  5
1F1F1
  8
0
 10
4942.0386071498933234
 20
327.6164273385325032
 30
0.0
 11
4942.0386071498933234
 21
325.5350334998731228
 31
0.0
  0
LINE
  5
1F1F2
  8
0
 10
4941.1822627908923096
 20
327.3296663001196976
 30
0.0
 11
4941.1822627908923096
 21
327.8112896567027974
 31
0.0
  0
ARC
  5
1F1F3
  8
0
 10
4941.1822627908422874
 20
327.4379368479027903
 30
0.0
 40
0.3937007874000002
 50
35.2363477976488113
 51
228.6824803365078935
  0
ARC
  5
1F1F4
  8
0
 10
4941.1822597547761688
 20
327.4379448817318803
 30
0.0
 40
0.4133763066402727
 50
206.7577125578939956
 51
228.3687749952306092
  0
ARC
  5
1F1F5
  8
0
 10
4941.1001707838258881
 20
327.3965547759199239
 30
0.0
 40
0.3214429611615944
 50
163.7504574341903094
 51
206.7577125578939956
  0
LINE
  5
1F1F6
  8
0
 10
4941.0573308487282702
 20
327.8112896567027974
 30
0.0
 11
4941.3071947329563045
 21
327.8112896567027974
 31
0.0
  0
ARC
  5
1F1F7
  8
0
 10
4941.2650278780602093
 20
327.4368580176064825
 30
0.0
 40
0.4231126304101525
 50
117.7551786875525011
 51
220.8351220658215084
  0
ARC
  5
1F1F8
  8
0
 10
4941.3852969637664501
 20
327.4385624556035737
 30
0.0
 40
0.480077876671006
 50
129.0688621237462996
 51
212.2103479182283934
  0
ARC
  5
1F1F9
  8
0
 10
4941.5770848638039752
 20
327.4393457897207895
 30
0.0
 40
0.5958360697147871
 50
141.3736763479373053
 51
202.9517106189761932
  0
ARC
  5
1F1FA
  8
0
 10
4942.2106613911264503
 20
327.4385230217026788
 30
0.0
 40
1.128739477909614
 50
160.7160271119284118
 51
190.5358919190665858
  0
ARC
  5
1F1FB
  8
0
 10
4941.0994977037253193
 20
327.4368580176064825
 30
0.0
 40
0.4231126304101525
 50
27.8117975018957715
 51
62.2448213124474989
  0
ARC
  5
1F1FC
  8
0
 10
4940.9792286180190786
 20
327.4385624556035737
 30
0.0
 40
0.480077876671006
 50
19.0658563609071585
 51
50.9311378762537217
  0
ARC
  5
1F1FD
  8
0
 10
4940.7874407179815535
 20
327.4393457897207895
 30
0.0
 40
0.5958360697147871
 50
9.5469739754944705
 51
38.6263236520626876
  0
ARC
  5
1F1FE
  8
0
 10
4940.1538641906590783
 20
327.4385230217026788
 30
0.0
 40
1.128739477909614
 50
0.1707436256203984
 51
19.2839728880715313
  0
ARC
  5
1F1FF
  8
0
 10
4941.1738373397784017
 20
326.8490826538106262
 30
0.0
 40
0.3862633300119651
 50
115.7059020927013933
 51
180.8764171164501988
  0
ARC
  5
1F200
  8
0
 10
4941.1892474789037806
 20
326.8170711889782183
 30
0.0
 40
0.4217908724062839
 50
86.0500729663684041
 51
115.7059020927013933
  0
ARC
  5
1F201
  8
0
 10
4941.19548580186256
 20
326.907417960496673
 30
0.0
 40
0.3312289830866045
 50
59.1616939907335109
 51
86.0500729663684041
  0
ARC
  5
1F202
  8
0
 10
4941.0166778761940805
 20
326.6079203151733168
 30
0.0
 40
0.6800428501218829
 50
47.670808481550857
 51
59.1616939907335109
  0
ARC
  5
1F203
  8
0
 10
4941.0802489115749268
 20
326.9153231531821007
 30
0.0
 40
0.4400924522996039
 50
351.3680277159735965
 51
26.3511975069631816
  0
ARC
  5
1F204
  8
0
 10
4941.2887469681727453
 20
327.0193221679821249
 30
0.0
 40
0.2070981437986204
 50
26.1724673292014387
 51
91.0962254781285736
  0
ARC
  5
1F205
  8
0
 10
4941.1613510907845921
 20
326.8297741438931894
 30
0.0
 40
0.3739720530332444
 50
177.9465151919426091
 51
231.5241912829054058
  0
ARC
  5
1F206
  8
0
 10
4941.1992274251024355
 20
326.8774325113075747
 30
0.0
 40
0.4348484580351894
 50
231.5241912829054058
 51
262.2007074698378233
  0
ARC
  5
1F207
  8
0
 10
4941.1789252914477402
 20
326.768369583622416
 30
0.0
 40
0.3240829197934344
 50
263.1402528729594792
 51
288.6041772218238748
  0
ARC
  5
1F208
  8
0
 10
4940.9960074443488338
 20
326.8971615286694146
 30
0.0
 40
0.5215522816937046
 50
303.2954525480407142
 51
354.7315010825208788
  0
ARC
  5
1F209
  8
0
 10
4941.1752727492048507
 20
326.6132140233881955
 30
0.0
 40
0.1852898706544949
 50
233.9359802392123981
 51
305.6108811333955941
  0
ARC
  5
1F20A
  8
0
 10
4945.6673626582569341
 20
326.4296303132052799
 30
0.0
 40
4.6561214045229953
 50
179.3166810378401976
 51
182.3778560375004929
  0
ARC
  5
1F20B
  8
0
 10
4941.1849210508016768
 20
325.8715862890563812
 30
0.0
 40
0.4023850681515551
 50
102.7648263276405061
 51
132.7841885915875082
  0
ARC
  5
1F20C
  8
0
 10
4941.1791447188898019
 20
325.8778276141167112
 30
0.0
 40
0.3938809427487268
 50
132.7841885915875082
 51
176.7928501788007907
  0
ARC
  5
1F20D
  8
0
 10
4941.1758102970870823
 20
325.8780144546367978
 30
0.0
 40
0.3905412903504018
 50
176.7928501788007907
 51
223.0295755406698106
  0
ARC
  5
1F20E
  8
0
 10
4941.1838905620370497
 20
325.8872231472009275
 30
0.0
 40
0.4027336066863055
 50
223.2028275829084976
 51
269.9155193470285781
  0
ARC
  5
1F20F
  8
0
 10
4941.1832235577603569
 20
325.886123194080028
 30
0.0
 40
0.4016332224525052
 50
270.0104407305472023
 51
306.1969858287902184
  0
ARC
  5
1F210
  8
0
 10
4941.1758923628376579
 20
325.8888013561420962
 30
0.0
 40
0.4081470278513029
 50
306.8054876666718087
 51
327.1895431907068996
  0
ARC
  5
1F211
  8
0
 10
4940.358872248147236
 20
325.1833619527407109
 30
0.0
 40
1.30813689355823
 50
37.73151999749075
 51
55.689050900458561
  0
ARC
  5
1F212
  8
0
 10
4940.860045799038744
 20
325.5711534848624069
 30
0.0
 40
0.6744514822540248
 50
17.4783193774695711
 51
37.73151999749075
  0
ARC
  5
1F213
  8
0
 10
4941.176255645909805
 20
325.6707225339196725
 30
0.0
 40
0.3429357770624275
 50
1.1716086430979771
 51
17.4783193774695711
  0
ARC
  5
1F214
  8
0
 10
4941.3915498324822693
 20
325.6751255753820828
 30
0.0
 40
0.127596571282478
 50
347.9936853470956066
 51
1.1716086430979771
  0
ARC
  5
1F215
  8
0
 10
4941.4187589466291683
 20
325.669338965317877
 30
0.0
 40
0.0997789375100219
 50
323.2566916338611804
 51
347.9936853470956066
  0
ARC
  5
1F216
  8
0
 10
4941.4431812476059349
 20
325.6511064105986861
 30
0.0
 40
0.0693014895102023
 50
271.3976785468814796
 51
323.2566916338611804
  0
ARC
  5
1F217
  8
0
 10
4940.9360397224545522
 20
326.0239289160783756
 30
0.0
 40
0.2885111034760303
 50
56.2660172961294265
 51
68.0693384745052725
  0
ARC
  5
1F218
  8
0
 10
4941.0695849603525858
 20
326.2269505463925157
 30
0.0
 40
0.0695690588294942
 50
111.7602333456541999
 51
128.6469179331108137
  0
ARC
  5
1F219
  8
0
 10
4941.0381738010955814
 20
326.28264628645519
 30
0.0
 40
0.0121128424313029
 50
186.4545041339426064
 51
260.2277749881457112
  0
ARC
  5
1F21A
  8
0
 10
4941.0422186539881295
 20
326.2486455490728758
 30
0.0
 40
0.022891574889036
 50
105.4565762606654005
 51
148.2318119094871918
  0
ARC
  5
1F21B
  8
0
 10
4941.0387932836483742
 20
326.2631125742959171
 30
0.0
 40
0.0162175240899165
 50
188.5638704419741885
 51
251.9740611889521062
  0
ARC
  5
1F21C
  8
0
 10
4941.0471406950737219
 20
326.2179779168837968
 30
0.0
 40
0.0325809436900454
 50
114.219676366170404
 51
137.4281996438664066
  0
ARC
  5
1F21D
  8
0
 10
4941.1236897181252061
 20
325.5709178575451119
 30
0.0
 40
0.0598643759147159
 50
119.0893398997644965
 51
174.1597501798624137
  0
ARC
  5
1F21E
  8
0
 10
4941.1862035326475961
 20
325.4585535091022166
 30
0.0
 40
0.1884479044367034
 50
101.0842592100701012
 51
119.089339899767694
  0
ARC
  5
1F21F
  8
0
 10
4941.1829648169168649
 20
325.475085420599612
 30
0.0
 40
0.1716017364052898
 50
75.1222661555166695
 51
101.0842592100701012
  0
ARC
  5
1F220
  8
0
 10
4941.1888791451892757
 20
325.4973479138196808
 30
0.0
 40
0.1485670260035467
 50
49.0244814269710716
 51
75.1222661555166695
  0
ARC
  5
1F221
  8
0
 10
4941.2513905992800574
 20
325.5751822564179179
 30
0.0
 40
0.0489629185929713
 50
2.0974398539468351
 51
44.5224619580084209
  0
ARC
  5
1F222
  8
0
 10
4941.239539973886167
 20
325.5814376611660919
 30
0.0
 40
0.0609444042111024
 50
296.1929270682621791
 51
355.8000472520269
  0
ARC
  5
1F223
  8
0
 10
4941.1751853881041825
 20
325.7122642143040139
 30
0.0
 40
0.2067425513777854
 50
272.0908287904027816
 51
296.1929270682608148
  0
ARC
  5
1F224
  8
0
 10
4941.1770447047993002
 20
325.6613352677413218
 30
0.0
 40
0.1557796761002264
 50
236.1446918744809125
 51
272.0908287904027816
  0
ARC
  5
1F225
  8
0
 10
4941.1233095281359056
 20
325.5812339931990209
 30
0.0
 40
0.0593240728707874
 50
184.0836423346742947
 51
236.1446918744809125
  0
LINE
  5
1F226
  8
0
 10
4941.0641360699228244
 20
325.5770093671624181
 30
0.0
 11
4941.0642839043930508
 21
325.600369236502786
 31
0.0
  0
ARC
  5
1F227
  8
0
 10
4941.1662170487379626
 20
325.5177713045263772
 30
0.0
 40
0.1311975010547636
 50
97.5318778147549779
 51
140.9816392351324907
  0
ARC
  5
1F228
  8
0
 10
4941.1784281541085875
 20
325.425415845403279
 30
0.0
 40
0.2243567299276737
 50
72.963632322089552
 51
97.5318778147549779
  0
ARC
  5
1F229
  8
0
 10
4941.2099459174796721
 20
325.5282722558006867
 30
0.0
 40
0.1167797316068821
 50
46.6419617578475112
 51
72.963632322089552
  0
ARC
  5
1F22A
  8
0
 10
4941.252117062628713
 20
325.5729874273429232
 30
0.0
 40
0.0553155221591916
 50
29.6727977020127582
 51
46.6028754438904684
  0
LINE
  5
1F22B
  8
0
 10
4941.300178874798803
 20
325.6003711670921916
 30
0.0
 11
4941.3003207141928215
 21
325.5769742530027884
 31
0.0
  0
ARC
  5
1F22C
  8
0
 10
4942.2000819941249574
 20
326.0426141191426268
 30
0.0
 40
1.1207246966174911
 50
168.7761188509039982
 51
200.6106875294069027
  0
ARC
  5
1F22D
  8
0
 10
4941.6754484325192607
 20
326.0463777604538791
 30
0.0
 40
0.686629087505748
 50
163.9108538087768068
 51
216.1825635378015136
  0
ARC
  5
1F22E
  8
0
 10
4941.3973013720806193
 20
326.0209206145182748
 30
0.0
 40
0.4904636061632121
 50
160.1049259214204881
 51
232.6658821145589116
  0
ARC
  5
1F22F
  8
0
 10
4941.2021643809748639
 20
325.9872713520624075
 30
0.0
 40
0.360049076287856
 50
158.8332394597719031
 51
215.6398308984691994
  0
ARC
  5
1F230
  8
0
 10
4941.5207443394938309
 20
326.2156873540641868
 30
0.0
 40
0.7520529792533672
 50
215.6398308984691994
 51
233.5350771349602894
  0
ARC
  5
1F231
  8
0
 10
4941.1477714359953097
 20
325.950987692590104
 30
0.0
 40
0.3468710061114932
 50
172.158478284011494
 51
223.0598081341383079
  0
ARC
  5
1F232
  8
0
 10
4941.2752818219969413
 20
326.0701421383491834
 30
0.0
 40
0.5213894305908932
 50
223.0598081341383079
 51
246.1233569641962049
  0
ARC
  5
1F233
  8
0
 10
4941.1065406600882852
 20
325.9057228834785178
 30
0.0
 40
0.3249534208287955
 50
189.6532120027152928
 51
236.9612603185445039
  0
ARC
  5
1F234
  8
0
 10
4941.179594849590103
 20
326.0180501255838976
 30
0.0
 40
0.4589471666628111
 50
236.9612603185445039
 51
255.4705825228570859
  0
ARC
  5
1F235
  8
0
 10
4941.087034329355447
 20
325.8563073704995077
 30
0.0
 40
0.3003567364278878
 50
204.3807385524931988
 51
266.6345363496835148
  0
ARC
  5
1F236
  8
0
 10
4941.0615460662866099
 20
325.7772703133157961
 30
0.0
 40
0.2383493659303062
 50
224.5699378799099861
 51
274.6670976814926917
  0
ARC
  5
1F237
  8
0
 10
4941.0567709764764004
 20
325.6785300268062997
 30
0.0
 40
0.1589226480876175
 50
244.7772292461174004
 51
285.9346365030805828
  0
ARC
  5
1F238
  8
0
 10
4941.0786210130436302
 20
325.5905414636645219
 30
0.0
 40
0.0885932439203373
 50
258.4072567438096826
 51
301.1353172112955008
  0
ARC
  5
1F239
  8
0
 10
4941.1169662406045973
 20
325.529752662148212
 30
0.0
 40
0.0415241523756758
 50
280.348029049360207
 51
327.7107761825766943
  0
LINE
  5
1F23A
  8
0
 10
4941.1815197598889426
 20
325.6497512733623125
 30
0.0
 11
4941.1800450655064196
 21
326.2016435131735079
 31
0.0
  0
ARC
  5
1F23B
  8
0
 10
4939.4958452424862116
 20
326.1372831509713137
 30
0.0
 40
1.7870657547299931
 50
344.0728285776850157
 51
359.1099132216194221
  0
ARC
  5
1F23C
  8
0
 10
4940.4408599283697185
 20
326.127257468065693
 30
0.0
 40
0.9400447553830645
 50
328.7638361681466108
 51
352.779589188750208
  0
ARC
  5
1F23D
  8
0
 10
4940.7931727485884039
 20
326.1050062876868196
 30
0.0
 40
0.6744751630252445
 50
315.0215655644132084
 51
343.6310885569693028
  0
ARC
  5
1F23E
  8
0
 10
4940.9849704035650575
 20
326.0762771144928251
 30
0.0
 40
0.5546036414885838
 50
303.3825274271748071
 51
333.7576082125586936
  0
ARC
  5
1F23F
  8
0
 10
4941.0720478494604322
 20
326.1014038858190247
 30
0.0
 40
0.556212982940089
 50
294.2184584580924138
 51
321.6453825643432083
  0
ARC
  5
1F240
  8
0
 10
4941.2099145702686656
 20
325.960770772063313
 30
0.0
 40
0.3961513742352791
 50
283.1659491134153086
 51
320.7958862135891991
  0
ARC
  5
1F241
  8
0
 10
4941.2717045960462201
 20
325.8734819030343033
 30
0.0
 40
0.3172504180596922
 50
274.2874493424928914
 51
321.2566335300415972
  0
ARC
  5
1F242
  8
0
 10
4941.303299966423765
 20
325.7810052897697233
 30
0.0
 40
0.2413307443081444
 50
265.5552226867205832
 51
317.5327649085008943
  0
ARC
  5
1F243
  8
0
 10
4941.3083850560660721
 20
325.689413438313295
 30
0.0
 40
0.1687391108174287
 50
255.2407178975643092
 51
298.3036877003040104
  0
ARC
  5
1F244
  8
0
 10
4941.2922647306941144
 20
325.6024393813361826
 30
0.0
 40
0.1008100393756208
 50
238.9788935667806982
 51
274.6159378845973151
  0
ARC
  5
1F245
  8
0
 10
4941.2504891120215689
 20
325.531231929437979
 30
0.0
 40
0.0435133607518908
 50
210.6908250928971995
 51
257.7669507597966003
  0
ARC
  5
1F246
  8
0
 10
4941.736863581133548
 20
325.5067210442920214
 30
0.0
 40
0.5540130520971744
 50
180.1093351653059074
 51
182.2997442576615867
  0
ARC
  5
1F247
  8
0
 10
4941.5748040228918398
 20
325.9326272288029145
 30
0.0
 40
1.8059774032999041
 50
77.1174143859870327
 51
86.605230339617691
  0
ARC
  5
1F248
  8
0
 10
4941.6789378855110044
 20
327.5618748857921787
 30
0.0
 40
0.1735833911634317
 50
89.0732582214131554
 51
114.5804274174735014
  0
LINE
  5
1F249
  8
0
 10
4941.6067323732204386
 20
327.7197278480155092
 30
0.0
 11
4941.5191653551928539
 21
327.6806374468027911
 31
0.0
  0
LINE
  5
1F24A
  8
0
 10
4941.5191653551928539
 20
327.6806374468027911
 30
0.0
 11
4941.5163505690916281
 21
327.6764780664028081
 31
0.0
  0
ARC
  5
1F24B
  8
0
 10
4941.6343951214821573
 20
327.5339062456267811
 30
0.0
 40
0.1850802433504445
 50
129.624815935479802
 51
141.5848171078640974
  0
ARC
  5
1F24C
  8
0
 10
4944.2205888517000858
 20
324.7140748955146137
 30
0.0
 40
4.0090826441497454
 50
132.9418271051114004
 51
141.1490023570607093
  0
LINE
  5
1F24D
  8
0
 10
4941.6067323732204386
 20
327.7197278480155092
 30
0.0
 11
4941.6067244129826577
 21
325.4317358630058834
 31
0.0
  0
ARC
  5
1F24E
  8
0
 10
4941.9599071498923877
 20
327.6164273385325032
 30
0.0
 40
0.0787
 50
0.0
 51
77.1174143859870327
  0
ARC
  5
1F24F
  8
0
 10
4942.1809560148094533
 20
326.4375564384703807
 30
0.0
 40
1.394879737443411
 50
114.3094955206698984
 51
119.7211183712763045
  0
ARC
  5
1F250
  8
0
 10
4942.1814872064232986
 20
326.460094274489677
 30
0.0
 40
1.3540130481376029
 50
115.1179228468594005
 51
124.7630579808694051
  0
ARC
  5
1F251
  8
0
 10
4942.0509336373670521
 20
326.649075800265507
 30
0.0
 40
1.0936812704919421
 50
113.9633922237401009
 51
147.6534487062326093
  0
ARC
  5
1F252
  8
0
 10
4942.0982684980981503
 20
326.548724809942712
 30
0.0
 40
1.1640698151822011
 50
114.9771825611780969
 51
143.7009600040659905
  0
ARC
  5
1F253
  8
0
 10
4942.1279060208808005
 20
326.4415837025334781
 30
0.0
 40
1.2212809784154779
 50
115.2611339306221936
 51
139.258407710738993
  0
ARC
  5
1F254
  8
0
 10
4942.023876752868091
 20
326.4702886388529919
 30
0.0
 40
1.0821022618577421
 50
112.6745437514992005
 51
135.181849268206804
  0
ARC
  5
1F255
  8
0
 10
4942.2402647988537865
 20
326.0766944983661233
 30
0.0
 40
1.4666329184877569
 50
115.5923589368327953
 51
128.5858144625130137
  0
ARC
  5
1F256
  8
0
 10
4942.2667257347993655
 20
325.9006001042370144
 30
0.0
 40
1.5580617481558661
 50
115.0621373119570023
 51
123.8446514041541064
  0
ARC
  5
1F257
  8
0
 10
4942.3227707972882854
 20
325.6374289580544996
 30
0.0
 40
1.7338483324337861
 50
114.3920790935907945
 51
119.9478551403880005
  0
ARC
  5
1F258
  8
0
 10
4942.3671394158927797
 20
325.3529693426032168
 30
0.0
 40
1.918168847299591
 50
113.3549235457639952
 51
117.0328040703264065
  0
ARC
  5
1F259
  8
0
 10
4942.398983497793779
 20
325.0444447978011908
 30
0.0
 40
2.115051036801666
 50
111.9983732838451971
 51
114.6365687025678994
  0
ARC
  5
1F25A
  8
0
 10
4942.4251664105941018
 20
324.688521939100383
 30
0.0
 40
2.350874341902609
 50
110.3737665561579036
 51
112.7406167338280056
  0
ARC
  5
1F25B
  8
0
 10
4942.4522436973948061
 20
324.2476030310983788
 30
0.0
 40
2.665724918304675
 50
108.4925513956877978
 51
111.1267229499452043
  0
ARC
  5
1F25C
  8
0
 10
4942.5121782130918291
 20
323.5762108718030277
 30
0.0
 40
3.21094033449975
 50
106.3790213586720057
 51
109.8446324368440941
  0
ARC
  5
1F25D
  8
0
 10
4939.8016458634110677
 20
331.4363029874818949
 30
0.0
 40
5.2083770347826794
 50
284.3287266945861234
 51
288.1233368482961055
  0
ARC
  5
1F25E
  8
0
 10
4941.8401265789516401
 20
325.2081548910401807
 30
0.0
 40
1.3448841639523741
 50
101.8701988997077024
 51
108.1233368482961055
  0
ARC
  5
1F25F
  8
0
 10
4941.5787506204105739
 20
326.4516778913255735
 30
0.0
 40
0.074188746496861
 50
86.5003423777700959
 51
101.8701988997077024
  0
ARC
  5
1F260
  8
0
 10
4941.58489796104368
 20
326.5521958796364856
 30
0.0
 40
0.0265170416730796
 50
266.5003423777700959
 51
325.3337241153245145
  0
ARC
  5
1F261
  8
0
 10
4941.0276200716762105
 20
327.66460802317971
 30
0.0
 40
1.344433728733829
 50
272.5390924942423112
 51
285.9190556422411191
  0
ARC
  5
1F262
  8
0
 10
4943.3606499861853081
 20
317.9091011712973227
 30
0.0
 40
8.6876081448407163
 50
101.6473745052242066
 51
103.0676496873171004
  0
ARC
  5
1F263
  8
0
 10
4941.0099671234520429
 20
329.2573802827408826
 30
0.0
 40
3.016757234020909
 50
272.6540041801064262
 51
281.4089563154437883
  0
ARC
  5
1F264
  8
0
 10
4941.0739994341565762
 20
326.4444469805795279
 30
0.0
 40
0.0569879831960576
 50
226.4528680474496127
 51
287.1146080064895045
  0
ARC
  5
1F265
  8
0
 10
4941.1662061529532366
 20
326.4873335144869202
 30
0.0
 40
0.156116229848361
 50
188.7409638989261964
 51
212.6352980425845089
  0
ARC
  5
1F266
  8
0
 10
4941.0710367359051816
 20
326.4919370911445071
 30
0.0
 40
0.0543480845837769
 50
190.1499036910284133
 51
226.616736996575213
  0
ARC
  5
1F267
  8
0
 10
4941.0456368281265895
 20
326.4683588991894112
 30
0.0
 40
0.0198947940130544
 50
233.1532487785810872
 51
284.353627075223983
  0
ARC
  5
1F268
  8
0
 10
4941.0284138932829592
 20
326.5870329113478192
 30
0.0
 40
0.1397155351040854
 50
279.1240194189451245
 51
290.391234937861384
  0
ARC
  5
1F269
  8
0
 10
4941.0942517087469241
 20
326.392652693669902
 30
0.0
 40
0.0715090145397841
 50
203.8827679527585985
 51
264.3244834314843956
  0
ARC
  5
1F26A
  8
0
 10
4941.1832922180947207
 20
326.4320779823269163
 30
0.0
 40
0.1688874807965804
 50
174.6198576221526935
 51
203.8827679527585985
  0
ARC
  5
1F26B
  8
0
 10
4941.1462414066581914
 20
326.3130876587441094
 30
0.0
 40
0.069312936245107
 50
229.0264164877100086
 51
272.8243129257608075
  0
ARC
  5
1F26C
  8
0
 10
4941.2220391840801312
 20
326.4037994445552044
 30
0.0
 40
0.2106382689194402
 50
177.8982528788656907
 51
212.1977372521488121
  0
ARC
  5
1F26D
  8
0
 10
4361.7597719886425693
 20
230.2563281864078135
 30
0.0
 40
587.1714525989156073
 50
9.4123254627681501
 51
9.4208971385537108
  0
ARC
  5
1F26E
  8
0
 10
4936.8911210305268469
 20
325.8278300787665103
 30
0.0
 40
4.1542492192352771
 50
5.981004242586704
 51
7.2606272726495078
  0
ARC
  5
1F26F
  8
0
 10
4936.7242159986481056
 20
325.8964738722875154
 30
0.0
 40
4.3106886173887498
 50
4.5599767864136691
 51
5.8603072337233888
  0
ARC
  5
1F270
  8
0
 10
4941.1627782831792501
 20
329.6312421090540283
 30
0.0
 40
3.4734049988481699
 50
271.1227174110924807
 51
277.3432727813030283
  0
ARC
  5
1F271
  8
0
 10
4941.3874309695029297
 20
329.5001942604851024
 30
0.0
 40
3.4315571604171451
 50
268.8967687948480716
 51
273.6640173943450804
  0
ARC
  5
1F272
  8
0
 10
4941.5827494651457528
 20
328.8032100193166798
 30
0.0
 40
2.8326023706342438
 50
266.2815803727136199
 51
270.4849911811460856
  0
ARC
  5
1F273
  8
0
 10
4941.7730613564017403
 20
329.0257235360787718
 30
0.0
 40
3.157685899914128
 50
264.2671429606544962
 51
266.9804691611861927
  0
ARC
  5
1F274
  8
0
 10
4941.8244823894010551
 20
327.9663742884450812
 30
0.0
 40
2.1952105591317199
 50
261.392973276923783
 51
264.3071084446626173
  0
ARC
  5
1F275
  8
0
 10
4941.9019006298931345
 20
327.6529946891034228
 30
0.0
 40
1.974969426200617
 50
258.7375297029619787
 51
261.4044729472042263
  0
ARC
  5
1F276
  8
0
 10
4941.7515006531357358
 20
326.472265774021821
 30
0.0
 40
0.8564303604557153
 50
254.0662421667867932
 51
260.2676825637437901
  0
ARC
  5
1F277
  8
0
 10
4941.7620472089465693
 20
326.3230788099525057
 30
0.0
 40
0.7723972530576004
 50
249.387461313476706
 51
258.3992205301968852
  0
ARC
  5
1F278
  8
0
 10
4941.982890129684165
 20
326.8324405300015201
 30
0.0
 40
1.369549656508843
 50
246.5560274753258057
 51
254.0580326797455939
  0
ARC
  5
1F279
  8
0
 10
4942.1176507768241208
 20
326.9470686318193771
 30
0.0
 40
1.5583540420169859
 50
243.1308488032051116
 51
250.8608967358242126
  0
ARC
  5
1F27A
  8
0
 10
4942.0341964276913131
 20
326.6341483403060124
 30
0.0
 40
1.2595071670494311
 50
239.6777464563560898
 51
250.1599080772315915
  0
ARC
  5
1F27B
  8
0
 10
4941.1724930319423947
 20
326.9581581854022261
 30
0.0
 40
0.108378366264555
 50
118.5924854625948939
 51
181.3989494139441945
  0
ARC
  5
1F27C
  8
0
 10
4941.1855890854203608
 20
326.9341308267445925
 30
0.0
 40
0.1357429525164635
 50
91.4183951377430475
 51
118.5924854625948939
  0
ARC
  5
1F27D
  8
0
 10
4941.1850831238116371
 20
326.9545648663834072
 30
0.0
 40
0.1153026498495888
 50
43.4639987028416073
 51
91.4183951377430475
  0
ARC
  5
1F27E
  8
0
 10
4941.1852973198301697
 20
326.9547678751782769
 30
0.0
 40
0.1150075354563195
 50
0.3708742351875289
 51
43.4639987028416073
  0
ARC
  5
1F27F
  8
0
 10
4941.1835535071577397
 20
326.9637132523820924
 30
0.0
 40
0.1251630206251975
 50
263.9375745632308963
 51
338.0613212946482804
  0
ARC
  5
1F280
  8
0
 10
4941.1840920540480511
 20
326.9687840323629757
 30
0.0
 40
0.1302623188481568
 50
205.44162770366259
 51
263.9375745632308963
  0
ARC
  5
1F281
  8
0
 10
4941.163683855200361
 20
326.959075330318683
 30
0.0
 40
0.1076624631930287
 50
134.2128804178466055
 51
205.44162770366259
  0
ARC
  5
1F282
  8
0
 10
4941.1816137955120212
 20
326.9485238759983758
 30
0.0
 40
0.1278463600815362
 50
90.0141425789375944
 51
136.6756337682699893
  0
ARC
  5
1F283
  8
0
 10
4941.1867919067399271
 20
326.9559348009038899
 30
0.0
 40
0.1205480557701154
 50
15.8543704582402203
 51
92.4768959293366635
  0
ARC
  5
1F284
  8
0
 10
4941.1926258321327623
 20
326.9575916163523175
 30
0.0
 40
0.1144834269342004
 50
339.2068710485244196
 51
15.8543704582402203
  0
LINE
  5
1F285
  8
0
 10
4941.3003062337929805
 20
326.9555122523028103
 30
0.0
 11
4941.2996527536915892
 21
326.9169505890027949
 31
0.0
  0
LINE
  5
1F286
  8
0
 10
4941.0641494466835866
 20
326.9555122889793779
 30
0.0
 11
4941.0651780015332406
 21
326.9156264779260823
 31
0.0
  0
LINE
  5
1F287
  8
0
 10
4941.0645475306628214
 20
326.9400751906155165
 30
0.0
 11
4941.0608180473964239
 21
326.927297483230916
 31
0.0
  0
LINE
  5
1F288
  8
0
 10
4941.3000383516700822
 20
326.939704609149203
 30
0.0
 11
4941.3033095539885835
 21
326.928341509368579
 31
0.0
  0
ARC
  5
1F289
  8
0
 10
4940.4268380665762379
 20
326.8697757881776056
 30
0.0
 40
0.7498017756477999
 50
15.6541575201653202
 51
28.3794567713117303
  0
ARC
  5
1F28A
  8
0
 10
4908.1098763314876123
 20
326.9181712473194921
 30
0.0
 40
33.0720916602298871
 50
0.2740735933827135
 51
0.55542956664384
  0
ARC
  5
1F28B
  8
0
 10
4942.1540696202309846
 20
326.8069441166427964
 30
0.0
 40
0.9765256640816971
 50
154.3729443326303965
 51
164.1750280363771139
  0
ARC
  5
1F28C
  8
0
 10
4941.6952541638984258
 20
326.7851783003698074
 30
0.0
 40
0.5280553398313871
 50
129.2358283684027072
 51
148.4615304033324037
  0
ARC
  5
1F28D
  8
0
 10
4941.5532384250773248
 20
326.7468169409315237
 30
0.0
 40
0.4077845343671982
 50
105.9101617129260973
 51
133.6934846988069978
  0
ARC
  5
1F28E
  8
0
 10
4941.4977737490225991
 20
326.612814354519287
 30
0.0
 40
0.4539890798213915
 50
90.5447459140326316
 51
117.1228759045310994
  0
ARC
  5
1F28F
  8
0
 10
4941.4092514365247553
 20
326.4375482357020246
 30
0.0
 40
0.5611510481118915
 50
79.2246599030366241
 51
100.9299397065230011
  0
ARC
  5
1F290
  8
0
 10
4941.2531772069169165
 20
326.2531632968800182
 30
0.0
 40
0.7067611631247669
 50
67.7954792064514464
 51
85.6236033255703433
  0
ARC
  5
1F291
  8
0
 10
4941.0547428963618586
 20
326.1727469740392849
 30
0.0
 40
0.7939556089637324
 50
54.8287058324503107
 51
71.7847884036657859
  0
ARC
  5
1F292
  8
0
 10
4940.7811918414799948
 20
326.0947365251510064
 30
0.0
 40
0.9513945630509196
 50
41.8504547228016008
 51
57.6451893707800878
  0
ARC
  5
1F293
  8
0
 10
4940.5187104943497616
 20
326.133979118714592
 30
0.0
 40
1.054439998273667
 50
28.349145897284469
 51
44.5357347474992622
  0
ARC
  5
1F294
  8
0
 10
4939.9132350526078881
 20
326.0936460097715894
 30
0.0
 40
1.53384408183926
 50
17.0640600765178299
 51
29.7454359599812115
  0
ARC
  5
1F295
  8
0
 10
4938.9211375606346337
 20
326.2027725088477723
 30
0.0
 40
2.3810888063097351
 50
6.3190225891688652
 51
15.5847322383821805
  0
ARC
  5
1F296
  8
0
 10
4786.894476047086755
 20
326.0939590714091878
 30
0.0
 40
154.2901699653343996
 50
0.1301107807960946
 51
0.2765063390432463
  0
ARC
  5
1F297
  8
0
 10
4943.2275126005952188
 20
326.259500328997774
 30
0.0
 40
2.1565347639431778
 50
164.3097153860950925
 51
174.687227787421989
  0
ARC
  5
1F298
  8
0
 10
4942.2470240602324338
 20
326.2121233503141866
 30
0.0
 40
1.2962525492530981
 50
150.2835336018227963
 51
167.1656254132795993
  0
ARC
  5
1F299
  8
0
 10
4941.6246502671392591
 20
326.3150359228229149
 30
0.0
 40
0.7675452028246244
 50
133.4583923140214097
 51
161.0932774485885091
  0
ARC
  5
1F29A
  8
0
 10
4941.36626108605833
 20
326.3706538954062921
 30
0.0
 40
0.6004594151068882
 50
118.9185928471330982
 51
152.4071952580401046
  0
ARC
  5
1F29B
  8
0
 10
4941.1853105948175653
 20
326.4343542096129909
 30
0.0
 40
0.5037174880928273
 50
104.1338983321982994
 51
140.7361701718085101
  0
ARC
  5
1F29C
  8
0
 10
4941.0638838263821526
 20
326.4940339163430281
 30
0.0
 40
0.4612097053928572
 50
90.9680241079963849
 51
126.7634877032307941
  0
ARC
  5
1F29D
  8
0
 10
4940.9617147928520353
 20
326.603363067782027
 30
0.0
 40
0.3943686851940804
 50
75.6726342511968255
 51
113.3305325787319049
  0
ARC
  5
1F29E
  8
0
 10
4940.8805869581692605
 20
326.6412576088378046
 30
0.0
 40
0.4210732728603483
 50
62.904592554450268
 51
94.0167030044204637
  0
ARC
  5
1F29F
  8
0
 10
4940.8206826366576934
 20
326.7558069512231214
 30
0.0
 40
0.3936218680457221
 50
46.2933802939189292
 51
75.8523181656605914
  0
ARC
  5
1F2A0
  8
0
 10
4940.7265596825573084
 20
326.8254388254244986
 30
0.0
 40
0.4566229966412296
 50
30.8671597109445983
 51
53.5736543294423271
  0
ARC
  5
1F2A1
  8
0
 10
4941.5748040228918398
 20
327.2188336096027115
 30
0.0
 40
1.8059774032999041
 50
273.3947696603823942
 51
282.8825856140128963
  0
ARC
  5
1F2A2
  8
0
 10
4941.6789392392847731
 20
325.5896001417223147
 30
0.0
 40
0.173597556527675
 50
245.4152777958757099
 51
270.9262192806921234
  0
ARC
  5
1F2A3
  8
0
 10
4941.9599071498923877
 20
325.5350334998731228
 30
0.0
 40
0.0787
 50
282.8825856140128963
 51
0.0
  0
ARC
  5
1F2A4
  8
0
 10
4942.1296336288642124
 20
326.7234794558563067
 30
0.0
 40
1.3935689481299769
 50
237.9669236203118885
 51
247.9610828955264878
  0
LINE
  5
1F2A5
  8
0
 10
4933.1741203529809354
 20
327.3645137463520882
 30
0.0
 11
4933.6373308340198491
 21
325.3581287236034996
 31
0.0
  0
LINE
  5
1F2A6
  8
0
 10
4932.706216692075941
 20
327.3785408639034245
 30
0.0
 11
4933.2229308929918261
 21
325.1404057693903269
 31
0.0
  0
ARC
  5
1F2A7
  8
0
 10
4932.9926574920364146
 20
326.4159244388559955
 30
0.0
 40
1.015464082496442
 50
83.5778521212380667
 51
105.8988250400352058
  0
ARC
  5
1F2A8
  8
0
 10
4933.0974374288862236
 20
327.3468100983704971
 30
0.0
 40
0.0787
 50
13.00000000368785
 51
83.5778521212380667
  0
ARC
  5
1F2A9
  8
0
 10
4932.717714258840715
 20
327.3811952863454735
 30
0.0
 40
0.0118
 50
105.8988250400352058
 51
193.0000000037005066
  0
LINE
  5
1F2AA
  8
0
 10
4932.6402245054086961
 20
327.356355916089683
 30
0.0
 11
4932.7077399114887157
 21
327.3719430757690816
 31
0.0
  0
LINE
  5
1F2AB
  8
0
 10
4932.6419899254451593
 20
327.3487090417955869
 30
0.0
 11
4932.7095053314988036
 21
327.3642962015891271
 31
0.0
  0
LINE
  5
1F2AC
  8
0
 10
4932.6406662545268773
 20
327.354442490444228
 30
0.0
 11
4932.7081816606059874
 21
327.370029650123513
 31
0.0
  0
LINE
  5
1F2AD
  8
0
 10
4932.6441908686956594
 20
327.3391757092039143
 30
0.0
 11
4932.711706274775679
 21
327.3547628688831992
 31
0.0
  0
ARC
  5
1F2AE
  8
0
 10
4932.6455383098327729
 20
327.3333393004293725
 30
0.0
 40
0.0236220471999982
 50
103.0000000036619952
 51
195.3822530920290887
  0
ARC
  5
1F2AF
  8
0
 10
4932.6459800589509541
 20
327.3314258747839176
 30
0.0
 40
0.0236220471999991
 50
103.0000000036619952
 51
200.1547817557581936
  0
ARC
  5
1F2B0
  8
0
 10
4932.6473037298701456
 20
327.3256924261352765
 30
0.0
 40
0.0236220472000026
 50
103.0000000036619952
 51
204.9522684052344914
  0
ARC
  5
1F2B1
  8
0
 10
4932.6495046731215552
 20
327.3161590935436038
 30
0.0
 40
0.0236220471999991
 50
103.0000000036619952
 51
209.8071165790917973
  0
LINE
  5
1F2B2
  8
0
 10
4932.6472613533878757
 20
327.3258759788450902
 30
0.0
 11
4932.7147767594678953
 21
327.3414631385243752
 31
0.0
  0
ARC
  5
1F2B3
  8
0
 10
4932.652575157812862
 20
327.3028593631847798
 30
0.0
 40
0.0236220471999991
 50
103.0000000036619952
 51
214.6983582493581935
  0
LINE
  5
1F2B4
  8
0
 10
4932.6511905943525562
 20
327.3088565664046996
 30
0.0
 11
4932.7187060004325758
 21
327.3244437260839845
 31
0.0
  0
ARC
  5
1F2B5
  8
0
 10
4932.656504398778452
 20
327.2858399507445029
 30
0.0
 40
0.0236220471999991
 50
103.0000000036619952
 51
219.6940199400235088
  0
LINE
  5
1F2B6
  8
0
 10
4932.6559647899457559
 20
327.2881772533838216
 30
0.0
 11
4932.7234801960257755
 21
327.3037644130632202
 31
0.0
  0
ARC
  5
1F2B7
  8
0
 10
4932.6612785943707422
 20
327.2651606377235112
 30
0.0
 40
0.0236220471999991
 50
103.0000000036619952
 51
224.8133263965659125
  0
LINE
  5
1F2B8
  8
0
 10
4932.6615671706931607
 20
327.2639106763425048
 30
0.0
 11
4932.7290825767740898
 21
327.2794978360217897
 31
0.0
  0
ARC
  5
1F2B9
  8
0
 10
4932.666880975118147
 20
327.2408940606821943
 30
0.0
 40
0.0236220471999991
 50
103.0000000036619952
 51
230.1015460829123924
  0
LINE
  5
1F2BA
  8
0
 10
4932.6679780579688668
 20
327.236142072784105
 30
0.0
 11
4932.7354934640488864
 21
327.25172923246339
 31
0.0
  0
ARC
  5
1F2BB
  8
0
 10
4932.6732918623592923
 20
327.2131254571659156
 30
0.0
 40
0.0236220471511732
 50
102.9999999441356948
 51
235.6241909124850906
  0
LINE
  5
1F2BC
  8
0
 10
4932.6751749333170665
 20
327.2049689808550283
 30
0.0
 11
4932.7426903393961766
 21
327.2205561405343133
 31
0.0
  0
ARC
  5
1F2BD
  8
0
 10
4932.6804887377411433
 20
327.1819523651947179
 30
0.0
 40
0.0236220471999991
 50
103.0000000036619952
 51
241.4835324840522048
  0
LINE
  5
1F2BE
  8
0
 10
4932.6831325174571248
 20
327.170500897144791
 30
0.0
 11
4932.7506479235362349
 21
327.1860880568240759
 31
0.0
  0
ARC
  5
1F2BF
  8
0
 10
4932.6884463218812016
 20
327.1474842814845942
 30
0.0
 40
0.0236220472000008
 50
103.0000000036619952
 51
247.8565795755334875
  0
LINE
  5
1F2C0
  8
0
 10
4932.6918228590948274
 20
327.1328588920061975
 30
0.0
 11
4932.759338265174847
 21
327.1484460516854824
 31
0.0
  0
ARC
  5
1F2C1
  8
0
 10
4932.6971366634843434
 20
327.1098422763921008
 30
0.0
 40
0.0236220471464739
 50
102.9999999384126994
 51
255.1029792365413016
  0
LINE
  5
1F2C2
  8
0
 10
4932.7012154330741396
 20
327.092175184436087
 30
0.0
 11
4932.7687308391532497
 21
327.1077623441154856
 31
0.0
  0
ARC
  5
1F2C3
  8
0
 10
4932.7065292374982164
 20
327.0691585687757765
 30
0.0
 40
0.0236220471999991
 50
103.0000000036619952
 51
264.2200265088770266
  0
LINE
  5
1F2C4
  8
0
 10
4932.7112772476184546
 20
327.0485926774973109
 30
0.0
 11
4932.7787926536993837
 21
327.0641798371765958
 31
0.0
  0
ARC
  5
1F2C5
  8
0
 10
4932.7165910520434409
 20
327.0255760618368868
 30
0.0
 40
0.0236220471999991
 50
103.0000000036619952
 51
283.0000000036620236
  0
LINE
  5
1F2C6
  8
0
 10
4932.721904856490255
 20
327.0025594460792036
 30
0.0
 11
4932.7894202625711841
 21
327.0181466057586022
 31
0.0
  0
ARC
  5
1F2C7
  8
0
 10
4932.7272292779880445
 20
326.9795300429012741
 30
0.0
 40
0.023636896475914
 50
103.0181033680547955
 51
194.4318841886151006
  0
LINE
  5
1F2C8
  8
0
 10
4932.7326686728656568
 20
326.9559362351459981
 30
0.0
 11
4932.8001840789465859
 21
326.971523394825283
 31
0.0
  0
ARC
  5
1F2C9
  8
0
 10
4932.72735486844158
 20
326.9789528508063086
 30
0.0
 40
0.0236220471999964
 50
193.0000000036847041
 51
283.0000000036620236
  0
LINE
  5
1F2CA
  8
0
 10
4932.7835747384469869
 20
326.7354378402956741
 30
0.0
 11
4932.851090144526097
 21
326.7510249999750727
 31
0.0
  0
ARC
  5
1F2CB
  8
0
 10
4932.7888991599438668
 20
326.7124084371179151
 30
0.0
 40
0.023636896475914
 50
103.0181033680547955
 51
194.4318841886151006
  0
LINE
  5
1F2CC
  8
0
 10
4932.7943385548223887
 20
326.6888146293625255
 30
0.0
 11
4932.8618539609024083
 21
326.7044017890419241
 31
0.0
  0
ARC
  5
1F2CD
  8
0
 10
4932.7890247503974024
 20
326.7118312450227791
 30
0.0
 40
0.0236220471999964
 50
193.0000000036847041
 51
283.0000000036620236
  0
LINE
  5
1F2CE
  8
0
 10
4932.7972165938190301
 20
326.6763484728865023
 30
0.0
 11
4932.8647319998990497
 21
326.6919356325657873
 31
0.0
  0
ARC
  5
1F2CF
  8
0
 10
4932.80254101531591
 20
326.6533190697085161
 30
0.0
 40
0.023636896475914
 50
103.0181033680547955
 51
194.4318841886151006
  0
LINE
  5
1F2D0
  8
0
 10
4932.8079804101953414
 20
326.6297252619531832
 30
0.0
 11
4932.875495816275361
 21
326.645312421632525
 31
0.0
  0
ARC
  5
1F2D1
  8
0
 10
4932.8026666057703551
 20
326.6527418776134937
 30
0.0
 40
0.0236220471999964
 50
193.0000000036847041
 51
283.0000000036620236
  0
LINE
  5
1F2D2
  8
0
 10
4932.811190482211714
 20
326.6158209124612881
 30
0.0
 11
4932.8787058882917336
 21
326.631408072140573
 31
0.0
  0
ARC
  5
1F2D3
  8
0
 10
4932.8165149037085939
 20
326.5927915092833018
 30
0.0
 40
0.023636896475914
 50
103.0181033680547955
 51
194.4318841886151006
  0
LINE
  5
1F2D4
  8
0
 10
4932.8219542985889348
 20
326.5691977015280258
 30
0.0
 11
4932.8894697046671354
 21
326.5847848612074245
 31
0.0
  0
ARC
  5
1F2D5
  8
0
 10
4932.816640494163039
 20
326.5922143171882794
 30
0.0
 40
0.0236220471999964
 50
193.0000000036847041
 51
283.0000000036620236
  0
LINE
  5
1F2D6
  8
0
 10
4932.8254473198221604
 20
326.5540677643273284
 30
0.0
 11
4932.89296272590218
 21
326.569654924006727
 31
0.0
  0
ARC
  5
1F2D7
  8
0
 10
4932.8307717413181308
 20
326.531038361149399
 30
0.0
 40
0.023636896475914
 50
103.0181033680547955
 51
194.4318841886151006
  0
LINE
  5
1F2D8
  8
0
 10
4932.8362111361975622
 20
326.507444553394123
 30
0.0
 11
4932.9037265422775818
 21
326.5230317130734079
 31
0.0
  0
ARC
  5
1F2D9
  8
0
 10
4932.8308973317716664
 20
326.5304611690543766
 30
0.0
 40
0.0236220471999964
 50
193.0000000036847041
 51
283.0000000036620236
  0
LINE
  5
1F2DA
  8
0
 10
4932.8399370289680519
 20
326.4913059387533849
 30
0.0
 11
4932.9074524350480715
 21
326.5068930984327835
 31
0.0
  0
ARC
  5
1F2DB
  8
0
 10
4932.8452614504658413
 20
326.468276535575626
 30
0.0
 40
0.023636896475914
 50
103.0181033680547955
 51
194.4318841886151006
  0
LINE
  5
1F2DC
  8
0
 10
4932.8507008453443632
 20
326.4446827278201795
 30
0.0
 11
4932.9182162514225638
 21
326.4602698874995781
 31
0.0
  0
ARC
  5
1F2DD
  8
0
 10
4932.8453870409193769
 20
326.4676993434804899
 30
0.0
 40
0.0236220471999964
 50
193.0000000036847041
 51
283.0000000036620236
  0
LINE
  5
1F2DE
  8
0
 10
4932.8546087140466625
 20
326.4277558888181829
 30
0.0
 11
4932.9221241201266821
 21
326.4433430484975815
 31
0.0
  0
ARC
  5
1F2DF
  8
0
 10
4932.8599331355453614
 20
326.4047264856403103
 30
0.0
 40
0.023636896475914
 50
103.0181033680547955
 51
194.4318841886151006
  0
LINE
  5
1F2E0
  8
0
 10
4932.8653725304229738
 20
326.3811326778849207
 30
0.0
 11
4932.9328879365029934
 21
326.3967198375643193
 31
0.0
  0
ARC
  5
1F2E1
  8
0
 10
4932.8600587259979875
 20
326.4041492935452879
 30
0.0
 40
0.0236220471999964
 50
193.0000000036847041
 51
283.0000000036620236
  0
LINE
  5
1F2E2
  8
0
 10
4932.8694108402105485
 20
326.3636408364674253
 30
0.0
 11
4932.9369262462905681
 21
326.3792279961467102
 31
0.0
  0
ARC
  5
1F2E3
  8
0
 10
4932.8747352617092474
 20
326.3406114332894958
 30
0.0
 40
0.023636896475914
 50
103.0181033680547955
 51
194.4318841886151006
  0
LINE
  5
1F2E4
  8
0
 10
4932.8801746565868598
 20
326.3170176255342199
 30
0.0
 11
4932.9476900626668794
 21
326.3326047852135048
 31
0.0
  0
ARC
  5
1F2E5
  8
0
 10
4932.8748608521618735
 20
326.3400342411944166
 30
0.0
 40
0.0236220471999964
 50
193.0000000036847041
 51
283.0000000036620236
  0
LINE
  5
1F2E6
  8
0
 10
4932.8842914144570386
 20
326.2991859881465189
 30
0.0
 11
4932.9518068205370582
 21
326.3147731478258038
 31
0.0
  0
ARC
  5
1F2E7
  8
0
 10
4932.8896158359539186
 20
326.2761565849685894
 30
0.0
 40
0.023636896475914
 50
103.0181033680547955
 51
194.4318841886151006
  0
LINE
  5
1F2E8
  8
0
 10
4932.8950552308333499
 20
326.2525627772131998
 30
0.0
 11
4932.9625706369133695
 21
326.2681499368924847
 31
0.0
  0
ARC
  5
1F2E9
  8
0
 10
4932.8897414264083636
 20
326.2755793928735102
 30
0.0
 40
0.0236220471999964
 50
193.0000000036847041
 51
283.0000000036620236
  0
LINE
  5
1F2EA
  8
0
 10
4932.7703128335706424
 20
326.7928814612960196
 30
0.0
 11
4932.837828239650662
 21
326.8084686209754182
 31
0.0
  0
ARC
  5
1F2EB
  8
0
 10
4932.7756372550693413
 20
326.7698520581180901
 30
0.0
 40
0.023636896475914
 50
103.0181033680547955
 51
194.4318841886151006
  0
LINE
  5
1F2EC
  8
0
 10
4932.7810766499460442
 20
326.7462582503628141
 30
0.0
 11
4932.8485920560260638
 21
326.7618454100422127
 31
0.0
  0
ARC
  5
1F2ED
  8
0
 10
4932.7757628455228769
 20
326.7692748660231246
 30
0.0
 40
0.0236220471999964
 50
193.0000000036847041
 51
283.0000000036620236
  0
LINE
  5
1F2EE
  8
0
 10
4932.7574774621452889
 20
326.8484775629444812
 30
0.0
 11
4932.8249928682253085
 21
326.8640647226238798
 31
0.0
  0
ARC
  5
1F2EF
  8
0
 10
4932.7628018836439878
 20
326.8254481597666086
 30
0.0
 40
0.023636896475914
 50
103.0181033680547955
 51
194.4318841886151006
  0
LINE
  5
1F2F0
  8
0
 10
4932.7682412785206907
 20
326.8018543520112758
 30
0.0
 11
4932.8357566846007103
 21
326.8174415116906744
 31
0.0
  0
ARC
  5
1F2F1
  8
0
 10
4932.7629274740957044
 20
326.8248709676715862
 30
0.0
 40
0.0236220471999964
 50
193.0000000036847041
 51
283.0000000036620236
  0
LINE
  5
1F2F2
  8
0
 10
4932.7451137088846735
 20
326.9020308618955255
 30
0.0
 11
4932.8126291149646931
 21
326.9176180215746967
 31
0.0
  0
ARC
  5
1F2F3
  8
0
 10
4932.7504381303815535
 20
326.8790014587174824
 30
0.0
 40
0.023636896475914
 50
103.0181033680547955
 51
194.4318841886151006
  0
LINE
  5
1F2F4
  8
0
 10
4932.7558775252600753
 20
326.8554076509622064
 30
0.0
 11
4932.8233929313391855
 21
326.8709948106414913
 31
0.0
  0
ARC
  5
1F2F5
  8
0
 10
4932.750563720835089
 20
326.8784242666225168
 30
0.0
 40
0.0236220471999964
 50
193.0000000036847041
 51
283.0000000036620236
  0
LINE
  5
1F2F6
  8
0
 10
4932.7332650019152425
 20
326.9533532502589992
 30
0.0
 11
4932.8007804079952621
 21
326.9689404099382841
 31
0.0
  0
ARC
  5
1F2F7
  8
0
 10
4932.7385894234130319
 20
326.9303238470810129
 30
0.0
 40
0.023636896475914
 50
103.0181033680547955
 51
194.4318841886151006
  0
LINE
  5
1F2F8
  8
0
 10
4932.7440288182906443
 20
326.9067300393256801
 30
0.0
 11
4932.8115442243706639
 21
326.9223171990050218
 31
0.0
  0
ARC
  5
1F2F9
  8
0
 10
4932.7387150138647485
 20
326.9297466549859905
 30
0.0
 40
0.0236220471999964
 50
193.0000000036847041
 51
283.0000000036620236
  0
ARC
  5
1F2FA
  8
0
 10
4932.8402306355437759
 20
326.2580020222760027
 30
0.0
 40
0.0162130385671553
 50
142.0265747370060865
 51
252.0516287523795995
  0
ARC
  5
1F2FB
  8
0
 10
4932.8407346246567613
 20
326.2573342958925195
 30
0.0
 40
0.0157480314997762
 50
138.7159927596237878
 51
249.5577859573828903
  0
ARC
  5
1F2FC
  8
0
 10
4932.8423199301423665
 20
326.2573457470202811
 30
0.0
 40
0.0156940229183134
 50
137.4942103832306088
 51
249.5606179414598103
  0
ARC
  5
1F2FD
  8
0
 10
4932.8447168468037489
 20
326.2577126953161724
 30
0.0
 40
0.0157099723999999
 50
136.6725245125884953
 51
249.944424625517712
  0
ARC
  5
1F2FE
  8
0
 10
4932.8478831892607559
 20
326.2583547265085144
 30
0.0
 40
0.0157368240000005
 50
135.8546080123201989
 51
250.5840494806014078
  0
ARC
  5
1F2FF
  8
0
 10
4932.8518124678439563
 20
326.2591819841277925
 30
0.0
 40
0.0157480315000005
 50
134.8863282172881952
 51
251.3450847558951864
  0
ARC
  5
1F300
  8
0
 10
4932.8564595606121657
 20
326.2602041323384015
 30
0.0
 40
0.0157480315000006
 50
133.9422599504630966
 51
252.2455898817831041
  0
ARC
  5
1F301
  8
0
 10
4932.8618913102773149
 20
326.2614248722373986
 30
0.0
 40
0.0157480314999988
 50
133.8142796470355051
 51
252.2733581914251033
  0
ARC
  5
1F302
  8
0
 10
4932.8674473036462587
 20
326.262830084017196
 30
0.0
 40
0.0159502239352683
 50
141.7626954799366104
 51
244.974656983462495
  0
ARC
  5
1F303
  8
0
 10
4932.8771285639159032
 20
326.3072913991230166
 30
0.0
 40
0.0235816290000041
 50
139.960535132269797
 51
247.0580122899872038
  0
ARC
  5
1F304
  8
0
 10
4932.8713013881088045
 20
326.2952464623310789
 30
0.0
 40
0.0196668903999991
 50
153.123644022204104
 51
254.2998195744438021
  0
ARC
  5
1F305
  8
0
 10
4932.8739679424961651
 20
326.2671734132379129
 30
0.0
 40
0.0197871384842297
 50
139.6334487868670919
 51
246.372701747362413
  0
ARC
  5
1F306
  8
0
 10
4932.8616460472985636
 20
326.2869249367740849
 30
0.0
 40
0.0157335123000013
 50
127.4363839882872043
 51
244.6876251127511068
  0
ARC
  5
1F307
  8
0
 10
4932.858870990212381
 20
326.2863277595429281
 30
0.0
 40
0.0156511480000009
 50
133.5876435136339069
 51
251.9607372357853876
  0
ARC
  5
1F308
  8
0
 10
4932.8534156655859988
 20
326.2851279252407721
 30
0.0
 40
0.0157032478000017
 50
133.5627019338346884
 51
252.7806418985387893
  0
ARC
  5
1F309
  8
0
 10
4932.8483630498922139
 20
326.284037590196192
 30
0.0
 40
0.0156763329000012
 50
134.582264863354709
 51
251.8918636559662048
  0
ARC
  5
1F30A
  8
0
 10
4932.8441154758711491
 20
326.2831491545831
 30
0.0
 40
0.0157480248723672
 50
135.7180504009967024
 51
250.8614785326508922
  0
ARC
  5
1F30B
  8
0
 10
4932.8405803179475697
 20
326.2824730446379817
 30
0.0
 40
0.015748031499999
 50
136.8030596471135993
 51
250.0272209880058085
  0
ARC
  5
1F30C
  8
0
 10
4932.837804790516202
 20
326.2820372740432049
 30
0.0
 40
0.0157480314999984
 50
137.9746510880268886
 51
249.4137880664910938
  0
ARC
  5
1F30D
  8
0
 10
4932.8357599953878889
 20
326.2818701836077935
 30
0.0
 40
0.0157213538146056
 50
143.656077135876302
 51
248.9218095973822074
  0
ARC
  5
1F30E
  8
0
 10
4932.8345217262713049
 20
326.2820212097531112
 30
0.0
 40
0.0157480314999994
 50
142.1301305026485124
 51
248.0514778686224986
  0
ARC
  5
1F30F
  8
0
 10
4932.8365192928340548
 20
326.2703193459025783
 30
0.0
 40
0.015480101165386
 50
168.5461391118244023
 51
217.6957222218721881
  0
ARC
  5
1F310
  8
0
 10
4932.8587927342268813
 20
326.3495080874894256
 30
0.0
 40
0.0196850393999993
 50
148.5763361381274024
 51
253.4582200021781091
  0
ARC
  5
1F311
  8
0
 10
4932.8613838112460144
 20
326.3214004995136861
 30
0.0
 40
0.0197535162584312
 50
139.4680708187441098
 51
246.0909478411396094
  0
ARC
  5
1F312
  8
0
 10
4932.8504747625738673
 20
326.3353776410692149
 30
0.0
 40
0.0157480315004215
 50
135.0105661991673003
 51
235.9286045257154001
  0
ARC
  5
1F313
  8
0
 10
4932.8559677615021428
 20
326.3111924304890863
 30
0.0
 40
0.0156597589999964
 50
153.8616930303263075
 51
245.6173556574343877
  0
ARC
  5
1F314
  8
0
 10
4932.8506709194743962
 20
326.3100257242855946
 30
0.0
 40
0.0157480315000012
 50
134.266297349979709
 51
252.2201083440060074
  0
ARC
  5
1F315
  8
0
 10
4932.8452304336551606
 20
326.3088428248275932
 30
0.0
 40
0.0157480315000023
 50
134.4957503686406994
 51
252.0119850990666919
  0
ARC
  5
1F316
  8
0
 10
4932.8405734899652089
 20
326.3078633456461262
 30
0.0
 40
0.0157480314999994
 50
135.5756480617091881
 51
251.1130236870565966
  0
ARC
  5
1F317
  8
0
 10
4932.8366468262756825
 20
326.3070745938517803
 30
0.0
 40
0.0157480315000016
 50
136.7753319453503877
 51
250.0658611091116938
  0
ARC
  5
1F318
  8
0
 10
4932.8334955159216406
 20
326.3064868183159888
 30
0.0
 40
0.0157480314999984
 50
138.0806917701906116
 51
249.086091558349608
  0
ARC
  5
1F319
  8
0
 10
4932.8311266782484381
 20
326.3060673849329874
 30
0.0
 40
0.0157480314999989
 50
139.7254341926866914
 51
247.8915746295326983
  0
ARC
  5
1F31A
  8
0
 10
4932.8296087509543213
 20
326.3055257494041257
 30
0.0
 40
0.0157480314999996
 50
142.0862780420555964
 51
251.4079626634539011
  0
ARC
  5
1F31B
  8
0
 10
4932.8299893709718162
 20
326.3003175833190994
 30
0.0
 40
0.0157480315000016
 50
174.6360976660278936
 51
230.6734276074801073
  0
ARC
  5
1F31C
  8
0
 10
4932.8615662407646596
 20
326.3717232696096744
 30
0.0
 40
0.0229324119231376
 50
139.3325244788175894
 51
248.6204273264941946
  0
ARC
  5
1F31D
  8
0
 10
4932.8488357738297054
 20
326.375333781719803
 30
0.0
 40
0.0196850394000005
 50
139.1216023861261135
 51
245.7551087264465082
  0
ARC
  5
1F31E
  8
0
 10
4932.8467000977261705
 20
326.4035070941287131
 30
0.0
 40
0.0199075440341833
 50
136.853883202765104
 51
257.1155257016449127
  0
ARC
  5
1F31F
  8
0
 10
4932.8481527922731402
 20
326.4352521294546818
 30
0.0
 40
0.0241663889475161
 50
141.2188701904003096
 51
244.9685943749153125
  0
ARC
  5
1F320
  8
0
 10
4932.8393579050662083
 20
326.3835300411461731
 30
0.0
 40
0.015748031500003
 50
132.7865868504883906
 51
231.6901355203237927
  0
ARC
  5
1F321
  8
0
 10
4932.8366774017367788
 20
326.3828894426990246
 30
0.0
 40
0.0157480315000032
 50
135.0151822429347988
 51
246.4839433639315018
  0
ARC
  5
1F322
  8
0
 10
4932.8337987935919955
 20
326.4073715964368034
 30
0.0
 40
0.0156982972241165
 50
144.1372333797287979
 51
244.175759394258904
  0
ARC
  5
1F323
  8
0
 10
4932.8364888272462849
 20
326.4288142829497019
 30
0.0
 40
0.0196850393999992
 50
139.4959365514856984
 51
245.205953973716305
  0
ARC
  5
1F324
  8
0
 10
4932.8340208510699085
 20
326.4568069017124117
 30
0.0
 40
0.0196850394000002
 50
127.6960245250847947
 51
240.7023842308612984
  0
ARC
  5
1F325
  8
0
 10
4932.8229283061627939
 20
326.4546944524004743
 30
0.0
 40
0.0157480315000003
 50
142.6778831478171981
 51
258.555418559898385
  0
ARC
  5
1F326
  8
0
 10
4932.8176596779703686
 20
326.4530131204027157
 30
0.0
 40
0.0157480315000013
 50
136.0327371351860108
 51
249.2498779571172065
  0
ARC
  5
1F327
  8
0
 10
4932.8123970088945498
 20
326.451060012003893
 30
0.0
 40
0.0157480314999981
 50
136.5737454444646062
 51
248.130974197969806
  0
ARC
  5
1F328
  8
0
 10
4932.8080278275865567
 20
326.4488340970045783
 30
0.0
 40
0.0157480314999985
 50
120.0612896629430963
 51
245.5870214418335138
  0
ARC
  5
1F329
  8
0
 10
4932.8046028847429625
 20
326.4458721534797974
 30
0.0
 40
0.0157480315000003
 50
139.5188079373318999
 51
241.8518308529941976
  0
ARC
  5
1F32A
  8
0
 10
4932.8024247404318885
 20
326.4410691327090035
 30
0.0
 40
0.0157480315000011
 50
145.9667078156552975
 51
235.7416508050515915
  0
ARC
  5
1F32B
  8
0
 10
4932.8022778436379667
 20
326.4310254160120053
 30
0.0
 40
0.015748031500006
 50
160.5643153330715904
 51
223.8180361180253044
  0
ARC
  5
1F32C
  8
0
 10
4932.8009350842130516
 20
326.4328390171431806
 30
0.0
 40
0.0157480314999997
 50
154.3407454632829001
 51
220.6241744053546938
  0
ARC
  5
1F32D
  8
0
 10
4932.8283465382210125
 20
326.431225510966101
 30
0.0
 40
0.0157480314999971
 50
143.1162128625672949
 51
238.9104261615439952
  0
ARC
  5
1F32E
  8
0
 10
4932.8257094270047673
 20
326.4303969606257851
 30
0.0
 40
0.0157480314999989
 50
135.5901007935939049
 51
250.3346911828826933
  0
ARC
  5
1F32F
  8
0
 10
4932.8285056054837696
 20
326.406034247052105
 30
0.0
 40
0.0157480314999993
 50
135.4153128320251085
 51
250.64379108869079
  0
ARC
  5
1F330
  8
0
 10
4932.8311979547843293
 20
326.3815624961761728
 30
0.0
 40
0.0157480314999972
 50
134.8649643073889877
 51
251.3687324551347899
  0
ARC
  5
1F331
  8
0
 10
4932.8459698354954526
 20
326.3599010154031816
 30
0.0
 40
0.0165861402826157
 50
154.5688125573597915
 51
242.075043304115411
  0
ARC
  5
1F332
  8
0
 10
4932.8395257588726963
 20
326.358300718532405
 30
0.0
 40
0.0157480315000025
 50
134.8025336131084941
 51
251.5910642426347863
  0
ARC
  5
1F333
  8
0
 10
4932.8477776763020302
 20
326.3348088712343156
 30
0.0
 40
0.0157480314999989
 50
134.2549113287251998
 51
247.1449780191856007
  0
ARC
  5
1F334
  8
0
 10
4932.8422724371821459
 20
326.3335936428651962
 30
0.0
 40
0.0157480315000006
 50
134.2250294455257915
 51
252.2097051966329104
  0
ARC
  5
1F335
  8
0
 10
4932.8372489880566718
 20
326.3324966208855926
 30
0.0
 40
0.0157480314999987
 50
135.4892871532256891
 51
251.075884108442807
  0
ARC
  5
1F336
  8
0
 10
4932.8329392156383619
 20
326.3315589063734024
 30
0.0
 40
0.0157480315000008
 50
136.6114841882175881
 51
250.0824574497374044
  0
ARC
  5
1F337
  8
0
 10
4932.8294296781241428
 20
326.330771772006301
 30
0.0
 40
0.0157480315000001
 50
138.0273310435860878
 51
248.798634369561313
  0
ARC
  5
1F338
  8
0
 10
4932.8267239429933397
 20
326.3300336977397933
 30
0.0
 40
0.0157480315000002
 50
139.654679767800701
 51
247.1140408816509932
  0
ARC
  5
1F339
  8
0
 10
4932.8249277415079632
 20
326.3289154009476078
 30
0.0
 40
0.0157480314999996
 50
141.8007881267440098
 51
243.9130938807331859
  0
ARC
  5
1F33A
  8
0
 10
4932.824752833630555
 20
326.3243349325273925
 30
0.0
 40
0.0157480314999925
 50
169.4448784828609007
 51
232.5566156613909925
  0
ARC
  5
1F33B
  8
0
 10
4932.8262682677241173
 20
326.3164354522568829
 30
0.0
 40
0.0157480314999931
 50
176.0634474367201108
 51
218.2631243440395963
  0
ARC
  5
1F33C
  8
0
 10
4932.8231343234274391
 20
326.4045515931670138
 30
0.0
 40
0.0157480314999986
 50
135.887651714599599
 51
249.9982290674817875
  0
ARC
  5
1F33D
  8
0
 10
4932.8262164689749625
 20
326.3802837111124973
 30
0.0
 40
0.0157480315000005
 50
136.2791785008028
 51
249.9049135134272888
  0
ARC
  5
1F33E
  8
0
 10
4932.8294704294494295
 20
326.3559559843918123
 30
0.0
 40
0.0157480315000013
 50
136.4233230909179042
 51
250.0383095230237132
  0
ARC
  5
1F33F
  8
0
 10
4932.834100249147923
 20
326.3570529504847855
 30
0.0
 40
0.015748031500001
 50
135.1604678473350134
 51
251.2733240923039943
  0
ARC
  5
1F340
  8
0
 10
4932.8255958237759842
 20
326.3549417445591985
 30
0.0
 40
0.0157480315000041
 50
137.8752546306801889
 51
248.5268989335438903
  0
ARC
  5
1F341
  8
0
 10
4932.8225291810749695
 20
326.3538794781613888
 30
0.0
 40
0.0157257616411107
 50
139.4747740245591956
 51
246.6089989610937039
  0
ARC
  5
1F342
  8
0
 10
4932.8205069229034052
 20
326.3523123587781924
 30
0.0
 40
0.0158061540397322
 50
180.8699023130382102
 51
242.8301672630558983
  0
ARC
  5
1F343
  8
0
 10
4932.8202939337188582
 20
326.3523091247876096
 30
0.0
 40
0.0155931403051176
 50
129.9115742320157096
 51
180.8699023130413934
  0
ARC
  5
1F344
  8
0
 10
4932.815188289314392
 20
326.3711016031371059
 30
0.0
 40
0.0157480315000006
 50
159.0718311554842046
 51
233.9702059284182951
  0
ARC
  5
1F345
  8
0
 10
4932.8161724676001541
 20
326.3756317732198795
 30
0.0
 40
0.015731450289847
 50
140.8953640158165967
 51
239.3602240011013862
  0
ARC
  5
1F346
  8
0
 10
4932.8183941890592905
 20
326.3774560247262002
 30
0.0
 40
0.0154780651033372
 50
137.9990413088025889
 51
246.5085275468381951
  0
ARC
  5
1F347
  8
0
 10
4932.8219792582522132
 20
326.3790316973611993
 30
0.0
 40
0.0157480315000008
 50
137.5891589022392054
 51
248.3654523868399906
  0
ARC
  5
1F348
  8
0
 10
4932.8185926815722269
 20
326.403072686870189
 30
0.0
 40
0.0157480315000016
 50
137.2907158278009945
 51
248.2233385860610042
  0
ARC
  5
1F349
  8
0
 10
4932.8148726032823106
 20
326.4013891154089038
 30
0.0
 40
0.0157480314999965
 50
138.875451852172489
 51
245.7795680546983021
  0
ARC
  5
1F34A
  8
0
 10
4932.8121329165560383
 20
326.3990184020614151
 30
0.0
 40
0.0157480315000025
 50
140.4928039399339923
 51
242.6448436530666868
  0
ARC
  5
1F34B
  8
0
 10
4932.8107322833129729
 20
326.3944052145395176
 30
0.0
 40
0.0157480315000021
 50
154.3059931452011142
 51
234.5809610021678964
  0
ARC
  5
1F34C
  8
0
 10
4932.8122863907601641
 20
326.3806793407377995
 30
0.0
 40
0.0157754118321792
 50
160.3686501827774009
 51
215.5144377678639103
  0
ARC
  5
1F34D
  8
0
 10
4932.8155292936480691
 20
326.362457382353
 30
0.0
 40
0.0153532564404038
 50
168.63742119440019
 51
212.3709343145100945
  0
ARC
  5
1F34E
  8
0
 10
4932.8182254682533312
 20
326.3526080581821134
 30
0.0
 40
0.0157480315000089
 50
152.8112052432308872
 51
207.8095447354087071
  0
ARC
  5
1F34F
  8
0
 10
4932.819750136982293
 20
326.3477375222828982
 30
0.0
 40
0.0156510204342221
 50
164.0312648161668108
 51
233.5986881230620043
  0
ARC
  5
1F350
  8
0
 10
4932.8074434678719626
 20
326.4015341382922202
 30
0.0
 40
0.0157480315000277
 50
175.8413744636752085
 51
219.1997194818879109
  0
ARC
  5
1F351
  8
0
 10
4932.8070547876468481
 20
326.4063316693765842
 30
0.0
 40
0.0157480314999948
 50
161.6606479865235997
 51
220.4814649232627914
  0
ARC
  5
1F352
  8
0
 10
4932.8082690498013108
 20
326.4224285230455962
 30
0.0
 40
0.0157480315000002
 50
140.0038752441500094
 51
241.8628504585414873
  0
ARC
  5
1F353
  8
0
 10
4932.8064792362702065
 20
326.4177231564639214
 30
0.0
 40
0.0157480315000031
 50
149.9768296405069066
 51
235.1641065485291904
  0
ARC
  5
1F354
  8
0
 10
4932.8057932453366448
 20
326.4086820373839259
 30
0.0
 40
0.0157480315000035
 50
158.9299069044006103
 51
206.4687746985322008
  0
ARC
  5
1F355
  8
0
 10
4932.8202942286161488
 20
326.4287917230021208
 30
0.0
 40
0.0157480314999995
 50
135.5325114456506981
 51
250.0282250778186892
  0
ARC
  5
1F356
  8
0
 10
4932.8154126603276382
 20
326.4270801476019983
 30
0.0
 40
0.0157480314999991
 50
137.0505677848728965
 51
248.0433581303992128
  0
ARC
  5
1F357
  8
0
 10
4932.8113411651092974
 20
326.4251103411473878
 30
0.0
 40
0.0157480315000032
 50
138.4388657017449873
 51
245.6565960581332035
  0
ARC
  5
1F358
  8
0
 10
4932.6561491060956541
 20
327.2705511298614169
 30
0.0
 40
0.0250583461362007
 50
155.3170515342021929
 51
202.7888997279106889
  0
ARC
  5
1F359
  8
0
 10
4932.6565956423037278
 20
327.2627041198238089
 30
0.0
 40
0.023622047199984
 50
150.9042939296058989
 51
205.6785486316078959
  0
ARC
  5
1F35A
  8
0
 10
4932.6589282000086314
 20
327.2526007024047772
 30
0.0
 40
0.0236220471999941
 50
153.708538444433799
 51
210.8218998543437976
  0
ARC
  5
1F35B
  8
0
 10
4932.6621808775753379
 20
327.2385118080021016
 30
0.0
 40
0.0236220471999944
 50
147.5792440040497979
 51
215.7949046513932103
  0
ARC
  5
1F35C
  8
0
 10
4932.6668556734166486
 20
327.2207148642553989
 30
0.0
 40
0.0241651440286869
 50
153.5599266143161117
 51
220.9786371500663051
  0
ARC
  5
1F35D
  8
0
 10
4932.6598144731788125
 20
327.2113776244718792
 30
0.0
 40
0.0196850394000067
 50
150.4292186557109972
 51
201.823231793592214
  0
ARC
  5
1F35E
  8
0
 10
4932.6622341070160473
 20
327.2050237467145735
 30
0.0
 40
0.0207163858422906
 50
154.0091942826882985
 51
204.1199145308351035
  0
ARC
  5
1F35F
  8
0
 10
4932.6713916643093398
 20
327.1986155074919225
 30
0.0
 40
0.0236220471999985
 50
154.4949544875046001
 51
226.8627347457654935
  0
ARC
  5
1F360
  8
0
 10
4932.6629803244313734
 20
327.1976648161599996
 30
0.0
 40
0.0196850394000063
 50
148.1100151694132023
 51
209.0730013942470009
  0
ARC
  5
1F361
  8
0
 10
4932.6654323076600122
 20
327.1870441099607092
 30
0.0
 40
0.0196850393999935
 50
152.8729733756701137
 51
213.760917425415812
  0
ARC
  5
1F362
  8
0
 10
4932.668571607827289
 20
327.1734463070350216
 30
0.0
 40
0.019685039400001
 50
145.4230497616651121
 51
218.5285791684127048
  0
ARC
  5
1F363
  8
0
 10
4932.6773134226896218
 20
327.1729655539355122
 30
0.0
 40
0.023622047200005
 50
148.9010766658639966
 51
232.565215231916909
  0
ARC
  5
1F364
  8
0
 10
4932.6840827428377452
 20
327.1436444070442917
 30
0.0
 40
0.0236220472000017
 50
130.8304170812249936
 51
238.5771221691466906
  0
ARC
  5
1F365
  8
0
 10
4932.691672909359113
 20
327.1107677838843983
 30
0.0
 40
0.0236220471999983
 50
133.746844277390494
 51
245.0559725732530012
  0
ARC
  5
1F366
  8
0
 10
4932.6723883475297043
 20
327.1569141910949838
 30
0.0
 40
0.0196850394000046
 50
153.2399158144619093
 51
222.4495101500264127
  0
ARC
  5
1F367
  8
0
 10
4932.6775785698982872
 20
327.1379599478539717
 30
0.0
 40
0.0205138557089925
 50
141.3206807164582983
 51
227.8118909658884945
  0
ARC
  5
1F368
  8
0
 10
4932.6820040162647274
 20
327.1152641539617889
 30
0.0
 40
0.0196850393999995
 50
141.0186501712954907
 51
233.6442913379833897
  0
ARC
  5
1F369
  8
0
 10
4932.700053967322674
 20
327.0744654335221071
 30
0.0
 40
0.0236220472000008
 50
136.0065611840836084
 51
240.8706167685226092
  0
ARC
  5
1F36A
  8
0
 10
4932.7295969163742484
 20
326.9465008624940197
 30
0.0
 40
0.023622047199997
 50
140.4377039015213029
 51
232.0830455103846077
  0
ARC
  5
1F36B
  8
0
 10
4932.7168074079527287
 20
326.9645141025658859
 30
0.0
 40
0.0196850393999974
 50
142.0803170234163986
 51
236.7887094693207075
  0
ARC
  5
1F36C
  8
0
 10
4932.7197477550917029
 20
326.9344754203762022
 30
0.0
 40
0.0196850393999997
 50
135.5384663217465118
 51
231.3961044531048117
  0
ARC
  5
1F36D
  8
0
 10
4932.7254418634283866
 20
326.9271141670030829
 30
0.0
 40
0.019685039400003
 50
151.3335070135537137
 51
252.4838972648906008
  0
ARC
  5
1F36E
  8
0
 10
4932.7407815934739119
 20
326.898054703483524
 30
0.0
 40
0.023622047200003
 50
141.4908769583589105
 51
233.7126602927017132
  0
ARC
  5
1F36F
  8
0
 10
4932.7345748235748033
 20
326.8875549704732748
 30
0.0
 40
0.0196850393999982
 50
152.0050084364260954
 51
253.7131662588544998
  0
ARC
  5
1F370
  8
0
 10
4932.7282152695070181
 20
326.8977985859821729
 30
0.0
 40
0.0196850394000044
 50
136.9920981300184053
 51
229.666817689578096
  0
ARC
  5
1F371
  8
0
 10
4932.7372162403207767
 20
326.8588110980675197
 30
0.0
 40
0.0196850394000008
 50
138.0975884344832991
 51
230.2360481076711096
  0
ARC
  5
1F372
  8
0
 10
4932.7525633524674049
 20
326.8470222986617273
 30
0.0
 40
0.0236220472000049
 50
141.8828723604136997
 51
235.708898703481907
  0
ARC
  5
1F373
  8
0
 10
4932.7441775527004211
 20
326.8459609809578978
 30
0.0
 40
0.0196850394000013
 50
123.6785820913538032
 51
255.3845362651071866
  0
ARC
  5
1F374
  8
0
 10
4932.7467190513161768
 20
326.8176499015190188
 30
0.0
 40
0.0196850394000006
 50
138.9104355037351866
 51
231.7669238585883988
  0
ARC
  5
1F375
  8
0
 10
4932.7542198370838378
 20
326.8024630684383283
 30
0.0
 40
0.0196850394000019
 50
133.2659764099674931
 51
230.6071196899929134
  0
ARC
  5
1F376
  8
0
 10
4932.7648956961502336
 20
326.7936050495413838
 30
0.0
 40
0.0236220471999988
 50
142.0649456829482062
 51
237.7842269790151022
  0
ARC
  5
1F377
  8
0
 10
4932.7566903235110658
 20
326.7744595765825011
 30
0.0
 40
0.0196850393999978
 50
138.0675951469737868
 51
233.6936012529355082
  0
ARC
  5
1F378
  8
0
 10
4932.7646700799668906
 20
326.7571980935182978
 30
0.0
 40
0.0196850393999965
 50
129.5501658187579892
 51
238.0030901312948117
  0
ARC
  5
1F379
  8
0
 10
4932.7777299543831759
 20
326.7380137696605971
 30
0.0
 40
0.0236220471999993
 50
142.0713771850514888
 51
239.7785625950714063
  0
ARC
  5
1F37A
  8
0
 10
4932.7754954010206347
 20
326.7103084765579979
 30
0.0
 40
0.0196850393999976
 50
142.0086285413767939
 51
253.9962338874107957
  0
ARC
  5
1F37B
  8
0
 10
4932.7910154761948434
 20
326.6804678524703149
 30
0.0
 40
0.0236220471999987
 50
141.9346158082873046
 51
241.5958976891629959
  0
ARC
  5
1F37C
  8
0
 10
4932.786661739797637
 20
326.6619417495593893
 30
0.0
 40
0.0196850394000014
 50
151.9530089811001119
 51
253.6597401300222998
  0
ARC
  5
1F37D
  8
0
 10
4932.804699829747733
 20
326.6211944052171248
 30
0.0
 40
0.0236220472000013
 50
141.6868505903636901
 51
243.1772482326333034
  0
ARC
  5
1F37E
  8
0
 10
4932.8020158474409982
 20
326.6145828328678249
 30
0.0
 40
0.0234452524686392
 50
172.8736952144915904
 51
247.0631548607398997
  0
ARC
  5
1F37F
  8
0
 10
4932.7091928405343424
 20
327.0348806247008042
 30
0.0
 40
0.0236220471999969
 50
137.7462828888643003
 51
233.0618884995064093
  0
ARC
  5
1F380
  8
0
 10
4932.7086986243111824
 20
326.9996371032688103
 30
0.0
 40
0.0196850393999974
 50
131.1424005582256882
 51
233.3457089711340871
  0
ARC
  5
1F381
  8
0
 10
4932.719053462004922
 20
326.9921695807066726
 30
0.0
 40
0.0236220471999923
 50
139.0602661695340885
 51
231.4169378076915109
  0
ARC
  5
1F382
  8
0
 10
4932.7118434395642907
 20
326.9687127723781259
 30
0.0
 40
0.0196850394000046
 50
136.3729839227669061
 51
239.2797725610932957
  0
ARC
  5
1F383
  8
0
 10
4932.7045300870786377
 20
327.0003903822138227
 30
0.0
 40
0.0196850393999991
 50
131.2734112504705877
 51
248.6672317158673877
  0
ARC
  5
1F384
  8
0
 10
4932.6977063884087329
 20
326.9970901679242843
 30
0.0
 40
0.0157480314999957
 50
172.4577245212965977
 51
246.6196614991613956
  0
ARC
  5
1F385
  8
0
 10
4932.7034105618258764
 20
326.9723826783927052
 30
0.0
 40
0.0157480314999997
 50
130.6616216708023899
 51
235.5526809992755943
  0
ARC
  5
1F386
  8
0
 10
4932.7042723919439595
 20
326.9686496820315256
 30
0.0
 40
0.0157480314999942
 50
186.0132235183357921
 51
250.3200628036667865
  0
ARC
  5
1F387
  8
0
 10
4932.709945381057878
 20
326.9453127899716947
 30
0.0
 40
0.0160264002198293
 50
144.1309418610597959
 51
232.3213665761217896
  0
ARC
  5
1F388
  8
0
 10
4932.7038648382922474
 20
326.9581638568885751
 30
0.0
 40
0.0157480315000046
 50
162.0705431574878048
 51
230.8928543802404931
  0
ARC
  5
1F389
  8
0
 10
4932.7052236917170376
 20
326.9400268821104873
 30
0.0
 40
0.0157480314999966
 50
149.0124009932688978
 51
221.0450183770919921
  0
ARC
  5
1F38A
  8
0
 10
4932.7083281962941328
 20
326.9388309293976249
 30
0.0
 40
0.0157480315000031
 50
156.1991145649450914
 51
239.0654501029204937
  0
ARC
  5
1F38B
  8
0
 10
4932.7085548460472637
 20
326.9255980675054047
 30
0.0
 40
0.0157480315000044
 50
156.1337245815556116
 51
227.5444282878970057
  0
ARC
  5
1F38C
  8
0
 10
4932.7134303898237704
 20
326.9167309012212854
 30
0.0
 40
0.0157480315000026
 50
139.126184799523088
 51
246.8482338154126978
  0
ARC
  5
1F38D
  8
0
 10
4932.7166991529284132
 20
326.916035196853727
 30
0.0
 40
0.0160560732454864
 50
149.1473423239332021
 51
235.8526073161866066
  0
ARC
  5
1F38E
  8
0
 10
4932.7090206113407476
 20
326.9189632432588724
 30
0.0
 40
0.0177031887425543
 50
156.2680106424369058
 51
204.7063846619311107
  0
ARC
  5
1F38F
  8
0
 10
4932.7086690681580876
 20
326.9122934123399773
 30
0.0
 40
0.0157480314999953
 50
155.5032514214784101
 51
209.3801636731795952
  0
ARC
  5
1F390
  8
0
 10
4932.7125965042760072
 20
326.908091722394488
 30
0.0
 40
0.0157480315000029
 50
158.4907687901730071
 51
234.9208655533300032
  0
ARC
  5
1F391
  8
0
 10
4932.7134501347918558
 20
326.8915843375752956
 30
0.0
 40
0.0157480314999977
 50
151.3048067951127109
 51
223.1050693442350905
  0
ARC
  5
1F392
  8
0
 10
4932.7173300665554052
 20
326.8875884115923895
 30
0.0
 40
0.0157480314999974
 50
148.7087113401479996
 51
242.7095612603500001
  0
ARC
  5
1F393
  8
0
 10
4932.7191512828403575
 20
326.8919509911473824
 30
0.0
 40
0.0157480315000013
 50
126.7351767728361978
 51
227.5807573068431111
  0
ARC
  5
1F394
  8
0
 10
4932.7236423532312983
 20
326.8847491620541064
 30
0.0
 40
0.0157480314999957
 50
153.8704241374088895
 51
258.7192773211771737
  0
ARC
  5
1F395
  8
0
 10
4932.7227343916665632
 20
326.8641797077615934
 30
0.0
 40
0.0157480314999797
 50
136.6501627255800031
 51
243.2867104317707003
  0
ARC
  5
1F396
  8
0
 10
4932.7313553036619851
 20
326.8513407033535145
 30
0.0
 40
0.0157480315000025
 50
151.3807380876135937
 51
254.3019417464352898
  0
ARC
  5
1F397
  8
0
 10
4932.7263475256277161
 20
326.8357196003460103
 30
0.0
 40
0.015748031499999
 50
130.8372081109627061
 51
247.141526280442406
  0
ARC
  5
1F398
  8
0
 10
4932.7374403492167403
 20
326.8273201747223879
 30
0.0
 40
0.0162024858601126
 50
142.7016511209153009
 51
213.5842161251351001
  0
ARC
  5
1F399
  8
0
 10
4932.7395135609021963
 20
326.8160034089551118
 30
0.0
 40
0.0157480314999998
 50
124.2526539857220058
 51
251.7653526221560867
  0
ARC
  5
1F39A
  8
0
 10
4932.7449584140267689
 20
326.7924191590083183
 30
0.0
 40
0.0157480314999976
 50
142.7809373135389137
 51
219.2445412219379079
  0
ARC
  5
1F39B
  8
0
 10
4932.7480914560774181
 20
326.7788484629601271
 30
0.0
 40
0.015748031500004
 50
129.0776343123673939
 51
234.2021796751907914
  0
ARC
  5
1F39C
  8
0
 10
4932.6700751275020593
 20
327.1566266189382759
 30
0.0
 40
0.0213081996196532
 50
155.8523255158918914
 51
201.8916781198940953
  0
ARC
  5
1F39D
  8
0
 10
4932.6689738154327642
 20
327.1505468504786904
 30
0.0
 40
0.018763285048139
 50
148.2528146990161133
 51
205.75029171024579
  0
ARC
  5
1F39E
  8
0
 10
4932.6717587573357378
 20
327.1423386063236194
 30
0.0
 40
0.0196850394000048
 50
155.7761841462119037
 51
209.9636258322817071
  0
ARC
  5
1F39F
  8
0
 10
4932.6743427234887349
 20
327.1311462192791168
 30
0.0
 40
0.019685039399999
 50
150.0427075473033085
 51
214.9233250769657957
  0
ARC
  5
1F3A0
  8
0
 10
4932.6776493753386603
 20
327.1168235365691999
 30
0.0
 40
0.019685039400003
 50
150.4014505247004081
 51
219.978424647510991
  0
ARC
  5
1F3A1
  8
0
 10
4932.6816670981470452
 20
327.0994208671614274
 30
0.0
 40
0.0196850394000012
 50
155.0465364765925926
 51
229.9492199802025993
  0
ARC
  5
1F3A2
  8
0
 10
4932.687772690888778
 20
327.090277279014515
 30
0.0
 40
0.0196850394000011
 50
150.4283374301170113
 51
234.8283958358545078
  0
ARC
  5
1F3A3
  8
0
 10
4932.6863817795183422
 20
327.0789993385516254
 30
0.0
 40
0.0196850394000006
 50
160.8355631681382079
 51
230.530021604246997
  0
ARC
  5
1F3A4
  8
0
 10
4932.6777507912556757
 20
327.0835273555230742
 30
0.0
 40
0.0157480314999973
 50
151.7314772822959128
 51
216.3835653534274002
  0
ARC
  5
1F3A5
  8
0
 10
4932.6802324128593682
 20
327.0712891391135031
 30
0.0
 40
0.015434056042008
 50
151.2660646777800082
 51
222.2738242390041989
  0
ARC
  5
1F3A6
  8
0
 10
4932.6806746826614472
 20
327.0586114564994205
 30
0.0
 40
0.0157480314999984
 50
156.7038470784964943
 51
229.9428776115244091
  0
ARC
  5
1F3A7
  8
0
 10
4932.68469011903926
 20
327.0534698246555081
 30
0.0
 40
0.0157480315001135
 50
189.4538941628754003
 51
206.5392194518867939
  0
ARC
  5
1F3A8
  8
0
 10
4932.6839640083717313
 20
327.0566149554948083
 30
0.0
 40
0.0157480315
 50
142.6294069029335958
 51
227.4093160368437054
  0
ARC
  5
1F3A9
  8
0
 10
4932.6917768589846673
 20
327.0556306820125201
 30
0.0
 40
0.019685039399999
 50
150.3716447874805056
 51
236.0029619751823873
  0
ARC
  5
1F3AA
  8
0
 10
4932.6941583913167051
 20
327.0626177716774237
 30
0.0
 40
0.0196850394000011
 50
153.0357864231932865
 51
244.5113770434984133
  0
ARC
  5
1F3AB
  8
0
 10
4932.7011410257773605
 20
327.0323726589824105
 30
0.0
 40
0.0196850394000014
 50
124.7170554158626032
 51
251.578423599951492
  0
ARC
  5
1F3AC
  8
0
 10
4932.697551440686766
 20
327.0293624298636246
 30
0.0
 40
0.0195084963676547
 50
125.2674264009660021
 51
242.8169736679782034
  0
ARC
  5
1F3AD
  8
0
 10
4932.6879677910756072
 20
327.0392726673127868
 30
0.0
 40
0.0157480314999975
 50
151.2541458737437949
 51
231.6469902935693881
  0
ARC
  5
1F3AE
  8
0
 10
4932.6863488117905945
 20
327.0462852370230848
 30
0.0
 40
0.0157480315000193
 50
173.3304123967326973
 51
206.2091104798032859
  0
ARC
  5
1F3AF
  8
0
 10
4932.6916228459040212
 20
327.0234408855081938
 30
0.0
 40
0.0157480314999805
 50
161.9436348319640047
 51
200.5469869316686129
  0
ARC
  5
1F3B0
  8
0
 10
4932.6886625258166532
 20
327.0362634405382778
 30
0.0
 40
0.0157480314999301
 50
187.3727557000447916
 51
217.697343365119508
  0
ARC
  5
1F3B1
  8
0
 10
4932.6925533937319415
 20
327.0194102400411111
 30
0.0
 40
0.0157480314999999
 50
154.731397681830714
 51
243.3012019756164079
  0
ARC
  5
1F3B2
  8
0
 10
4932.6952202477341416
 20
327.0078588262741732
 30
0.0
 40
0.0157480314999935
 50
170.8888468825412872
 51
231.7127827839221084
  0
ARC
  5
1F3B3
  8
0
 10
4932.6944712238037027
 20
326.9988520714073843
 30
0.0
 40
0.0157480314999953
 50
158.5705388735833878
 51
213.2450154612319011
  0
ARC
  5
1F3B4
  8
0
 10
4932.6927130602844045
 20
327.0064675142771762
 30
0.0
 40
0.0157480314999922
 50
156.4414559629005055
 51
207.3680887190116948
  0
ARC
  5
1F3B5
  8
0
 10
4932.6919029127566318
 20
327.0124542523594755
 30
0.0
 40
0.0163582005064185
 50
158.4804035614046995
 51
204.1921593456090989
  0
ARC
  5
1F3B6
  8
0
 10
4932.6931798802861522
 20
327.010990113286482
 30
0.0
 40
0.0172683758340181
 50
159.6342725367059927
 51
190.269927069417804
  0
ARC
  5
1F3B7
  8
0
 10
4932.6969229099850054
 20
326.9882326518639957
 30
0.0
 40
0.015748031500003
 50
158.5461762411067923
 51
219.3935057478101101
  0
ARC
  5
1F3B8
  8
0
 10
4932.7014074280868954
 20
326.990577442041797
 30
0.0
 40
0.0178878188866888
 50
181.0568902317436084
 51
224.7126902607085128
  0
ARC
  5
1F3B9
  8
0
 10
4932.7007461623179552
 20
326.959421192674597
 30
0.0
 40
0.0157480314999931
 50
154.5233451182014903
 51
208.238743029857801
  0
ARC
  5
1F3BA
  8
0
 10
4932.7010943575005513
 20
326.9744964898737862
 30
0.0
 40
0.016764524291421
 50
154.8352670406790992
 51
228.8053726691456973
  0
ARC
  5
1F3BB
  8
0
 10
4932.7015190005322438
 20
326.9656910951185864
 30
0.0
 40
0.0179963859811855
 50
160.4346349961265048
 51
203.5827383640882999
  0
ARC
  5
1F3BC
  8
0
 10
4932.7025053100933292
 20
326.9513091831857992
 30
0.0
 40
0.0156468702481186
 50
156.7305045645614996
 51
214.776056481591894
  0
ARC
  5
1F3BD
  8
0
 10
4932.7106671246347105
 20
326.9036388789201055
 30
0.0
 40
0.0157480314999986
 50
147.7099624198864092
 51
216.128780281117912
  0
ARC
  5
1F3BE
  8
0
 10
4932.6755604467989542
 20
327.0930147796947836
 30
0.0
 40
0.0157480315000118
 50
149.0473773346678001
 51
211.0079642903918113
  0
ARC
  5
1F3BF
  8
0
 10
4932.6739909603902561
 20
327.0998129722062231
 30
0.0
 40
0.0157480314999958
 50
150.5321336295224057
 51
205.7983349785785947
  0
ARC
  5
1F3C0
  8
0
 10
4932.6731409668118431
 20
327.1051581823642209
 30
0.0
 40
0.0161671528916868
 50
154.5749071398520016
 51
203.1477183063682901
  0
ARC
  5
1F3C1
  8
0
 10
4932.7561629802457901
 20
326.6946363503406019
 30
0.0
 40
0.0157480315000063
 50
143.276891763300199
 51
228.5718730988077141
  0
ARC
  5
1F3C2
  8
0
 10
4932.7588742047237247
 20
326.7076409794473761
 30
0.0
 40
0.0157480315000012
 50
140.8445272106386881
 51
233.0704050020482043
  0
ARC
  5
1F3C3
  8
0
 10
4932.7623953833208361
 20
326.7168913472123108
 30
0.0
 40
0.0157480315000032
 50
154.0964987388134091
 51
227.3877721464936883
  0
ARC
  5
1F3C4
  8
0
 10
4932.7670950324782098
 20
326.729391830727991
 30
0.0
 40
0.0196850393999973
 50
139.8337493459789016
 51
235.7372840260462965
  0
ARC
  5
1F3C5
  8
0
 10
4932.7663969678260401
 20
326.6995585804771167
 30
0.0
 40
0.0157480315000002
 50
132.1333086198295916
 51
239.8846733939263913
  0
ARC
  5
1F3C6
  8
0
 10
4932.7778966312498596
 20
326.6826049662552123
 30
0.0
 40
0.0196850394000011
 50
140.0185215171240998
 51
237.7442251359246939
  0
ARC
  5
1F3C7
  8
0
 10
4932.7720180075448297
 20
326.6766002027968057
 30
0.0
 40
0.0160067767700749
 50
148.6414472047324864
 51
230.234895751430912
  0
ARC
  5
1F3C8
  8
0
 10
4932.7760669885146854
 20
326.6576731191671001
 30
0.0
 40
0.015748031499073
 50
137.7388073479934008
 51
252.2293386491801925
  0
ARC
  5
1F3C9
  8
0
 10
4932.7890571788411762
 20
326.6342633236344
 30
0.0
 40
0.0196850393999961
 50
140.0634695383828046
 51
247.8974428347781895
  0
ARC
  5
1F3CA
  8
0
 10
4932.7860416365074343
 20
326.6144681720537051
 30
0.0
 40
0.0157480314999988
 50
146.8472976696779142
 51
265.1094614858170075
  0
ARC
  5
1F3CB
  8
0
 10
4932.7769708543910383
 20
326.6292557780358834
 30
0.0
 40
0.0157480314999975
 50
117.3055989012758005
 51
239.5125081890761862
  0
ARC
  5
1F3CC
  8
0
 10
4932.7702355077899483
 20
326.6456198644924029
 30
0.0
 40
0.0157480315000008
 50
129.0231791616409964
 51
236.5554158271301048
  0
ARC
  5
1F3CD
  8
0
 10
4932.7673248169430735
 20
326.6353714810123279
 30
0.0
 40
0.0157480314999999
 50
144.3740698897989034
 51
230.3671154796228109
  0
ARC
  5
1F3CE
  8
0
 10
4932.7729662628025835
 20
326.6218533373606761
 30
0.0
 40
0.0157480315000044
 50
137.1297888449230129
 51
235.6270375754560007
  0
ARC
  5
1F3CF
  8
0
 10
4932.7840148389150272
 20
326.6109960629676152
 30
0.0
 40
0.0157480314999994
 50
142.3926761007109008
 51
242.295933746942211
  0
ARC
  5
1F3D0
  8
0
 10
4932.791376492503332
 20
326.5913603720171068
 30
0.0
 40
0.0157480315000056
 50
144.1515830948366954
 51
231.8832816611204066
  0
ARC
  5
1F3D1
  8
0
 10
4932.8098759743243136
 20
326.5613898527922174
 30
0.0
 40
0.0196850393999987
 50
125.990571606074198
 51
248.7180025164803112
  0
ARC
  5
1F3D2
  8
0
 10
4932.8187290091300383
 20
326.5604273532043749
 30
0.0
 40
0.0236220471999993
 50
141.361272270342198
 51
244.488486465167199
  0
ARC
  5
1F3D3
  8
0
 10
4932.8121013296131423
 20
326.5335532884594159
 30
0.0
 40
0.0195382928646892
 50
139.3880713595920895
 51
243.229567859797811
  0
ARC
  5
1F3D4
  8
0
 10
4932.8330476475448449
 20
326.4984065163826017
 30
0.0
 40
0.0236220472000001
 50
140.9929902887103026
 51
245.5146230004515076
  0
ARC
  5
1F3D5
  8
0
 10
4932.8242950222565923
 20
326.4816314550603238
 30
0.0
 40
0.0196850394000004
 50
139.6831120962690136
 51
244.0203153625101038
  0
ARC
  5
1F3D6
  8
0
 10
4932.8174753078974391
 20
326.4783139828257958
 30
0.0
 40
0.0157480314999991
 50
136.0151075778238123
 51
261.8630033667864154
  0
ARC
  5
1F3D7
  8
0
 10
4932.8149170377282644
 20
326.4771439343882093
 30
0.0
 40
0.0157480315000013
 50
136.1593282950863966
 51
248.821892019406306
  0
ARC
  5
1F3D8
  8
0
 10
4932.8096168215643047
 20
326.4750406540342169
 30
0.0
 40
0.0157480315000002
 50
136.1460322019107139
 51
248.1777547817169136
  0
ARC
  5
1F3D9
  8
0
 10
4932.8049113631377622
 20
326.4725662630182796
 30
0.0
 40
0.015748031499998
 50
137.6110176419647075
 51
236.9423102072854022
  0
ARC
  5
1F3DA
  8
0
 10
4932.8011273868360149
 20
326.4693510753065766
 30
0.0
 40
0.0157480314998884
 50
138.9728026091254094
 51
242.0036542243487929
  0
ARC
  5
1F3DB
  8
0
 10
4932.7980799881397616
 20
326.4645530393310082
 30
0.0
 40
0.0152710520930855
 50
141.7892951337917964
 51
237.8110196639092067
  0
ARC
  5
1F3DC
  8
0
 10
4932.7953835585240085
 20
326.4608878456435264
 30
0.0
 40
0.0157480315000101
 50
149.6708046195535928
 51
214.573719063895993
  0
ARC
  5
1F3DD
  8
0
 10
4932.7978138689231855
 20
326.4552569860637163
 30
0.0
 40
0.0157480314999973
 50
158.1306494946763905
 51
226.2753564243259916
  0
ARC
  5
1F3DE
  8
0
 10
4932.7971360465389807
 20
326.4492944571745738
 30
0.0
 40
0.015748031500008
 50
166.7401140389359
 51
225.425537556555696
  0
ARC
  5
1F3DF
  8
0
 10
4932.7966086446413101
 20
326.4549041009908024
 30
0.0
 40
0.0165062937666428
 50
173.7335980034889928
 51
202.9583952405372997
  0
ARC
  5
1F3E0
  8
0
 10
4932.821850829504001
 20
326.5095210565020238
 30
0.0
 40
0.019685039400002
 50
133.7090922090009997
 51
232.4627625096117924
  0
ARC
  5
1F3E1
  8
0
 10
4932.8121854949285989
 20
326.5012266800673046
 30
0.0
 40
0.0157480314999994
 50
143.2560262834417131
 51
241.29790007005451
  0
ARC
  5
1F3E2
  8
0
 10
4932.8067784190052407
 20
326.5246472989824724
 30
0.0
 40
0.0157480315000029
 50
153.7142172858127083
 51
252.9686873040014063
  0
ARC
  5
1F3E3
  8
0
 10
4932.8043428265227703
 20
326.5229458751018115
 30
0.0
 40
0.0157480315000021
 50
138.4154916027111142
 51
247.0066789981956958
  0
ARC
  5
1F3E4
  8
0
 10
4932.8070364169070672
 20
326.4990275193910065
 30
0.0
 40
0.0157480315000007
 50
136.5887534382275987
 51
247.4070974342099021
  0
ARC
  5
1F3E5
  8
0
 10
4932.8019158522401995
 20
326.4963126930103954
 30
0.0
 40
0.0157151518718304
 50
137.0559071866252054
 51
245.8183058143436881
  0
ARC
  5
1F3E6
  8
0
 10
4932.799220143238017
 20
326.5200736153644243
 30
0.0
 40
0.0157480314999987
 50
136.6312908733509062
 51
245.8382969695227018
  0
ARC
  5
1F3E7
  8
0
 10
4932.7947515320838647
 20
326.5164366904393773
 30
0.0
 40
0.0157173002033285
 50
138.0006523348158112
 51
242.412175851901992
  0
ARC
  5
1F3E8
  8
0
 10
4932.7978609294978014
 20
326.4928717707858254
 30
0.0
 40
0.0157480315000036
 50
138.4071816132147035
 51
242.1838385110202978
  0
ARC
  5
1F3E9
  8
0
 10
4932.7949070712329558
 20
326.4878693357691759
 30
0.0
 40
0.0157480314999992
 50
139.5725427896410054
 51
236.9008004511412935
  0
ARC
  5
1F3EA
  8
0
 10
4932.7794791886681196
 20
326.6055810837963236
 30
0.0
 40
0.0157480315005809
 50
136.9457200692420997
 51
235.5467283445931059
  0
ARC
  5
1F3EB
  8
0
 10
4932.7866464718854331
 20
326.5873460743011947
 30
0.0
 40
0.0157480315000016
 50
137.2784571806722909
 51
242.4830767603340007
  0
ARC
  5
1F3EC
  8
0
 10
4932.7962895278851647
 20
326.5700796777923074
 30
0.0
 40
0.0157480315000019
 50
152.9948965822204912
 51
251.1320244013865022
  0
ARC
  5
1F3ED
  8
0
 10
4932.8005374734129873
 20
326.5845367046803176
 30
0.0
 40
0.0196850394000031
 50
138.342236724348993
 51
241.3154266890778104
  0
ARC
  5
1F3EE
  8
0
 10
4932.7936108701378544
 20
326.4792461992353765
 30
0.0
 40
0.0157480314999999
 50
155.378578379026095
 51
228.1292531696113883
  0
ARC
  5
1F3EF
  8
0
 10
4932.7904129460303011
 20
326.4873139050116038
 30
0.0
 40
0.0157480314999969
 50
152.6628174310486088
 51
217.6168181545232869
  0
ARC
  5
1F3F0
  8
0
 10
4932.7902842045750731
 20
326.4829755742491102
 30
0.0
 40
0.0157480314999999
 50
170.3795126390074017
 51
230.8632322997152926
  0
ARC
  5
1F3F1
  8
0
 10
4932.7871534341693405
 20
326.4965364307184927
 30
0.0
 40
0.0157480314999965
 50
157.2885898412341135
 51
217.5582084487878092
  0
ARC
  5
1F3F2
  8
0
 10
4932.7896438592551931
 20
326.5031030865301886
 30
0.0
 40
0.0157480314999962
 50
152.2041122167842957
 51
229.8386970946733925
  0
ARC
  5
1F3F3
  8
0
 10
4932.7914362877372696
 20
326.5113278372352852
 30
0.0
 40
0.0157480315000067
 50
135.5757938025874978
 51
237.5436174045379119
  0
ARC
  5
1F3F4
  8
0
 10
4932.7918585453835476
 20
326.540021871169472
 30
0.0
 40
0.0157480314999963
 50
137.4561306042797071
 51
242.7183744047707137
  0
ARC
  5
1F3F5
  8
0
 10
4932.7966832683177927
 20
326.5438719327084982
 30
0.0
 40
0.0157480315000007
 50
137.0228069384129128
 51
245.1369161104921091
  0
ARC
  5
1F3F6
  8
0
 10
4932.8016558951621846
 20
326.5468353874122727
 30
0.0
 40
0.0157480314999964
 50
143.7628283489891032
 51
234.752595464039814
  0
ARC
  5
1F3F7
  8
0
 10
4932.7858988372672684
 20
326.5268882838523155
 30
0.0
 40
0.0157480314999988
 50
148.8089959860596991
 51
231.2165006966654914
  0
ARC
  5
1F3F8
  8
0
 10
4932.7881738451451383
 20
326.5348311429370938
 30
0.0
 40
0.0157480314999986
 50
138.5087278710641101
 51
236.7870326443645865
  0
ARC
  5
1F3F9
  8
0
 10
4932.7846516336194327
 20
326.5130713169531873
 30
0.0
 40
0.0159344160268061
 50
148.1833152996989895
 51
228.0987861644329087
  0
ARC
  5
1F3FA
  8
0
 10
4932.7860978619419257
 20
326.501108616354486
 30
0.0
 40
0.0157480315000162
 50
165.3612414926705014
 51
201.5681324094855995
  0
ARC
  5
1F3FB
  8
0
 10
4932.7800977527358555
 20
326.53199391588862
 30
0.0
 40
0.0157480314999983
 50
170.2712180072178967
 51
230.9989734120993887
  0
ARC
  5
1F3FC
  8
0
 10
4932.7793030721377363
 20
326.541220081066399
 30
0.0
 40
0.0157480315000015
 50
145.4552485505849972
 51
221.9210384760069132
  0
ARC
  5
1F3FD
  8
0
 10
4932.7816610398467674
 20
326.5378400341563747
 30
0.0
 40
0.0157835119237035
 50
152.7423132774868009
 51
223.1797253924945039
  0
ARC
  5
1F3FE
  8
0
 10
4932.7823611983631054
 20
326.5506363679066908
 30
0.0
 40
0.0157480315000004
 50
145.398183031176103
 51
232.5138211200361127
  0
ARC
  5
1F3FF
  8
0
 10
4932.7851006845612574
 20
326.5583757393030737
 30
0.0
 40
0.0157480315000019
 50
137.2899648462885125
 51
238.6014186149980958
  0
ARC
  5
1F400
  8
0
 10
4932.78915717273685
 20
326.56366112929868
 30
0.0
 40
0.0157480314999986
 50
136.9197583195181949
 51
243.0604667931009999
  0
ARC
  5
1F401
  8
0
 10
4932.7940285249796943
 20
326.5676220233809772
 30
0.0
 40
0.0157480314999972
 50
139.620266327763602
 51
244.8183818547593091
  0
ARC
  5
1F402
  8
0
 10
4932.7769414128906647
 20
326.5436030858747927
 30
0.0
 40
0.0152631966745267
 50
147.795396726536211
 51
222.6275394242053096
  0
ARC
  5
1F403
  8
0
 10
4932.7765433793629199
 20
326.5473895983960801
 30
0.0
 40
0.0157480314999718
 50
156.5921151721206002
 51
200.2574213158844998
  0
ARC
  5
1F404
  8
0
 10
4932.7740756716621036
 20
326.5638624401129277
 30
0.0
 40
0.015748031500007
 50
164.6599626789171111
 51
241.7694805112444101
  0
ARC
  5
1F405
  8
0
 10
4932.774636534808451
 20
326.5681069502899732
 30
0.0
 40
0.0157480314999959
 50
145.3186417988723065
 51
220.1378984070551894
  0
ARC
  5
1F406
  8
0
 10
4932.7776837961955607
 20
326.5624715360502819
 30
0.0
 40
0.015748031500005
 50
151.12103566301559
 51
225.396034736731707
  0
ARC
  5
1F407
  8
0
 10
4932.77904456926899
 20
326.5743743811364084
 30
0.0
 40
0.0157480315000027
 50
142.6373661681579961
 51
233.6307326262293884
  0
ARC
  5
1F408
  8
0
 10
4932.7818208891039831
 20
326.5820451298662874
 30
0.0
 40
0.0154088853202029
 50
127.0396066592953019
 51
240.4342000398858943
  0
ARC
  5
1F409
  8
0
 10
4932.7759266302418837
 20
326.5981129342433178
 30
0.0
 40
0.0157480315000042
 50
139.3369418427323865
 51
234.4082494143121949
  0
ARC
  5
1F40A
  8
0
 10
4932.7705466054330827
 20
326.6111831064573039
 30
0.0
 40
0.0157480314999971
 50
146.8960611845328117
 51
229.0374456039282052
  0
ARC
  5
1F40B
  8
0
 10
4932.773989516786969
 20
326.5868981046734802
 30
0.0
 40
0.0157480315005829
 50
149.0173927743111904
 51
227.3721888667191138
  0
ARC
  5
1F40C
  8
0
 10
4932.7693407722808843
 20
326.5934447698720078
 30
0.0
 40
0.0162888923138164
 50
140.9649144530324918
 51
233.6008200055835005
  0
ARC
  5
1F40D
  8
0
 10
4932.7702706664840662
 20
326.5803437282332879
 30
0.0
 40
0.0157480314999924
 50
162.028412135254996
 51
223.9978120011888905
  0
ARC
  5
1F40E
  8
0
 10
4932.7661543013837218
 20
326.5940227996783278
 30
0.0
 40
0.0146934213417412
 50
147.8505842846714131
 51
198.8372932102473101
  0
ARC
  5
1F40F
  8
0
 10
4932.7681156501867008
 20
326.5904109494019281
 30
0.0
 40
0.015911931945828
 50
158.7988893177351031
 51
211.9196025787751978
  0
ARC
  5
1F410
  8
0
 10
4932.7641192476676224
 20
326.6136623257817746
 30
0.0
 40
0.0157480314999985
 50
165.9908119751576123
 51
234.0216337697972904
  0
ARC
  5
1F411
  8
0
 10
4932.7640081193640071
 20
326.6217074002910863
 30
0.0
 40
0.0157480315000035
 50
139.8414003532703873
 51
235.0168416834623031
  0
ARC
  5
1F412
  8
0
 10
4932.7664018669038342
 20
326.6197638270684251
 30
0.0
 40
0.0157480314999953
 50
146.8531030749252011
 51
223.3930489286674117
  0
ARC
  5
1F413
  8
0
 10
4932.7577918782126289
 20
326.6443500829117284
 30
0.0
 40
0.0149506560350945
 50
156.4832429115490982
 51
243.9766855040788869
  0
ARC
  5
1F414
  8
0
 10
4932.7590107236719632
 20
326.6485760098028095
 30
0.0
 40
0.0150287760315332
 50
136.632068379328814
 51
227.7526449938409883
  0
ARC
  5
1F415
  8
0
 10
4932.7580187537296297
 20
326.6400864680937275
 30
0.0
 40
0.0157480314999575
 50
164.5288480533349116
 51
198.5438436376300899
  0
ARC
  5
1F416
  8
0
 10
4932.7587032242927307
 20
326.6371217003637071
 30
0.0
 40
0.0157480315000064
 50
167.4312549192046049
 51
209.762998466674901
  0
ARC
  5
1F417
  8
0
 10
4932.7607466548806769
 20
326.6282706300708014
 30
0.0
 40
0.0157480314999979
 50
155.8984626152549993
 51
219.879843868150914
  0
ARC
  5
1F418
  8
0
 10
4932.7627483742353434
 20
326.6449609567418975
 30
0.0
 40
0.0157480315000065
 50
146.3592563613563868
 51
225.2283010297522026
  0
ARC
  5
1F419
  8
0
 10
4932.7642776186448828
 20
326.6594879899029138
 30
0.0
 40
0.0157480315000024
 50
141.5058245888218096
 51
231.8837605630363896
  0
ARC
  5
1F41A
  8
0
 10
4932.7676996294940182
 20
326.6694138649872912
 30
0.0
 40
0.0157480314999997
 50
137.0357120650168952
 51
235.5245059770685998
  0
ARC
  5
1F41B
  8
0
 10
4932.7650460486584052
 20
326.6931589203102249
 30
0.0
 40
0.0157480314999981
 50
156.0946286746354872
 51
236.6073932480404096
  0
ARC
  5
1F41C
  8
0
 10
4932.7614732337988244
 20
326.6835734428748879
 30
0.0
 40
0.0157480315000027
 50
140.6049647122709985
 51
233.1502240514724917
  0
ARC
  5
1F41D
  8
0
 10
4932.7593540038360516
 20
326.6698968656721718
 30
0.0
 40
0.0157480314999987
 50
145.1254196151649865
 51
226.7589873299504006
  0
ARC
  5
1F41E
  8
0
 10
4932.755712662438782
 20
326.6754359726382972
 30
0.0
 40
0.0157480315000007
 50
141.082883772423088
 51
225.4700120427835088
  0
ARC
  5
1F41F
  8
0
 10
4932.753862700657919
 20
326.6740769231341233
 30
0.0
 40
0.0157480314999995
 50
132.5571251840763125
 51
245.3781423522715102
  0
ARC
  5
1F420
  8
0
 10
4932.7545195001948741
 20
326.6628071252937957
 30
0.0
 40
0.0157480314999948
 50
162.33201071876951
 51
228.9080570537221888
  0
ARC
  5
1F421
  8
0
 10
4932.7514922688669685
 20
326.6759195047508797
 30
0.0
 40
0.0157480314999912
 50
149.6952513034063941
 51
218.2943635484976994
  0
ARC
  5
1F422
  8
0
 10
4932.7490319433054538
 20
326.6950012320564269
 30
0.0
 40
0.015748031500007
 50
162.8479690160567088
 51
235.9861740322438948
  0
ARC
  5
1F423
  8
0
 10
4932.7561673929376411
 20
326.6865422823696008
 30
0.0
 40
0.0227855992394045
 50
168.8365437707898025
 51
206.3672589667048953
  0
ARC
  5
1F424
  8
0
 10
4932.7494961174652417
 20
326.7023627872048905
 30
0.0
 40
0.0157480314999967
 50
134.2017439187144134
 51
239.6955214529245097
  0
ARC
  5
1F425
  8
0
 10
4932.7520686396283054
 20
326.701453244969116
 30
0.0
 40
0.0157480315000043
 50
141.7569431175845978
 51
225.6137332802827018
  0
ARC
  5
1F426
  8
0
 10
4932.7532370172302763
 20
326.7192484162296751
 30
0.0
 40
0.0157480314999982
 50
143.1404452296752936
 51
230.0895749877533945
  0
ARC
  5
1F427
  8
0
 10
4932.7570619999441988
 20
326.7399927686327032
 30
0.0
 40
0.0157480315000014
 50
134.9310574204272939
 51
232.6287073788458031
  0
ARC
  5
1F428
  8
0
 10
4932.7583961183372594
 20
326.7313974218557178
 30
0.0
 40
0.0179636747162432
 50
160.0640830643374102
 51
229.2611902139773008
  0
ARC
  5
1F429
  8
0
 10
4932.7486699675200725
 20
326.7270921541775124
 30
0.0
 40
0.0157480314999926
 50
141.4329449568494965
 51
226.9591730042423023
  0
ARC
  5
1F42A
  8
0
 10
4932.753036706554667
 20
326.7555333896153797
 30
0.0
 40
0.0153859137359783
 50
147.2217127839797968
 51
224.4468315869216894
  0
ARC
  5
1F42B
  8
0
 10
4932.7505339965891835
 20
326.7437663897599123
 30
0.0
 40
0.0157480315
 50
143.6802170548440927
 51
230.1108515601844999
  0
ARC
  5
1F42C
  8
0
 10
4932.7441487913056335
 20
326.725524601446125
 30
0.0
 40
0.0157480314999998
 50
154.0623907987184964
 51
242.0018983606549057
  0
ARC
  5
1F42D
  8
0
 10
4932.7455035017519549
 20
326.7298171599977081
 30
0.0
 40
0.0157320397785601
 50
133.8600567209603867
 51
236.6937981756134093
  0
ARC
  5
1F42E
  8
0
 10
4932.7452255726975636
 20
326.7114884345057249
 30
0.0
 40
0.0157480315000098
 50
157.8381785006723135
 51
223.7349003177770896
  0
ARC
  5
1F42F
  8
0
 10
4932.7415538316799939
 20
326.7234050020784935
 30
0.0
 40
0.014965128181448
 50
139.9051555464791079
 51
217.7463140772958923
  0
ARC
  5
1F430
  8
0
 10
4932.7396730125174145
 20
326.7447373218221855
 30
0.0
 40
0.0157078753159705
 50
163.4837283294982058
 51
230.6306850097172969
  0
ARC
  5
1F431
  8
0
 10
4932.7435297464162431
 20
326.7326052726461967
 30
0.0
 40
0.0189969214584254
 50
162.8110975333968895
 51
206.9778968415419058
  0
ARC
  5
1F432
  8
0
 10
4932.745568827965144
 20
326.752462993020913
 30
0.0
 40
0.0157480315000068
 50
141.9688835522335069
 51
228.2624347748821947
  0
ARC
  5
1F433
  8
0
 10
4932.7477356049475929
 20
326.7681386895749256
 30
0.0
 40
0.0157480314967553
 50
158.2064883978356988
 51
230.218388471629396
  0
ARC
  5
1F434
  8
0
 10
4932.7397483013119199
 20
326.754818493128198
 30
0.0
 40
0.015748031500002
 50
125.6587845411757058
 51
247.5681277384854013
  0
ARC
  5
1F435
  8
0
 10
4932.7418425524147096
 20
326.7566649379839987
 30
0.0
 40
0.0157480314999995
 50
136.4874685536699133
 51
231.8380938842643957
  0
ARC
  5
1F436
  8
0
 10
4932.7362266643558542
 20
326.7598391031928031
 30
0.0
 40
0.015748031499999
 50
153.4111098895008922
 51
226.2749406854539984
  0
ARC
  5
1F437
  8
0
 10
4932.7347974876256558
 20
326.7762628231591862
 30
0.0
 40
0.0157480314999997
 50
159.5949878279290886
 51
237.3281498894355082
  0
ARC
  5
1F438
  8
0
 10
4932.7357208009607348
 20
326.7831811567081104
 30
0.0
 40
0.0157480314999997
 50
129.1726564381962135
 51
248.0890023519033889
  0
ARC
  5
1F439
  8
0
 10
4932.7429547162109884
 20
326.7777343813751258
 30
0.0
 40
0.0159956113574262
 50
143.5542565272874072
 51
227.4632399233003923
  0
ARC
  5
1F43A
  8
0
 10
4932.7385077413082399
 20
326.7830479195171165
 30
0.0
 40
0.0157480314999974
 50
137.8526724048207939
 51
230.5280607326708946
  0
ARC
  5
1F43B
  8
0
 10
4932.7337156478970428
 20
326.7707155104048979
 30
0.0
 40
0.0157480315000031
 50
158.6272105259394891
 51
213.7572534095440062
  0
ARC
  5
1F43C
  8
0
 10
4932.7322009052841167
 20
326.7772765814838749
 30
0.0
 40
0.0157480314999966
 50
152.8852869224153039
 51
205.3447554548492064
  0
ARC
  5
1F43D
  8
0
 10
4932.7316946323317097
 20
326.7794694905670099
 30
0.0
 40
0.0157480315000052
 50
156.346003959215011
 51
197.0976356016712998
  0
ARC
  5
1F43E
  8
0
 10
4932.7306998687272426
 20
326.7940115605571805
 30
0.0
 40
0.0157480314999971
 50
158.3086336330268864
 51
227.1452616807619052
  0
ARC
  5
1F43F
  8
0
 10
4932.7354558942852236
 20
326.8090768261013181
 30
0.0
 40
0.0157480315000017
 50
139.9074110436891942
 51
228.0496973400121874
  0
ARC
  5
1F440
  8
0
 10
4932.7398261482776434
 20
326.8025696744883817
 30
0.0
 40
0.0157807072626886
 50
155.9807053373814938
 51
228.1220650934430978
  0
ARC
  5
1F441
  8
0
 10
4932.7303406379978696
 20
326.8064852027681013
 30
0.0
 40
0.0157480314999994
 50
149.5689863141136016
 51
242.4083344010167025
  0
ARC
  5
1F442
  8
0
 10
4932.7320897389872698
 20
326.8108473417184996
 30
0.0
 40
0.0157480314999991
 50
130.4520320482671139
 51
243.9707417939654022
  0
ARC
  5
1F443
  8
0
 10
4932.7274834355448547
 20
326.8079434632858806
 30
0.0
 40
0.0157480315000062
 50
149.2543809618578052
 51
219.9988885625548107
  0
ARC
  5
1F444
  8
0
 10
4932.7257336364909861
 20
326.826440318648622
 30
0.0
 40
0.0157480314999991
 50
160.5000226824747074
 51
233.5597409440507022
  0
ARC
  5
1F445
  8
0
 10
4932.7219268321323398
 20
326.8429293998781873
 30
0.0
 40
0.0157480315000001
 50
155.0762224734309882
 51
227.0905024258345009
  0
ARC
  5
1F446
  8
0
 10
4932.721946137856321
 20
326.8575210857322872
 30
0.0
 40
0.0163644949913899
 50
156.4075003247183133
 51
236.3852854502468972
  0
ARC
  5
1F447
  8
0
 10
4932.7189425647693497
 20
326.855855681960918
 30
0.0
 40
0.015748031499997
 50
145.0110570884079095
 51
217.9106819293774038
  0
ARC
  5
1F448
  8
0
 10
4932.7170039170832752
 20
326.8761912153225921
 30
0.0
 40
0.0157480315000044
 50
157.1372004372055926
 51
230.5002174729777948
  0
ARC
  5
1F449
  8
0
 10
4932.7150753907690159
 20
326.8726062528385796
 30
0.0
 40
0.015748031500008
 50
147.6832329773625929
 51
194.937658631349592
  0
ARC
  5
1F44A
  8
0
 10
4932.7155067627600147
 20
326.8707377754687968
 30
0.0
 40
0.0157480315000145
 50
154.3048453729672076
 51
203.5035578229868918
  0
ARC
  5
1F44B
  8
0
 10
4932.7167983472681954
 20
326.865143308335405
 30
0.0
 40
0.0157480315000071
 50
158.395815156774006
 51
210.6161616429818082
  0
ARC
  5
1F44C
  8
0
 10
4932.7293172626532396
 20
326.8601684288113915
 30
0.0
 40
0.0157480315000031
 50
139.7774552447056919
 51
209.717485007433595
  0
ARC
  5
1F44D
  8
0
 10
4932.7254682976354161
 20
326.8645889939709832
 30
0.0
 40
0.0157480315000024
 50
145.1814169825462102
 51
231.3643733605804869
  0
ARC
  5
1F44E
  8
0
 10
4932.7323565038068409
 20
326.8347528951314871
 30
0.0
 40
0.0157480315000014
 50
151.6091643765271897
 51
227.946259639762502
  0
ARC
  5
1F44F
  8
0
 10
4932.7287853425877984
 20
326.8379701598357769
 30
0.0
 40
0.0157480315000018
 50
143.5071444059209114
 51
236.762556839398087
  0
ARC
  5
1F450
  8
0
 10
4932.7233100098046634
 20
326.8260205561854264
 30
0.0
 40
0.0157480315000024
 50
152.084780878982798
 51
196.7698315258924993
  0
ARC
  5
1F451
  8
0
 10
4932.7237758427672816
 20
326.8240028119474232
 30
0.0
 40
0.0157480314999915
 50
148.4386369424209988
 51
204.3496834039567887
  0
ARC
  5
1F452
  8
0
 10
4932.7251701595423583
 20
326.8179633624773146
 30
0.0
 40
0.0157480315000108
 50
160.548416068803192
 51
212.0564751556308067
  0
ARC
  5
1F453
  8
0
 10
4933.0583989123197171
 20
326.1311670630374806
 30
0.0
 40
1.015464082496442
 50
280.101174967347788
 51
302.4221478861693981
  0
ARC
  5
1F454
  8
0
 10
4933.5606479099242279
 20
325.3404250756219085
 30
0.0
 40
0.0787
 50
302.4221478861693981
 51
13.00000000368785
  0
ARC
  5
1F455
  8
0
 10
4933.2344284597584192
 20
325.1430601918323759
 30
0.0
 40
0.0118
 50
193.0000000036750976
 51
280.101174967347788
  0
LINE
  5
1F456
  8
0
 10
4933.1538922674999412
 20
325.131416397845328
 30
0.0
 11
4933.2214076735799608
 21
325.1470035575247266
 31
0.0
  0
LINE
  5
1F457
  8
0
 10
4933.1521268474625685
 20
325.1390632721394809
 30
0.0
 11
4933.219642253569873
 21
325.1546504317046242
 31
0.0
  0
LINE
  5
1F458
  8
0
 10
4933.15345051838176
 20
325.1333298234908966
 30
0.0
 11
4933.2209659244617797
 21
325.1489169831701815
 31
0.0
  0
LINE
  5
1F459
  8
0
 10
4933.1499259042120684
 20
325.1485966047312104
 30
0.0
 11
4933.217441310292088
 21
325.164183764410609
 31
0.0
  0
ARC
  5
1F45A
  8
0
 10
4933.1485784630749549
 20
325.1544330135056953
 30
0.0
 40
0.0236220471999982
 50
190.6177469153464017
 51
283.0000000036620236
  0
ARC
  5
1F45B
  8
0
 10
4933.1481367139576832
 20
325.1563464391510934
 30
0.0
 40
0.0236220471999991
 50
185.8452182516151936
 51
283.0000000036620236
  0
ARC
  5
1F45C
  8
0
 10
4933.1468130430375822
 20
325.1620798877997913
 30
0.0
 40
0.0236220472000026
 50
181.0477316021442107
 51
283.0000000036620236
  0
ARC
  5
1F45D
  8
0
 10
4933.1446120997879916
 20
325.1716132203915208
 30
0.0
 40
0.0236220471999991
 50
176.1928834282855121
 51
283.0000000036620236
  0
LINE
  5
1F45E
  8
0
 10
4933.1468554195207616
 20
325.1618963350900913
 30
0.0
 11
4933.2143708256007812
 21
325.1774834947693762
 31
0.0
  0
ARC
  5
1F45F
  8
0
 10
4933.1415416150957753
 20
325.184912950750288
 30
0.0
 40
0.0236220471999991
 50
171.3016417580091968
 51
283.0000000036620236
  0
LINE
  5
1F460
  8
0
 10
4933.1429261785560811
 20
325.1789157475304251
 30
0.0
 11
4933.2104415846351912
 21
325.19450290720971
 31
0.0
  0
ARC
  5
1F461
  8
0
 10
4933.1376123741320043
 20
325.2019323631906786
 30
0.0
 40
0.0236220471999991
 50
166.3059800673514133
 51
283.0000000036620236
  0
LINE
  5
1F462
  8
0
 10
4933.1381519829637909
 20
325.1995950605511894
 30
0.0
 11
4933.2056673890419916
 21
325.215182220230588
 31
0.0
  0
ARC
  5
1F463
  8
0
 10
4933.1328381785388046
 20
325.2226116762114998
 30
0.0
 40
0.0236220471999991
 50
161.1866736108181044
 51
283.0000000036620236
  0
LINE
  5
1F464
  8
0
 10
4933.1325496022145671
 20
325.2238616375926767
 30
0.0
 11
4933.2000650082945867
 21
325.2394487972720185
 31
0.0
  0
ARC
  5
1F465
  8
0
 10
4933.1272357977895808
 20
325.2468782532528735
 30
0.0
 40
0.0236220471999991
 50
155.8984539244565894
 51
283.0000000036620236
  0
LINE
  5
1F466
  8
0
 10
4933.1261387149388611
 20
325.2516302411509059
 30
0.0
 11
4933.1936541210188807
 21
325.2672174008301909
 31
0.0
  0
ARC
  5
1F467
  8
0
 10
4933.1208249105029608
 20
325.2746468567581246
 30
0.0
 40
0.0236220471511732
 50
150.3758090948672077
 51
283.0000000632389856
  0
LINE
  5
1F468
  8
0
 10
4933.1189418395915709
 20
325.2828033330800963
 30
0.0
 11
4933.1864572456715905
 21
325.2983904927594949
 31
0.0
  0
ARC
  5
1F469
  8
0
 10
4933.1136280351684036
 20
325.3058199487404067
 30
0.0
 40
0.0236220471999991
 50
144.5164675233208129
 51
283.0000000036620236
  0
LINE
  5
1F46A
  8
0
 10
4933.1109842554533316
 20
325.31727141679022
 30
0.0
 11
4933.1784996615333512
 21
325.3328585764696186
 31
0.0
  0
ARC
  5
1F46B
  8
0
 10
4933.1056704510274358
 20
325.3402880324504736
 30
0.0
 40
0.0236220472000008
 50
138.1434204318578907
 51
283.0000000036620236
  0
LINE
  5
1F46C
  8
0
 10
4933.1022939138129004
 20
325.3549134219289272
 30
0.0
 11
4933.16980931989292
 21
325.3705005816083258
 31
0.0
  0
ARC
  5
1F46D
  8
0
 10
4933.0969801093742717
 20
325.3779300375310868
 30
0.0
 40
0.0236220471464739
 50
130.8970207708343878
 51
283.000000068961981
  0
LINE
  5
1F46E
  8
0
 10
4933.0929013398354073
 20
325.395597129498924
 30
0.0
 11
4933.1604167459154269
 21
325.4111842891783226
 31
0.0
  0
ARC
  5
1F46F
  8
0
 10
4933.087587535410421
 20
325.4186137451591776
 30
0.0
 40
0.0236220471999991
 50
121.7799734984710938
 51
283.0000000036620236
  0
LINE
  5
1F470
  8
0
 10
4933.0828395252910923
 20
325.4391796364379275
 30
0.0
 11
4933.1503549313702024
 21
325.4547667961172124
 31
0.0
  0
ARC
  5
1F471
  8
0
 10
4933.077525720866106
 20
325.4621962520981242
 30
0.0
 40
0.0236220471999991
 50
103.0000000036619952
 51
283.0000000036620236
  0
LINE
  5
1F472
  8
0
 10
4933.0722119164183823
 20
325.4852128678558074
 30
0.0
 11
4933.1397273224984019
 21
325.500800027535206
 31
0.0
  0
ARC
  5
1F473
  8
0
 10
4933.0669020488767273
 20
325.5082456310790917
 30
0.0
 40
0.023636896475914
 50
191.5681158187578887
 51
282.9818966392832067
  0
LINE
  5
1F474
  8
0
 10
4933.0614481000429805
 20
325.5318360787891265
 30
0.0
 11
4933.1289635061220906
 21
325.5474232384684115
 31
0.0
  0
ARC
  5
1F475
  8
0
 10
4933.0667619044679668
 20
325.5088194631288161
 30
0.0
 40
0.0236220471999964
 50
103.0000000036619952
 51
193.0000000036941969
  0
LINE
  5
1F476
  8
0
 10
4933.0105420344616505
 20
325.7523344736392801
 30
0.0
 11
4933.0780574405425796
 21
325.7679216333186218
 31
0.0
  0
ARC
  5
1F477
  8
0
 10
4933.0052321669199955
 20
325.7753672368626212
 30
0.0
 40
0.023636896475914
 50
191.5681158187578887
 51
282.9818966392832067
  0
LINE
  5
1F478
  8
0
 10
4932.9997782180871582
 20
325.7989576845725992
 30
0.0
 11
4933.0672936241662683
 21
325.8145448442518841
 31
0.0
  0
ARC
  5
1F479
  8
0
 10
4933.005092022511235
 20
325.7759410689122888
 30
0.0
 40
0.0236220471999964
 50
103.0000000036619952
 51
193.0000000036941969
  0
LINE
  5
1F47A
  8
0
 10
4932.9969001790896073
 20
325.8114238410486223
 30
0.0
 11
4933.0644155851696269
 21
325.8270110007280209
 31
0.0
  0
ARC
  5
1F47B
  8
0
 10
4932.9915903115479523
 20
325.8344566042719066
 30
0.0
 40
0.023636896475914
 50
191.5681158187578887
 51
282.9818966392832067
  0
LINE
  5
1F47C
  8
0
 10
4932.9861363627142055
 20
325.8580470519818846
 30
0.0
 11
4933.0536517687942251
 21
325.8736342116612263
 31
0.0
  0
ARC
  5
1F47D
  8
0
 10
4932.9914501671401013
 20
325.8350304363215741
 30
0.0
 40
0.0236220471999964
 50
103.0000000036619952
 51
193.0000000036941969
  0
LINE
  5
1F47E
  8
0
 10
4932.9829262906969234
 20
325.8719514014737797
 30
0.0
 11
4933.050441696776943
 21
325.8875385611531783
 31
0.0
  0
ARC
  5
1F47F
  8
0
 10
4932.9776164231552684
 20
325.8949841646971208
 30
0.0
 40
0.023636896475914
 50
191.5681158187578887
 51
282.9818966392832067
  0
LINE
  5
1F480
  8
0
 10
4932.9721624743206121
 20
325.9185746124069851
 30
0.0
 11
4933.0396778804006317
 21
325.9341617720863837
 31
0.0
  0
ARC
  5
1F481
  8
0
 10
4932.9774762787474174
 20
325.8955579967467884
 30
0.0
 40
0.0236220471999964
 50
103.0000000036619952
 51
193.0000000036941969
  0
LINE
  5
1F482
  8
0
 10
4932.968669453088296
 20
325.9337045496077963
 30
0.0
 11
4933.0361848591683156
 21
325.9492917092870812
 31
0.0
  0
ARC
  5
1F483
  8
0
 10
4932.963359585544822
 20
325.9567373128310237
 30
0.0
 40
0.023636896475914
 50
191.5681158187578887
 51
282.9818966392832067
  0
LINE
  5
1F484
  8
0
 10
4932.9579056367110752
 20
325.9803277605410017
 30
0.0
 11
4933.0254210427910948
 21
325.9959149202202866
 31
0.0
  0
ARC
  5
1F485
  8
0
 10
4932.9632194411360615
 20
325.9573111448808049
 30
0.0
 40
0.0236220471999964
 50
103.0000000036619952
 51
193.0000000036941969
  0
LINE
  5
1F486
  8
0
 10
4932.9541797439405855
 20
325.9964663751816261
 30
0.0
 11
4933.0216951500206051
 21
326.0120535348610247
 31
0.0
  0
ARC
  5
1F487
  8
0
 10
4932.9488698763989305
 20
326.0194991384049104
 30
0.0
 40
0.023636896475914
 50
191.5681158187578887
 51
282.9818966392832067
  0
LINE
  5
1F488
  8
0
 10
4932.9434159275651837
 20
326.0430895861148883
 30
0.0
 11
4933.0109313336452033
 21
326.0586767457941733
 31
0.0
  0
ARC
  5
1F489
  8
0
 10
4932.94872973199017
 20
326.0200729704545779
 30
0.0
 40
0.0236220471999964
 50
103.0000000036619952
 51
193.0000000036941969
  0
LINE
  5
1F48A
  8
0
 10
4932.9395080588610654
 20
326.0600164251168849
 30
0.0
 11
4933.007023464941085
 21
326.0756035847962266
 31
0.0
  0
ARC
  5
1F48B
  8
0
 10
4932.9341981913203199
 20
326.083049188340226
 30
0.0
 40
0.023636896475914
 50
191.5681158187578887
 51
282.9818966392832067
  0
LINE
  5
1F48C
  8
0
 10
4932.9287442424856636
 20
326.1066396360500903
 30
0.0
 11
4932.9962596485656832
 21
326.1222267957293752
 31
0.0
  0
ARC
  5
1F48D
  8
0
 10
4932.9340580469106499
 20
326.0836230203897799
 30
0.0
 40
0.0236220471999964
 50
103.0000000036619952
 51
193.0000000036941969
  0
LINE
  5
1F48E
  8
0
 10
4932.9247059326971794
 20
326.1241314774676994
 30
0.0
 11
4932.9922213387781085
 21
326.1397186371469843
 31
0.0
  0
ARC
  5
1F48F
  8
0
 10
4932.9193960651546149
 20
326.1471642406909837
 30
0.0
 40
0.023636896475914
 50
191.5681158187578887
 51
282.9818966392832067
  0
LINE
  5
1F490
  8
0
 10
4932.9139421163208681
 20
326.1707546884009048
 30
0.0
 11
4932.9814575224017972
 21
326.1863418480801897
 31
0.0
  0
ARC
  5
1F491
  8
0
 10
4932.9192559207467639
 20
326.147738072740708
 30
0.0
 40
0.0236220471999964
 50
103.0000000036619952
 51
193.0000000036941969
  0
LINE
  5
1F492
  8
0
 10
4932.9098253584534177
 20
326.1885863257887195
 30
0.0
 11
4932.9773407645316183
 21
326.2041734854680044
 31
0.0
  0
ARC
  5
1F493
  8
0
 10
4932.9045154909108533
 20
326.2116190890118901
 30
0.0
 40
0.023636896475914
 50
191.5681158187578887
 51
282.9818966392832067
  0
LINE
  5
1F494
  8
0
 10
4932.8990615420771064
 20
326.2352095367219249
 30
0.0
 11
4932.966576948157126
 21
326.2507966964013235
 31
0.0
  0
ARC
  5
1F495
  8
0
 10
4932.9043753465020927
 20
326.2121929210616145
 30
0.0
 40
0.0236220471999964
 50
103.0000000036619952
 51
193.0000000036941969
  0
LINE
  5
1F496
  8
0
 10
4933.0238039393389045
 20
325.6948908526389914
 30
0.0
 11
4933.0913193454180146
 21
325.7104780123182763
 31
0.0
  0
ARC
  5
1F497
  8
0
 10
4933.01849407179634
 20
325.7179236158623894
 30
0.0
 40
0.023636896475914
 50
191.5681158187578887
 51
282.9818966392832067
  0
LINE
  5
1F498
  8
0
 10
4933.0130401229616837
 20
325.7415140635723105
 30
0.0
 11
4933.0805555290417033
 21
325.7571012232515955
 31
0.0
  0
ARC
  5
1F499
  8
0
 10
4933.01835392738667
 20
325.7184974479120001
 30
0.0
 40
0.0236220471999964
 50
103.0000000036619952
 51
193.0000000036941969
  0
LINE
  5
1F49A
  8
0
 10
4933.0366393107633485
 20
325.6392947509904729
 30
0.0
 11
4933.1041547168433681
 21
325.6548819106699284
 31
0.0
  0
ARC
  5
1F49B
  8
0
 10
4933.031329443220784
 20
325.6623275142138141
 30
0.0
 40
0.023636896475914
 50
191.5681158187578887
 51
282.9818966392832067
  0
LINE
  5
1F49C
  8
0
 10
4933.0258754943879467
 20
325.6859179619236784
 30
0.0
 11
4933.0933909004670568
 21
325.701505121603077
 31
0.0
  0
ARC
  5
1F49D
  8
0
 10
4933.0311892988120235
 20
325.6629013462634816
 30
0.0
 40
0.0236220471999964
 50
103.0000000036619952
 51
193.0000000036941969
  0
LINE
  5
1F49E
  8
0
 10
4933.0490030640248733
 20
325.5857414520395992
 30
0.0
 11
4933.1165184701048929
 21
325.6013286117189978
 31
0.0
  0
ARC
  5
1F49F
  8
0
 10
4933.0436931964823088
 20
325.6087742152628834
 30
0.0
 40
0.023636896475914
 50
191.5681158187578887
 51
282.9818966392832067
  0
LINE
  5
1F4A0
  8
0
 10
4933.038239247648562
 20
325.6323646629728046
 30
0.0
 11
4933.1057546537285816
 21
325.6479518226522032
 31
0.0
  0
ARC
  5
1F4A1
  8
0
 10
4933.0435530520726388
 20
325.6093480473126078
 30
0.0
 40
0.0236220471999964
 50
103.0000000036619952
 51
193.0000000036941969
  0
LINE
  5
1F4A2
  8
0
 10
4933.0608517709952139
 20
325.5344190636761823
 30
0.0
 11
4933.1283671770734145
 21
325.5500062233555241
 31
0.0
  0
ARC
  5
1F4A3
  8
0
 10
4933.0555419034517399
 20
325.5574518268994098
 30
0.0
 40
0.023636896475914
 50
191.5681158187578887
 51
282.9818966392832067
  0
LINE
  5
1F4A4
  8
0
 10
4933.0500879546179931
 20
325.5810422746093877
 30
0.0
 11
4933.1176033606980127
 21
325.5966294342886727
 31
0.0
  0
ARC
  5
1F4A5
  8
0
 10
4933.0554017590429794
 20
325.558025658949191
 30
0.0
 40
0.0236220471999964
 50
103.0000000036619952
 51
193.0000000036941969
  0
ARC
  5
1F4A6
  8
0
 10
4932.8521699303400965
 20
326.2062872549280996
 30
0.0
 40
0.0162130385671553
 50
133.94837125495539
 51
243.97342527035741
  0
ARC
  5
1F4A7
  8
0
 10
4932.8523302007733946
 20
326.2071083377115883
 30
0.0
 40
0.0157480314997762
 50
136.4422140500066973
 51
247.2840072477503952
  0
ARC
  5
1F4A8
  8
0
 10
4932.8537600837489663
 20
326.2077929976899782
 30
0.0
 40
0.0156940229183134
 50
136.4393820658978029
 51
248.5057896241364119
  0
ARC
  5
1F4A9
  8
0
 10
4932.8560752777193557
 20
326.2085139258521735
 30
0.0
 40
0.0157099723999999
 50
136.0555753818657081
 51
249.3274754947763938
  0
ARC
  5
1F4AA
  8
0
 10
4932.8592026154183259
 20
326.2093249052136912
 30
0.0
 40
0.0157368240000005
 50
135.4159505267838881
 51
250.145391995038608
  0
ARC
  5
1F4AB
  8
0
 10
4932.8630968734851194
 20
326.2103038533492736
 30
0.0
 40
0.0157480315000005
 50
134.6549152514535876
 51
251.1136717900930933
  0
ARC
  5
1F4AC
  8
0
 10
4932.8677217330823623
 20
326.2114223040098864
 30
0.0
 40
0.0157480315000006
 50
133.7544101256081888
 51
252.0577400569065958
  0
ARC
  5
1F4AD
  8
0
 10
4932.8731388944906939
 20
326.2127062325869815
 30
0.0
 40
0.0157480314999988
 50
133.7266418159333057
 51
252.1857203603273945
  0
ARC
  5
1F4AE
  8
0
 10
4932.878748592552256
 20
326.2138788237912763
 30
0.0
 40
0.0159502239352683
 50
141.025343023942014
 51
244.2373045274206049
  0
ARC
  5
1F4AF
  8
0
 10
4932.9069406093367434
 20
326.1781612436537898
 30
0.0
 40
0.0235816290000041
 50
138.9419877174042881
 51
246.039464875098588
  0
ARC
  5
1F4B0
  8
0
 10
4932.8964230256597148
 20
326.1864326953879072
 30
0.0
 40
0.0196668903999991
 50
131.7001804329094909
 51
232.8763559851836931
  0
ARC
  5
1F4B1
  8
0
 10
4932.8865132941391494
 20
326.2128335252779152
 30
0.0
 40
0.0197871384842297
 50
140.2355338545688994
 51
246.3665512204744061
  0
ARC
  5
1F4B2
  8
0
 10
4932.8840969461216446
 20
326.1896794101892851
 30
0.0
 40
0.0157335123000013
 50
141.3123748946231899
 51
258.5636160191190811
  0
ARC
  5
1F4B3
  8
0
 10
4932.8813409560680157
 20
326.1889996445718225
 30
0.0
 40
0.0156511480000009
 50
134.0392627715798142
 51
252.4123564937389972
  0
ARC
  5
1F4B4
  8
0
 10
4932.8759117700356001
 20
326.1876865915863277
 30
0.0
 40
0.0157032478000017
 50
133.2193581088031067
 51
252.4372980735473959
  0
ARC
  5
1F4B5
  8
0
 10
4932.8708925377068226
 20
326.1864516572957768
 30
0.0
 40
0.0156763329000012
 50
134.1081363514319094
 51
251.4177351440256984
  0
ARC
  5
1F4B6
  8
0
 10
4932.8666853789272864
 20
326.1853881640402051
 30
0.0
 40
0.0157480248723672
 50
135.1385214746943859
 51
250.2819496064117004
  0
ARC
  5
1F4B7
  8
0
 10
4932.8632116129419956
 20
326.1844461364004815
 30
0.0
 40
0.015748031499999
 50
135.9727790193477972
 51
249.1969403602294904
  0
ARC
  5
1F4B8
  8
0
 10
4932.8605259561527419
 20
326.1836210932722793
 30
0.0
 40
0.0157480314999984
 50
136.5862119408735964
 51
248.0253489193326004
  0
ARC
  5
1F4B9
  8
0
 10
4932.8586148588419746
 20
326.1828748939757929
 30
0.0
 40
0.0157213538146056
 50
137.0781904099783048
 51
242.3439228714775879
  0
ARC
  5
1F4BA
  8
0
 10
4932.8575681154361519
 20
326.1821963311226114
 30
0.0
 40
0.0157480314999994
 50
137.9485221387654121
 51
243.8698695047264948
  0
ARC
  5
1F4BB
  8
0
 10
4932.8542337568933362
 20
326.1935895722264718
 30
0.0
 40
0.015480101165386
 50
168.3042777855006022
 51
217.4538608955527934
  0
ARC
  5
1F4BC
  8
0
 10
4932.9089670528783245
 20
326.1321792368077013
 30
0.0
 40
0.0196850393999993
 50
132.5417800052119048
 51
237.4236638692364068
  0
ARC
  5
1F4BD
  8
0
 10
4932.8989743418997023
 20
326.15857802293948
 30
0.0
 40
0.0197535162584312
 50
139.9090521662238018
 51
246.5319291886220867
  0
ARC
  5
1F4BE
  8
0
 10
4932.8952965294756723
 20
326.1412332391475957
 30
0.0
 40
0.0157480315004215
 50
150.0713954816343119
 51
250.9894338082262948
  0
ARC
  5
1F4BF
  8
0
 10
4932.8896315057081665
 20
326.1653787346641025
 30
0.0
 40
0.0156597589999964
 50
140.3826443499717129
 51
232.138306977039889
  0
ARC
  5
1F4C0
  8
0
 10
4932.8843592852927031
 20
326.1641053805388992
 30
0.0
 40
0.0157480315000012
 50
133.7798916633904867
 51
251.733702657410106
  0
ARC
  5
1F4C1
  8
0
 10
4932.8789508600393674
 20
326.1627836115208083
 30
0.0
 40
0.0157480315000023
 50
133.9880149082893013
 51
251.5042496387360131
  0
ARC
  5
1F4C2
  8
0
 10
4932.8743358513638668
 20
326.1616224918308831
 30
0.0
 40
0.0157480314999994
 50
134.8869763203024945
 51
250.424351945652603
  0
ARC
  5
1F4C3
  8
0
 10
4932.8704608233911131
 20
326.1606100811832221
 30
0.0
 40
0.0157480315000016
 50
135.9341388982871024
 51
249.224668062038802
  0
ARC
  5
1F4C4
  8
0
 10
4932.8673707805710364
 20
326.1597569268010943
 30
0.0
 40
0.0157480314999984
 50
136.9139084490406901
 51
247.9193082371550076
  0
ARC
  5
1F4C5
  8
0
 10
4932.865057815878572
 20
326.1590954809404934
 30
0.0
 40
0.0157480314999989
 50
138.1084253778352036
 51
246.2745658146737924
  0
ARC
  5
1F4C6
  8
0
 10
4932.8634560744767441
 20
326.1589168842000959
 30
0.0
 40
0.0157480314999996
 50
134.592037343911386
 51
243.9137219653107138
  0
ARC
  5
1F4C7
  8
0
 10
4932.8615150637433544
 20
326.1637648057031242
 30
0.0
 40
0.0157480315000016
 50
155.3265723999103045
 51
211.3639023413396103
  0
ARC
  5
1F4C8
  8
0
 10
4932.9211983589057127
 20
326.1134281886235726
 30
0.0
 40
0.0229324119231376
 50
137.3795726808849906
 51
246.6674755285270919
  0
ARC
  5
1F4C9
  8
0
 10
4932.911339035353194
 20
326.1046024124443079
 30
0.0
 40
0.0196850394000005
 50
140.2448912809279875
 51
246.8783976212197047
  0
ARC
  5
1F4CA
  8
0
 10
4932.9217698696602383
 20
326.0783441882056763
 30
0.0
 40
0.0199075440341833
 50
128.8844743057262008
 51
249.1461168046018884
  0
ARC
  5
1F4CB
  8
0
 10
4932.9369916504138018
 20
326.0504487588314078
 30
0.0
 40
0.0241663889475161
 50
141.0314056324207002
 51
244.7811298169316956
  0
ARC
  5
1F4CC
  8
0
 10
4932.9064133869842408
 20
326.0930808390705806
 30
0.0
 40
0.015748031500003
 50
154.3098644870200928
 51
253.2134131568853093
  0
ARC
  5
1F4CD
  8
0
 10
4932.9037233466733596
 20
326.0924815498216844
 30
0.0
 40
0.0157480315000032
 50
139.5160566434084046
 51
250.984817764439498
  0
ARC
  5
1F4CE
  8
0
 10
4932.9118683406250057
 20
326.0692152370493204
 30
0.0
 40
0.0156982972241165
 50
141.824240613117297
 51
241.8627666276348975
  0
ARC
  5
1F4CF
  8
0
 10
4932.9236859819357051
 20
326.051121911214409
 30
0.0
 40
0.0196850393999992
 50
140.7940460336220951
 51
246.5040634558818056
  0
ARC
  5
1F4D0
  8
0
 10
4932.9337389360352972
 20
326.0248804225847152
 30
0.0
 40
0.0196850394000002
 50
145.2976157764773859
 51
258.3039754822723921
  0
ARC
  5
1F4D1
  8
0
 10
4932.9228429858858362
 20
326.0219164278162793
 30
0.0
 40
0.0157480315000003
 50
127.4445814474820935
 51
243.3221168595424899
  0
ARC
  5
1F4D2
  8
0
 10
4932.9173705267976402
 20
326.0211179844216076
 30
0.0
 40
0.0157480315000013
 50
136.7501220502551007
 51
249.9672628721824026
  0
ARC
  5
1F4D3
  8
0
 10
4932.9117842847981592
 20
326.0205664243446222
 30
0.0
 40
0.0157480314999981
 50
137.8690258094044907
 51
249.4262545629021872
  0
ARC
  5
1F4D4
  8
0
 10
4932.9068815137416095
 20
326.0206517404724877
 30
0.0
 40
0.0157480314999985
 50
140.4129785655293858
 51
265.9387103444609011
  0
ARC
  5
1F4D5
  8
0
 10
4932.9025047649238331
 20
326.0218125215553187
 30
0.0
 40
0.0157480315000003
 50
144.1481691543635009
 51
246.4811920700340977
  0
ARC
  5
1F4D6
  8
0
 10
4932.8984415560616981
 20
326.0251746124080796
 30
0.0
 40
0.0157480315000011
 50
150.2583492023198914
 51
240.0332921917290889
  0
ARC
  5
1F4D7
  8
0
 10
4932.8939066504899529
 20
326.0341374498615892
 30
0.0
 40
0.015748031500006
 50
162.1819638893564957
 51
225.4356846742979883
  0
ARC
  5
1F4D8
  8
0
 10
4932.893494816720704
 20
326.0319187689736964
 30
0.0
 40
0.0157480314999997
 50
170.1060526231705978
 51
231.6592545441137929
  0
ARC
  5
1F4D9
  8
0
 10
4932.9174247538276177
 20
326.0453853692507096
 30
0.0
 40
0.0157480314999971
 50
147.0895738458193875
 51
242.8837871447672967
  0
ARC
  5
1F4DA
  8
0
 10
4932.9146913214053711
 20
326.0449740318949807
 30
0.0
 40
0.0157480314999989
 50
135.6653088245055869
 51
250.4098992137732864
  0
ARC
  5
1F4DB
  8
0
 10
4932.9065245992842392
 20
326.0680968577722751
 30
0.0
 40
0.0157480314999993
 50
135.3562089186542039
 51
250.5846871753543894
  0
ARC
  5
1F4DC
  8
0
 10
4932.8982167573058177
 20
326.0912721700115071
 30
0.0
 40
0.0157480314999972
 50
134.6312675522547124
 51
251.1350356999558926
  0
ARC
  5
1F4DD
  8
0
 10
4932.9019978675705715
 20
326.1172169462520856
 30
0.0
 40
0.0165861402826157
 50
143.9249567032462096
 51
231.4311874500160968
  0
ARC
  5
1F4DE
  8
0
 10
4932.8955044458953125
 20
326.1158303862919752
 30
0.0
 40
0.0157480315000025
 50
134.4089357647368956
 51
251.1974663942538086
  0
ARC
  5
1F4DF
  8
0
 10
4932.8926230721071988
 20
326.1405621212865071
 30
0.0
 40
0.0157480314999989
 50
138.8550219881645091
 51
251.7450886786392914
  0
ARC
  5
1F4E0
  8
0
 10
4932.8871422749098201
 20
326.1392410233224837
 30
0.0
 40
0.0157480315000006
 50
133.790294810750396
 51
251.7749705618631992
  0
ARC
  5
1F4E1
  8
0
 10
4932.8821463259619122
 20
326.1380248849923191
 30
0.0
 40
0.0157480314999987
 50
134.9241158989127882
 51
250.5107128541235113
  0
ARC
  5
1F4E2
  8
0
 10
4932.8778616611843972
 20
326.1369784173344897
 30
0.0
 40
0.0157480315000008
 50
135.9175425576283942
 51
249.3885158191644962
  0
ARC
  5
1F4E3
  8
0
 10
4932.8743622527672414
 20
326.136147409032219
 30
0.0
 40
0.0157480315000001
 50
137.2013656378248072
 51
247.9726689637749928
  0
ARC
  5
1F4E4
  8
0
 10
4932.8716068036774232
 20
326.1356246695755772
 30
0.0
 40
0.0157480315000002
 50
138.8859591257177044
 51
246.3453202395733967
  0
ARC
  5
1F4E5
  8
0
 10
4932.8695021594276113
 20
326.1358423851694965
 30
0.0
 40
0.0157480314999996
 50
142.0869061266517974
 51
244.1992118806128076
  0
ARC
  5
1F4E6
  8
0
 10
4932.8673370080759923
 20
326.1398826083482163
 30
0.0
 40
0.0157480314999925
 50
153.4433843459682123
 51
216.5551215244992136
  0
ARC
  5
1F4E7
  8
0
 10
4932.8652361669910533
 20
326.147646936765284
 30
0.0
 40
0.0157480314999931
 50
167.7368756633499061
 51
209.936552570651088
  0
ARC
  5
1F4E8
  8
0
 10
4932.9010469702661794
 20
326.0670748431813877
 30
0.0
 40
0.0157480314999986
 50
136.0017709398950956
 51
250.112348292779501
  0
ARC
  5
1F4E9
  8
0
 10
4932.8931788450454405
 20
326.0902377947655282
 30
0.0
 40
0.0157480315000005
 50
136.0950864939279086
 51
249.7208215065980994
  0
ARC
  5
1F4EA
  8
0
 10
4932.8854389118805557
 20
326.1135298530853106
 30
0.0
 40
0.0157480315000013
 50
135.9616904843366001
 51
249.5766769164482923
  0
ARC
  5
1F4EB
  8
0
 10
4932.890081044546605
 20
326.114573485863616
 30
0.0
 40
0.015748031500001
 50
134.7266759150610085
 51
250.8395321600490036
  0
ARC
  5
1F4EC
  8
0
 10
4932.8815118258926304
 20
326.1127429304759175
 30
0.0
 40
0.0157480315000041
 50
137.4731010738051111
 51
248.1247453766964952
  0
ARC
  5
1F4ED
  8
0
 10
4932.8782898787521844
 20
326.1123533615117935
 30
0.0
 40
0.0157257616411107
 50
139.3910010462701052
 51
246.5252259828023114
  0
ARC
  5
1F4EE
  8
0
 10
4932.875785305224781
 20
326.1128753794487238
 30
0.0
 40
0.0158061540397322
 50
143.1698327443276924
 51
205.1300976943365129
  0
ARC
  5
1F4EF
  8
0
 10
4932.8755924541273998
 20
326.1127849178275824
 30
0.0
 40
0.0155931403051176
 50
205.1300976943336138
 51
256.0884257753431825
  0
ARC
  5
1F4F0
  8
0
 10
4932.879241611622092
 20
326.0936561829798848
 30
0.0
 40
0.0157480315000006
 50
152.0297940789700988
 51
226.9281688519054114
  0
ARC
  5
1F4F1
  8
0
 10
4932.8821120810589491
 20
326.0900159284444157
 30
0.0
 40
0.015731450289847
 50
146.6397760062637019
 51
245.1046359915746962
  0
ARC
  5
1F4F2
  8
0
 10
4932.884908650304169
 20
326.0893502406361222
 30
0.0
 40
0.0154780651033372
 50
139.4914724605256993
 51
248.0009586985997885
  0
ARC
  5
1F4F3
  8
0
 10
4932.8888216185696365
 20
326.089505626346579
 30
0.0
 40
0.0157480315000008
 50
137.6345476205526097
 51
248.4108411051253995
  0
ARC
  5
1F4F4
  8
0
 10
4932.8963166597568488
 20
326.066413150606877
 30
0.0
 40
0.0157480315000016
 50
137.7766614213128946
 51
248.7092841795980007
  0
ARC
  5
1F4F5
  8
0
 10
4932.892235046386304
 20
326.0662955596262123
 30
0.0
 40
0.0157480314999965
 50
140.2204319526778136
 51
247.124548155184101
  0
ARC
  5
1F4F6
  8
0
 10
4932.8887333799393673
 20
326.0672253430557248
 30
0.0
 40
0.0157480315000025
 50
143.3551563543107079
 51
245.5071960674266052
  0
ARC
  5
1F4F7
  8
0
 10
4932.8854522108149467
 20
326.07075765133402
 30
0.0
 40
0.0157480315000021
 50
151.4190390052062867
 51
231.6940068621541968
  0
ARC
  5
1F4F8
  8
0
 10
4932.8808320062944404
 20
326.0837756608497102
 30
0.0
 40
0.0157754118321792
 50
170.485562239493504
 51
225.6313498246084066
  0
ARC
  5
1F4F9
  8
0
 10
4932.8757587273057652
 20
326.1015750436156964
 30
0.0
 40
0.0153532564404038
 50
173.6290656928522083
 51
217.362578812976011
  0
ARC
  5
1F4FA
  8
0
 10
4932.8738643734550351
 20
326.1116094826934955
 30
0.0
 40
0.0157480315000089
 50
178.1904552719653054
 51
233.1887947641440064
  0
ARC
  5
1F4FB
  8
0
 10
4932.8730996342237631
 20
326.116655462141523
 30
0.0
 40
0.0156510204342221
 50
152.4013118842972005
 51
221.9687351911979079
  0
ARC
  5
1F4FC
  8
0
 10
4932.8856213575581933
 20
326.0629084953118877
 30
0.0
 40
0.0157480315000277
 50
166.8002805254994882
 51
210.1586255437065915
  0
ARC
  5
1F4FD
  8
0
 10
4932.8873751132887264
 20
326.0584261167402929
 30
0.0
 40
0.0157480314999948
 50
165.5185350841022967
 51
224.3393520208678069
  0
ARC
  5
1F4FE
  8
0
 10
4932.895522881089164
 20
326.0444906579929238
 30
0.0
 40
0.0157480315000002
 50
144.137149548828603
 51
245.9961247632097923
  0
ARC
  5
1F4FF
  8
0
 10
4932.891851510397828
 20
326.0479352108516196
 30
0.0
 40
0.0157480315000031
 50
150.8358934588410136
 51
236.023170366864008
  0
ARC
  5
1F500
  8
0
 10
4932.8872715800916922
 20
326.0557605962202956
 30
0.0
 40
0.0157480315000035
 50
179.5312253088486045
 51
227.0700931029680874
  0
ARC
  5
1F501
  8
0
 10
4932.9091204834758173
 20
326.044042943185616
 30
0.0
 40
0.0157480314999995
 50
135.9717749295820113
 51
250.4674885617253892
  0
ARC
  5
1F502
  8
0
 10
4932.9039826536918554
 20
326.0434413582760271
 30
0.0
 40
0.0157480314999991
 50
137.9566418769416885
 51
248.9494322225116889
  0
ARC
  5
1F503
  8
0
 10
4932.8994597117125522
 20
326.0434269825605043
 30
0.0
 40
0.0157480315000032
 50
140.343403949244987
 51
247.5611343056143028
  0
ARC
  5
1F504
  8
0
 10
4933.1305908612375788
 20
325.2155181143137952
 30
0.0
 40
0.0250583461362007
 50
183.2111002794613057
 51
230.682948473159712
  0
ARC
  5
1F505
  8
0
 10
4933.1275523025333314
 20
325.2227667088059775
 30
0.0
 40
0.023622047199984
 50
180.3214513757583006
 51
235.0957060777755885
  0
ARC
  5
1F506
  8
0
 10
4933.1252197448284278
 20
325.2328701262250092
 30
0.0
 40
0.0236220471999941
 50
175.1781001530158051
 51
232.2914615629553907
  0
ARC
  5
1F507
  8
0
 10
4933.1219670672608117
 20
325.2469590206277985
 30
0.0
 40
0.0236220471999944
 50
170.205095355987396
 51
238.4207560033096911
  0
ARC
  5
1F508
  8
0
 10
4933.1183670792906923
 20
325.265004103323804
 30
0.0
 40
0.0241651440286869
 50
165.0213628572817015
 51
232.4400733930704916
  0
ARC
  5
1F509
  8
0
 10
4933.1079453139273028
 20
325.2703096998255887
 30
0.0
 40
0.0196850394000067
 50
184.1767682137831912
 51
235.570781351682399
  0
ARC
  5
1F50A
  8
0
 10
4933.1073347097308215
 20
325.2770812249838741
 30
0.0
 40
0.0207163858422906
 50
181.8800854765325141
 51
231.9908057246753117
  0
ARC
  5
1F50B
  8
0
 10
4933.1127562805277194
 20
325.2868553211379776
 30
0.0
 40
0.0236220471999985
 50
159.1372652616109065
 51
231.5050455198837085
  0
ARC
  5
1F50C
  8
0
 10
4933.1047794626747418
 20
325.2840225081374115
 30
0.0
 40
0.0196850394000063
 50
176.9269986131263863
 51
237.8899848379475088
  0
ARC
  5
1F50D
  8
0
 10
4933.1023274794461031
 20
325.2946432143364177
 30
0.0
 40
0.0196850393999935
 50
172.2390825819605027
 51
233.1270266317253004
  0
ARC
  5
1F50E
  8
0
 10
4933.0991881792797358
 20
325.3082410172623895
 30
0.0
 40
0.019685039400001
 50
167.4714208389470969
 51
240.5769502457181943
  0
ARC
  5
1F50F
  8
0
 10
4933.1068345221456184
 20
325.3125052746942742
 30
0.0
 40
0.023622047200005
 50
153.4347847754401073
 51
237.0989233415093054
  0
ARC
  5
1F510
  8
0
 10
4933.1000652020002235
 20
325.341826421585381
 30
0.0
 40
0.0236220472000017
 50
147.4228778382463076
 51
255.1695829261846029
  0
ARC
  5
1F511
  8
0
 10
4933.0924750354779462
 20
325.3747030447453881
 30
0.0
 40
0.0236220471999983
 50
140.9440274341039867
 51
252.2531557299599001
  0
ARC
  5
1F512
  8
0
 10
4933.0953714395773204
 20
325.3247731332024841
 30
0.0
 40
0.0196850394000046
 50
163.5504898573352932
 51
232.7600841929225055
  0
ARC
  5
1F513
  8
0
 10
4933.0917273871918951
 20
325.3440843379109992
 30
0.0
 40
0.0205138557089925
 50
158.188109041469005
 51
244.6793192908833134
  0
ARC
  5
1F514
  8
0
 10
4933.0857557708386594
 20
325.3664231703352243
 30
0.0
 40
0.0196850393999995
 50
152.355708669392186
 51
244.9813498360788913
  0
ARC
  5
1F515
  8
0
 10
4933.0840939775143852
 20
325.411005395107793
 30
0.0
 40
0.0236220472000008
 50
145.1293832388325882
 51
249.9934388232522906
  0
ARC
  5
1F516
  8
0
 10
4933.0545510284637203
 20
325.5389699661358236
 30
0.0
 40
0.023622047199997
 50
153.9169544969680885
 51
245.5622961058554949
  0
ARC
  5
1F517
  8
0
 10
4933.0509523791515676
 20
325.5171732217311842
 30
0.0
 40
0.0196850393999974
 50
149.2112905380568009
 51
243.919682983966112
  0
ARC
  5
1F518
  8
0
 10
4933.0404270540911966
 20
325.545460773787795
 30
0.0
 40
0.0196850393999997
 50
154.6038955542643976
 51
250.4615336856466001
  0
ARC
  5
1F519
  8
0
 10
4933.0423179236777287
 20
325.5545731572943282
 30
0.0
 40
0.019685039400003
 50
133.5161027425164946
 51
234.6664929938307012
  0
ARC
  5
1F51A
  8
0
 10
4933.0433663513631473
 20
325.5874161251463192
 30
0.0
 40
0.023622047200003
 50
152.2873397146564969
 51
244.509123049029597
  0
ARC
  5
1F51B
  8
0
 10
4933.0331849635285835
 20
325.5941323538237953
 30
0.0
 40
0.0196850393999982
 50
132.2868337484860888
 51
233.9949915709397033
  0
ARC
  5
1F51C
  8
0
 10
4933.0319595396749719
 20
325.5821376081818812
 30
0.0
 40
0.0196850394000044
 50
156.3331823177792899
 51
249.0079018773662085
  0
ARC
  5
1F51D
  8
0
 10
4933.0229585688612133
 20
325.6211250960965913
 30
0.0
 40
0.0196850394000008
 50
155.7639518997021071
 51
247.9024115728946072
  0
ARC
  5
1F51E
  8
0
 10
4933.0315845923696543
 20
325.638448529968116
 30
0.0
 40
0.0236220472000049
 50
150.2911013038703061
 51
244.1171276469449936
  0
ARC
  5
1F51F
  8
0
 10
4933.0235822344056942
 20
325.635726343339627
 30
0.0
 40
0.0196850394000013
 50
130.6154637422959865
 51
262.3214179160078174
  0
ARC
  5
1F520
  8
0
 10
4933.0134557578658132
 20
325.6622862926449784
 30
0.0
 40
0.0196850394000006
 50
154.2330761487644111
 51
247.0895645036233077
  0
ARC
  5
1F521
  8
0
 10
4933.0135399500222775
 20
325.6792242558591965
 30
0.0
 40
0.0196850394000019
 50
155.3928803173666893
 51
252.7340235974369023
  0
ARC
  5
1F522
  8
0
 10
4933.0192522486868256
 20
325.6918657790884026
 30
0.0
 40
0.0236220471999988
 50
148.2157730283664137
 51
243.9350543243947982
  0
ARC
  5
1F523
  8
0
 10
4933.0034844856718337
 20
325.7054766175816098
 30
0.0
 40
0.0196850393999978
 50
152.3063987544244071
 51
247.9324048604181883
  0
ARC
  5
1F524
  8
0
 10
4933.0030897071374056
 20
325.7244892307787154
 30
0.0
 40
0.0196850393999965
 50
147.9969098760925021
 51
256.4498341886289268
  0
ARC
  5
1F525
  8
0
 10
4933.0064179904547927
 20
325.7474570589691893
 30
0.0
 40
0.0236220471999993
 50
146.2214374122710012
 51
243.928622822293903
  0
ARC
  5
1F526
  8
0
 10
4932.9922643860836615
 20
325.7713788477390722
 30
0.0
 40
0.0196850393999976
 50
132.003766119954804
 51
243.9913714659722928
  0
ARC
  5
1F527
  8
0
 10
4932.9931324686422158
 20
325.8050029761595283
 30
0.0
 40
0.0236220471999987
 50
144.4041023182014953
 51
244.0653841990879016
  0
ARC
  5
1F528
  8
0
 10
4932.9810980473075688
 20
325.8197455747380218
 30
0.0
 40
0.0196850394000014
 50
132.3402598773315049
 51
234.0469910262416988
  0
ARC
  5
1F529
  8
0
 10
4932.9794481150893262
 20
325.8642764234127185
 30
0.0
 40
0.0236220472000013
 50
142.8227517747376965
 51
244.3131494170054907
  0
ARC
  5
1F52A
  8
0
 10
4932.9741374452169111
 20
325.8690422848742969
 30
0.0
 40
0.0234452524686392
 50
138.9368451466282011
 51
213.126304792869405
  0
ARC
  5
1F52B
  8
0
 10
4933.0749551043018073
 20
325.4505902039289822
 30
0.0
 40
0.0236220471999969
 50
152.9381115078938933
 51
248.2537171185321938
  0
ARC
  5
1F52C
  8
0
 10
4933.0590611627940234
 20
325.4820502210282029
 30
0.0
 40
0.0196850393999974
 50
152.6542910362381065
 51
254.8575994491606025
  0
ARC
  5
1F52D
  8
0
 10
4933.0650944828321371
 20
325.4933012479231138
 30
0.0
 40
0.0236220471999923
 50
154.5830621996717866
 51
246.9397338377987978
  0
ARC
  5
1F52E
  8
0
 10
4933.0483313696186087
 20
325.511223421785985
 30
0.0
 40
0.0196850394000046
 50
146.7202274462837863
 51
249.6270160845849944
  0
ARC
  5
1F52F
  8
0
 10
4933.0556447221024428
 20
325.4795458119501745
 30
0.0
 40
0.0196850393999991
 50
137.332768291512906
 51
254.7265887568767937
  0
ARC
  5
1F530
  8
0
 10
4933.0480649036408067
 20
325.4795207122924126
 30
0.0
 40
0.0157480314999957
 50
139.3803385082325121
 51
239.660770545271788
  0
ARC
  5
1F531
  8
0
 10
4933.0423607302227538
 20
325.5042282018241053
 30
0.0
 40
0.0157480314999997
 50
150.4473190080888969
 51
255.3383783365385966
  0
ARC
  5
1F532
  8
0
 10
4933.0414989001055801
 20
325.507961198185285
 30
0.0
 40
0.0157480314999942
 50
135.6799372037110913
 51
199.9867764890246917
  0
ARC
  5
1F533
  8
0
 10
4933.0363675288090235
 20
325.5314231325706942
 30
0.0
 40
0.0160264002198293
 50
153.6786334312623978
 51
241.8690581462927867
  0
ARC
  5
1F534
  8
0
 10
4933.0365359101169815
 20
325.5172071356320771
 30
0.0
 40
0.0157480315000046
 50
155.1071456271255897
 51
223.9294568498725937
  0
ARC
  5
1F535
  8
0
 10
4933.0298065130500618
 20
325.5341042227137791
 30
0.0
 40
0.0157480314999966
 50
164.9549816302751992
 51
236.9875990141277953
  0
ARC
  5
1F536
  8
0
 10
4933.0320725521169152
 20
325.5365400631231978
 30
0.0
 40
0.0157480315000031
 50
146.9345499044470955
 51
229.8008854424037111
  0
ARC
  5
1F537
  8
0
 10
4933.0264753587207451
 20
325.5485330373189754
 30
0.0
 40
0.0157480315000044
 50
158.4555717194668034
 51
229.866275425812205
  0
ARC
  5
1F538
  8
0
 10
4933.0269703585863681
 20
325.5586400912994236
 30
0.0
 40
0.0157480315000026
 50
139.1517661919772877
 51
246.8738152078628048
  0
ARC
  5
1F539
  8
0
 10
4933.0296033266831728
 20
325.5606983176745075
 30
0.0
 40
0.0160560732454864
 50
150.1473926911891965
 51
236.8526576834059938
  0
ARC
  5
1F53A
  8
0
 10
4933.0239854702813318
 20
325.5547005559163267
 30
0.0
 40
0.0177031887425543
 50
181.2936153454444081
 51
229.7319893649398921
  0
ARC
  5
1F53B
  8
0
 10
4933.020745643932969
 20
325.5605412538475889
 30
0.0
 40
0.0157480314999953
 50
176.6198363341864876
 51
230.4967485858921066
  0
ARC
  5
1F53C
  8
0
 10
4933.0224337004910922
 20
325.5660393824297785
 30
0.0
 40
0.0157480315000029
 50
151.0791344540444925
 51
227.5092312171940137
  0
ARC
  5
1F53D
  8
0
 10
4933.0159645773001102
 20
325.5812503286123842
 30
0.0
 40
0.0157480314999977
 50
162.8949306631519107
 51
234.695193212283101
  0
ARC
  5
1F53E
  8
0
 10
4933.0177001382116941
 20
325.5865426932321043
 30
0.0
 40
0.0157480314999974
 50
143.2904387470439076
 51
237.2912886672345962
  0
ARC
  5
1F53F
  8
0
 10
4933.021249465569781
 20
325.5834200013733835
 30
0.0
 40
0.0157480315000013
 50
158.4192427005382058
 51
259.2648232345101746
  0
ARC
  5
1F540
  8
0
 10
4933.0221289388191508
 20
325.5918617181627042
 30
0.0
 40
0.0157480314999957
 50
127.2807226861935987
 51
232.1295758699683915
  0
ARC
  5
1F541
  8
0
 10
4933.0122958130996267
 20
325.6099513970627868
 30
0.0
 40
0.0157480314999797
 50
142.713289575589414
 51
249.3498372817938105
  0
ARC
  5
1F542
  8
0
 10
4933.0144159883875545
 20
325.625270176863296
 30
0.0
 40
0.0157480315000025
 50
131.6980582609143084
 51
234.6192619197647105
  0
ARC
  5
1F543
  8
0
 10
4933.00306718646425
 20
325.6371150658416127
 30
0.0
 40
0.015748031499999
 50
138.8584737269142977
 51
255.1627918964194066
  0
ARC
  5
1F544
  8
0
 10
4933.0093552844200531
 20
325.6495271933839035
 30
0.0
 40
0.0162024858601126
 50
172.4157838822384008
 51
243.2983488864408912
  0
ARC
  5
1F545
  8
0
 10
4933.0062577311491623
 20
325.6606074712616987
 30
0.0
 40
0.0157480314999998
 50
134.2346473852097972
 51
261.7473460216472745
  0
ARC
  5
1F546
  8
0
 10
4933.0008128780227707
 20
325.6841917212084923
 30
0.0
 40
0.0157480314999976
 50
166.7554587854195063
 51
243.2190626938352978
  0
ARC
  5
1F547
  8
0
 10
4932.997679835973031
 20
325.6977624172566834
 30
0.0
 40
0.015748031500004
 50
151.797820332161109
 51
256.9223656949884003
  0
ARC
  5
1F548
  8
0
 10
4933.0931662678522116
 20
325.3240175524284155
 30
0.0
 40
0.0213081996196532
 50
184.108321887489609
 51
230.1476744914685071
  0
ARC
  5
1F549
  8
0
 10
4933.0895112200487347
 20
325.328999228687394
 30
0.0
 40
0.018763285048139
 50
180.2497082971129032
 51
237.7471853083742133
  0
ARC
  5
1F54A
  8
0
 10
4933.0884160518462522
 20
325.3375975878403779
 30
0.0
 40
0.0196850394000048
 50
176.0363741750745987
 51
230.2238158611658037
  0
ARC
  5
1F54B
  8
0
 10
4933.0858320856941646
 20
325.3487899748849941
 30
0.0
 40
0.019685039399999
 50
171.0766749304090979
 51
235.9572924600751946
  0
ARC
  5
1F54C
  8
0
 10
4933.0825254338442392
 20
325.3631126575949111
 30
0.0
 40
0.019685039400003
 50
166.0215753598401136
 51
235.5985494826601894
  0
ARC
  5
1F54D
  8
0
 10
4933.0785077110358543
 20
325.3805153270026267
 30
0.0
 40
0.0196850394000012
 50
156.0507800271751933
 51
230.9534635308008035
  0
ARC
  5
1F54E
  8
0
 10
4933.0799870962173372
 20
325.3914100452831235
 30
0.0
 40
0.0196850394000011
 50
151.1716041715039012
 51
235.5716625772514874
  0
ARC
  5
1F54F
  8
0
 10
4933.0737930296645573
 20
325.4009368556123718
 30
0.0
 40
0.0196850394000006
 50
155.4699784031267029
 51
225.1644368392485944
  0
ARC
  5
1F550
  8
0
 10
4933.0680205007938639
 20
325.3930835246936795
 30
0.0
 40
0.0157480314999973
 50
169.616434653944907
 51
234.2685227250686921
  0
ARC
  5
1F551
  8
0
 10
4933.0648860865512688
 20
325.4051710320471216
 30
0.0
 40
0.015434056042008
 50
163.7261757683502026
 51
234.7339353295843125
  0
ARC
  5
1F552
  8
0
 10
4933.0597260657486913
 20
325.4167595360214023
 30
0.0
 40
0.0157480314999984
 50
156.0571223958704934
 51
229.2961529288938038
  0
ARC
  5
1F553
  8
0
 10
4933.0610811730102796
 20
325.4231410555611888
 30
0.0
 40
0.0157480315001135
 50
179.4607805554917945
 51
198.8822615370769995
  0
ARC
  5
1F554
  8
0
 10
4933.0618072836778083
 20
325.4199959247220022
 30
0.0
 40
0.0157480315
 50
158.5906839705259017
 51
243.3705931044368072
  0
ARC
  5
1F555
  8
0
 10
4933.0683979501982321
 20
325.4243055121515908
 30
0.0
 40
0.019685039399999
 50
149.9970380322064045
 51
235.6283552199006976
  0
ARC
  5
1F556
  8
0
 10
4933.0736013957903197
 20
325.4190695526201011
 30
0.0
 40
0.0196850394000011
 50
141.4886229638906059
 51
232.964213584205595
  0
ARC
  5
1F557
  8
0
 10
4933.0666187613296643
 20
325.4493146653151143
 30
0.0
 40
0.0196850394000014
 50
134.4215764074230037
 51
261.2829445915195947
  0
ARC
  5
1F558
  8
0
 10
4933.0620728660305758
 20
325.4504466707924166
 30
0.0
 40
0.0195084963676547
 50
143.1830263393925122
 51
260.7325736063817203
  0
ARC
  5
1F559
  8
0
 10
4933.0578035009748419
 20
325.4373382129040237
 30
0.0
 40
0.0157480314999975
 50
154.3530097138165047
 51
234.7458541336561098
  0
ARC
  5
1F55A
  8
0
 10
4933.0594224802598546
 20
325.4303256431937257
 30
0.0
 40
0.0157480315000193
 50
179.7908895275629106
 51
212.6695876106454932
  0
ARC
  5
1F55B
  8
0
 10
4933.0541484461464279
 20
325.4531699947086167
 30
0.0
 40
0.0157480314999805
 50
185.4530130756967026
 51
224.0563651753963086
  0
ARC
  5
1F55C
  8
0
 10
4933.0571087662328864
 20
325.4403474396784759
 30
0.0
 40
0.0157480314999301
 50
168.3026566422493886
 51
198.6272443073295904
  0
ARC
  5
1F55D
  8
0
 10
4933.0532178983175982
 20
325.4572006401756994
 30
0.0
 40
0.0157480314999999
 50
142.6987980317404947
 51
231.2686023255278087
  0
ARC
  5
1F55E
  8
0
 10
4933.050551044317217
 20
325.4687520539425805
 30
0.0
 40
0.0157480314999935
 50
172.4577245304298003
 51
215.1111531248405129
  0
ARC
  5
1F55F
  8
0
 10
4933.0459295246064357
 20
325.4765189211133816
 30
0.0
 40
0.0157480314999953
 50
172.7549845461473979
 51
227.4294611337909942
  0
ARC
  5
1F560
  8
0
 10
4933.0476876881266435
 20
325.4689034782435897
 30
0.0
 40
0.0157480314999922
 50
178.6319112883439004
 51
229.5585440444585004
  0
ARC
  5
1F561
  8
0
 10
4933.0495839455916212
 20
325.463167488398085
 30
0.0
 40
0.0163582005064185
 50
181.8078406617549092
 51
227.519596445964595
  0
ARC
  5
1F562
  8
0
 10
4933.0500898400796359
 20
325.4650432336006247
 30
0.0
 40
0.0172683758340181
 50
195.7300729379591075
 51
226.3657274706507962
  0
ARC
  5
1F563
  8
0
 10
4933.0434778384242236
 20
325.487138340656827
 30
0.0
 40
0.015748031500003
 50
166.6064942595668015
 51
227.4538237662549136
  0
ARC
  5
1F564
  8
0
 10
4933.0485363849538771
 20
325.4869967405488751
 30
0.0
 40
0.0178878188866888
 50
161.2873097466585079
 51
204.9431097756344968
  0
ARC
  5
1F565
  8
0
 10
4933.0342840424491442
 20
325.5147099121497831
 30
0.0
 40
0.0157480314999931
 50
177.7612569775081965
 51
231.4766548891496996
  0
ARC
  5
1F566
  8
0
 10
4933.041205573528714
 20
325.5013129635033238
 30
0.0
 40
0.016764524291421
 50
157.1946273382349091
 51
231.1647329667007966
  0
ARC
  5
1F567
  8
0
 10
4933.0377272091609484
 20
325.5094133511370842
 30
0.0
 40
0.0179963859811855
 50
182.4172616432886116
 51
225.5653650112494972
  0
ARC
  5
1F568
  8
0
 10
4933.0323090830943329
 20
325.5227720976092769
 30
0.0
 40
0.0156468702481186
 50
171.2239435257828006
 51
229.2694954428366998
  0
ARC
  5
1F569
  8
0
 10
4933.0187475874572556
 20
325.5691957872675175
 30
0.0
 40
0.0157480314999986
 50
169.8712197262393033
 51
238.2900375874746999
  0
ARC
  5
1F56A
  8
0
 10
4933.0702108452505854
 20
325.3835961005219133
 30
0.0
 40
0.0157480315000118
 50
174.992035716968104
 51
236.9526226726993912
  0
ARC
  5
1F56B
  8
0
 10
4933.071780331660193
 20
325.3767979080107011
 30
0.0
 40
0.0157480314999958
 50
180.2016650287883976
 51
235.4678663778603891
  0
ARC
  5
1F56C
  8
0
 10
4933.0733595483998215
 20
325.371621052284695
 30
0.0
 40
0.0161671528916868
 50
182.8522817010018002
 51
231.4250928675290879
  0
ARC
  5
1F56D
  8
0
 10
4932.9680183134478284
 20
325.7769900860077996
 30
0.0
 40
0.0157480315000063
 50
157.4281269085616941
 51
242.723108244070005
  0
ARC
  5
1F56E
  8
0
 10
4932.9761560000442842
 20
325.766490125377004
 30
0.0
 40
0.0157480315000012
 50
152.9295950053426054
 51
245.1554727967173903
  0
ARC
  5
1F56F
  8
0
 10
4932.9833759087287035
 20
325.7597195330044997
 30
0.0
 40
0.0157480315000032
 50
158.6122278609007878
 51
231.903501268541703
  0
ARC
  5
1F570
  8
0
 10
4932.9930797767046897
 20
325.7505443634360063
 30
0.0
 40
0.0196850393999973
 50
150.2627159813424953
 51
246.1662506614088954
  0
ARC
  5
1F571
  8
0
 10
4932.9793743242253186
 20
325.7770522997396938
 30
0.0
 40
0.0157480315000002
 50
146.1153266134608089
 51
253.8666913875325122
  0
ARC
  5
1F572
  8
0
 10
4932.9822781779330398
 20
325.7973312279088987
 30
0.0
 40
0.0196850394000011
 50
148.2557748714664001
 51
245.9814784902247879
  0
ARC
  5
1F573
  8
0
 10
4932.9743621909028661
 20
325.8001512545386049
 30
0.0
 40
0.0160067767700749
 50
155.7651042559458006
 51
237.3585528026490863
  0
ARC
  5
1F574
  8
0
 10
4932.9697043035330353
 20
325.8189377610491988
 30
0.0
 40
0.015748031499073
 50
133.770661358157497
 51
248.2611926593916962
  0
ARC
  5
1F575
  8
0
 10
4932.9711176303417233
 20
325.845672870529711
 30
0.0
 40
0.0196850393999961
 50
138.1025571726219141
 51
245.9365304689746949
  0
ARC
  5
1F576
  8
0
 10
4932.9597296555439243
 20
325.8621427081631055
 30
0.0
 40
0.0157480314999988
 50
120.8905385215627035
 51
239.1527023377016121
  0
ARC
  5
1F577
  8
0
 10
4932.9580593503769705
 20
325.8448753267884967
 30
0.0
 40
0.0157480314999975
 50
146.4874918183082002
 51
268.6944011060656976
  0
ARC
  5
1F578
  8
0
 10
4932.9591792043011083
 20
325.8272148016952769
 30
0.0
 40
0.0157480315000008
 50
149.444584180248313
 51
256.9768208457161904
  0
ARC
  5
1F579
  8
0
 10
4932.9520704970773295
 20
325.8351500248655839
 30
0.0
 40
0.0157480314999999
 50
155.632884527739094
 51
241.6259301175794008
  0
ARC
  5
1F57A
  8
0
 10
4932.951215030891035
 20
325.8497730989877255
 30
0.0
 40
0.0157480315000044
 50
150.3729624319304037
 51
248.8702111624687063
  0
ARC
  5
1F57B
  8
0
 10
4932.9563859094951113
 20
325.8643749295532075
 30
0.0
 40
0.0157480314999994
 50
143.7040662604437102
 51
243.6073239066660108
  0
ARC
  5
1F57C
  8
0
 10
4932.9543947995480266
 20
325.8852505081997037
 30
0.0
 40
0.0157480315000056
 50
154.1167183462627008
 51
241.8484169125534038
  0
ARC
  5
1F57D
  8
0
 10
4932.9578838127799827
 20
325.9202974715049095
 30
0.0
 40
0.0196850393999987
 50
137.2819974908759093
 51
260.0094284012934054
  0
ARC
  5
1F57E
  8
0
 10
4932.9654189357070209
 20
325.9250434754254115
 30
0.0
 40
0.0236220471999993
 50
141.5115135422290962
 51
244.6387277370307913
  0
ARC
  5
1F57F
  8
0
 10
4932.9476812022312515
 20
325.9462923413449857
 30
0.0
 40
0.0195382928646892
 50
142.770432147574013
 51
246.6119286477998003
  0
ARC
  5
1F580
  8
0
 10
4932.9511002972940332
 20
325.9870643122471847
 30
0.0
 40
0.0236220472000001
 50
140.4853770069061909
 51
245.0070097186458895
  0
ARC
  5
1F581
  8
0
 10
4932.9358797869253976
 20
325.9983047391036735
 30
0.0
 40
0.0196850394000004
 50
141.9796846448631129
 51
246.3168879110874059
  0
ARC
  5
1F582
  8
0
 10
4932.9282959841530101
 20
325.9982968973910147
 30
0.0
 40
0.0157480314999991
 50
124.1369966406113008
 51
249.9848924295611141
  0
ARC
  5
1F583
  8
0
 10
4932.9254837106809646
 20
325.9982270581326134
 30
0.0
 40
0.0157480315000013
 50
137.1781079879665128
 51
249.8406717122718135
  0
ARC
  5
1F584
  8
0
 10
4932.9197978905267519
 20
325.9977940121535198
 30
0.0
 40
0.0157480315000002
 50
137.8222452256613053
 51
249.8539678054291073
  0
ARC
  5
1F585
  8
0
 10
4932.9144839508817313
 20
325.997955242859689
 30
0.0
 40
0.015748031499998
 50
149.0576898000998085
 51
248.3889823653929056
  0
ARC
  5
1F586
  8
0
 10
4932.9096734899849253
 20
325.9991862484012017
 30
0.0
 40
0.0157480314998884
 50
143.99634578302161
 51
247.0271973982351028
  0
ARC
  5
1F587
  8
0
 10
4932.9048311856477085
 20
326.0021628029084013
 30
0.0
 40
0.0152710520930855
 50
148.1889803434897885
 51
244.2107048735533112
  0
ARC
  5
1F588
  8
0
 10
4932.9008009356039111
 20
326.0042750202300113
 30
0.0
 40
0.0157480315000101
 50
171.4262809434862049
 51
236.3291953878232903
  0
ARC
  5
1F589
  8
0
 10
4932.9005168777466679
 20
326.0104013812518815
 30
0.0
 40
0.0157480314999973
 50
159.7246435830450935
 51
227.8693505126992136
  0
ARC
  5
1F58A
  8
0
 10
4932.8972938543984128
 20
326.0154633289424169
 30
0.0
 40
0.015748031500008
 50
160.5744624508174923
 51
219.2598859684451895
  0
ARC
  5
1F58B
  8
0
 10
4932.8992789347057624
 20
326.0101902167043022
 30
0.0
 40
0.0165062937666428
 50
183.0416047668232125
 51
212.266402003887606
  0
ARC
  5
1F58C
  8
0
 10
4932.9459089576021142
 20
325.972166267795501
 30
0.0
 40
0.019685039400002
 50
153.5372374977440018
 51
252.2909077983682096
  0
ARC
  5
1F58D
  8
0
 10
4932.9335857971209407
 20
325.9753842001495059
 30
0.0
 40
0.0157480314999994
 50
144.7020999373347934
 51
242.7439737239141948
  0
ARC
  5
1F58E
  8
0
 10
4932.9389928730461179
 20
325.9519635812342813
 30
0.0
 40
0.0157480315000029
 50
133.0313127033622038
 51
232.2857827215364921
  0
ARC
  5
1F58F
  8
0
 10
4932.9360579218873681
 20
325.9524251174190113
 30
0.0
 40
0.0157480315000021
 50
138.9933210091537887
 51
247.5845084046790134
  0
ARC
  5
1F590
  8
0
 10
4932.9279937878618512
 20
325.9751035854333736
 30
0.0
 40
0.0157480315000007
 50
138.5929025731614956
 51
249.4112465691665932
  0
ARC
  5
1F591
  8
0
 10
4932.9222013532726123
 20
325.9752989474155243
 30
0.0
 40
0.0157151518718304
 50
140.1816941930399025
 51
248.9440928207409911
  0
ARC
  5
1F592
  8
0
 10
4932.930194568853949
 20
325.9527610508233124
 30
0.0
 40
0.0157480314999987
 50
140.1617030378448874
 51
249.3687091340289896
  0
ARC
  5
1F593
  8
0
 10
4932.9245838848037238
 20
325.9540709870960882
 30
0.0
 40
0.0157173002033285
 50
143.5878241554381987
 51
247.9993476725668984
  0
ARC
  5
1F594
  8
0
 10
4932.9170484118312743
 20
325.9766140666914112
 30
0.0
 40
0.0157480315000036
 50
143.8161614963316879
 51
247.5928183941616965
  0
ARC
  5
1F595
  8
0
 10
4932.9122005784347493
 20
325.9798153392658264
 30
0.0
 40
0.0157480314999992
 50
149.0991995562449119
 51
246.4274572177401126
  0
ARC
  5
1F596
  8
0
 10
4932.949935523424756
 20
325.8672535823918111
 30
0.0
 40
0.0157480315005809
 50
150.4532716627961975
 51
249.0542799381339023
  0
ARC
  5
1F597
  8
0
 10
4932.9483837328825757
 20
325.8867850305231855
 30
0.0
 40
0.0157480315000016
 50
143.5169232470404097
 51
248.7215428266814001
  0
ARC
  5
1F598
  8
0
 10
4932.9494817641643749
 20
325.9065312024246168
 30
0.0
 40
0.0157480315000019
 50
134.8679756059908073
 51
233.0051034251733029
  0
ARC
  5
1F599
  8
0
 10
4932.9596373357699122
 20
325.8953994894837933
 30
0.0
 40
0.0196850394000031
 50
144.6845733183114078
 51
247.6577632829913114
  0
ARC
  5
1F59A
  8
0
 10
4932.9072554263557322
 20
325.9869975458818203
 30
0.0
 40
0.0157480314999999
 50
157.8707468377623115
 51
230.6214216283717917
  0
ARC
  5
1F59B
  8
0
 10
4932.9079178006395523
 20
325.9783444623038804
 30
0.0
 40
0.0157480314999969
 50
168.3831818528437907
 51
233.3371825763161951
  0
ARC
  5
1F59C
  8
0
 10
4932.905900289553756
 20
325.9821872916244843
 30
0.0
 40
0.0157480314999999
 50
155.1367677076316056
 51
215.6204873683682877
  0
ARC
  5
1F59D
  8
0
 10
4932.9090310599585791
 20
325.9686264351551017
 30
0.0
 40
0.0157480314999965
 50
168.4417915585744936
 51
228.7114101661408938
  0
ARC
  5
1F59E
  8
0
 10
4932.9141480716361912
 20
325.9638160945082177
 30
0.0
 40
0.0157480314999962
 50
156.1613029126878871
 51
233.7958877906118005
  0
ARC
  5
1F59F
  8
0
 10
4932.9193645890845801
 20
325.9572094864726068
 30
0.0
 40
0.0157480315000067
 50
148.4563826028278868
 51
250.424206204792597
  0
ARC
  5
1F5A0
  8
0
 10
4932.9323227483091614
 20
325.9316045651788727
 30
0.0
 40
0.0157480314999963
 50
143.2816256026075052
 51
248.5438694030817999
  0
ARC
  5
1F5A1
  8
0
 10
4932.9383469364493067
 20
325.9302591721158251
 30
0.0
 40
0.0157480315000007
 50
140.8630838968526007
 51
248.9771930689302906
  0
ARC
  5
1F5A2
  8
0
 10
4932.944115396889174
 20
325.929775492804481
 30
0.0
 40
0.0157480314999964
 50
151.2474045433071126
 51
242.2371716583807881
  0
ARC
  5
1F5A3
  8
0
 10
4932.9212088124004367
 20
325.9407963911828006
 30
0.0
 40
0.0157480314999988
 50
154.7834993107057073
 51
237.1910040212858917
  0
ARC
  5
1F5A4
  8
0
 10
4932.9267354961839374
 20
325.9346546945399723
 30
0.0
 40
0.0157480314999986
 50
149.2129673629771958
 51
247.4912721363072023
  0
ARC
  5
1F5A5
  8
0
 10
4932.9140308735622966
 20
325.952668260675523
 30
0.0
 40
0.0159344160268061
 50
157.9012138429374943
 51
237.816684707670305
  0
ARC
  5
1F5A6
  8
0
 10
4932.9100866321859939
 20
325.9640542495188811
 30
0.0
 40
0.0157480315000162
 50
184.4318675978616966
 51
220.6387585146896981
  0
ARC
  5
1F5A7
  8
0
 10
4932.9182329939339979
 20
325.933664451426921
 30
0.0
 40
0.0157480314999983
 50
155.0010265952425925
 51
215.7287820001461967
  0
ARC
  5
1F5A8
  8
0
 10
4932.9215632243549408
 20
325.9250236640507978
 30
0.0
 40
0.0157480315000015
 50
164.0789615313568959
 51
240.5447514567885037
  0
ARC
  5
1F5A9
  8
0
 10
4932.9222008366514274
 20
325.929095295097909
 30
0.0
 40
0.0157835119237035
 50
162.8202746148724032
 51
233.2576867298818968
  0
ARC
  5
1F5AA
  8
0
 10
4932.9284396784596538
 20
325.9179009558010875
 30
0.0
 40
0.0157480315000004
 50
153.4861788873272133
 51
240.6018169761726142
  0
ARC
  5
1F5AB
  8
0
 10
4932.9342946294591457
 20
325.9121457665748949
 30
0.0
 40
0.0157480315000019
 50
147.3985813923756893
 51
248.7100351610787925
  0
ARC
  5
1F5AC
  8
0
 10
4932.940257539355116
 20
325.9091735368888862
 30
0.0
 40
0.0157480314999986
 50
142.9395332142624113
 51
249.0802416878298118
  0
ARC
  5
1F5AD
  8
0
 10
4932.9463722234304441
 20
325.9077489691397886
 30
0.0
 40
0.0157480314999972
 50
141.18161815253481
 51
246.3797336796166064
  0
ARC
  5
1F5AE
  8
0
 10
4932.9204852196353386
 20
325.9218465502435151
 30
0.0
 40
0.0152631966745267
 50
163.3724605831592953
 51
238.2046032808258929
  0
ARC
  5
1F5AF
  8
0
 10
4932.9217873673051145
 20
325.918268768919404
 30
0.0
 40
0.0157480314999718
 50
185.7425786914832031
 51
229.4078848352343982
  0
ARC
  5
1F5B0
  8
0
 10
4932.926790624833302
 20
325.9023813050042122
 30
0.0
 40
0.015748031500007
 50
144.230519496139209
 51
221.3400373284468117
  0
ARC
  5
1F5B1
  8
0
 10
4932.9291553960829333
 20
325.89881223074849
 30
0.0
 40
0.0157480314999959
 50
165.8621016003334887
 51
240.6813582085202086
  0
ARC
  5
1F5B2
  8
0
 10
4932.9294238534721444
 20
325.9052131389847773
 30
0.0
 40
0.015748031500005
 50
160.6039652706242862
 51
234.8789643443656985
  0
ARC
  5
1F5B3
  8
0
 10
4932.9358647720609952
 20
325.8951114563406009
 30
0.0
 40
0.0157480315000027
 50
152.3692673811661962
 51
243.362633839214908
  0
ARC
  5
1F5B4
  8
0
 10
4932.9417227467183693
 20
325.8894340915626913
 30
0.0
 40
0.0154088853202029
 50
145.5657999675013059
 51
258.9603933480977958
  0
ARC
  5
1F5B5
  8
0
 10
4932.9434686837776098
 20
325.872408571634594
 30
0.0
 40
0.0157480315000042
 50
151.5917505930449067
 51
246.6630581646423934
  0
ARC
  5
1F5B6
  8
0
 10
4932.944362735895993
 20
325.858302731019819
 30
0.0
 40
0.0157480314999971
 50
156.9625544034454094
 51
239.1039388228452083
  0
ARC
  5
1F5B7
  8
0
 10
4932.9368113600366996
 20
325.881639219034696
 30
0.0
 40
0.0157480315005829
 50
158.6278111406583093
 51
236.9826072330536135
  0
ARC
  5
1F5B8
  8
0
 10
4932.9355029652851954
 20
325.8737172398707003
 30
0.0
 40
0.0162888923138164
 50
152.3991800018033871
 51
245.0350855543156001
  0
ARC
  5
1F5B9
  8
0
 10
4932.9305956300104299
 20
325.8859000168837952
 30
0.0
 40
0.0157480314999924
 50
162.0021880061817114
 51
223.9715878720977003
  0
ARC
  5
1F5BA
  8
0
 10
4932.9328923758021119
 20
325.8718008532206909
 30
0.0
 40
0.0146934213417412
 50
187.1627067971191991
 51
238.1494157226682944
  0
ARC
  5
1F5BB
  8
0
 10
4932.9330718934797915
 20
325.8759069614691271
 30
0.0
 40
0.015911931945828
 50
174.0803974286095013
 51
227.2011106896179058
  0
ARC
  5
1F5BC
  8
0
 10
4932.9396726832219429
 20
325.8532568552566886
 30
0.0
 40
0.0157480314999985
 50
151.978366237561886
 51
220.0091880322059126
  0
ARC
  5
1F5BD
  8
0
 10
4932.9430995303027885
 20
325.845977274743916
 30
0.0
 40
0.0157480315000035
 50
150.9831583238980102
 51
246.1585996541074906
  0
ARC
  5
1F5BE
  8
0
 10
4932.9443990099180155
 20
325.84877349663941
 30
0.0
 40
0.0157480314999953
 50
162.6069510786875014
 51
239.1468969324172065
  0
ARC
  5
1F5BF
  8
0
 10
4932.9474383085171212
 20
325.8229011456505759
 30
0.0
 40
0.0149506560350945
 50
142.0233145032786126
 51
229.5167570958365957
  0
ARC
  5
1F5C0
  8
0
 10
4932.9503863239769998
 20
325.8196372144028032
 30
0.0
 40
0.0150287760315332
 50
158.2473550135350138
 51
249.3679316280488933
  0
ARC
  5
1F5C1
  8
0
 10
4932.9457731771617546
 20
325.8268327129447925
 30
0.0
 40
0.0157480314999575
 50
187.4561563697309055
 51
221.4711519540427105
  0
ARC
  5
1F5C2
  8
0
 10
4932.9450887065986535
 20
325.829797480674813
 30
0.0
 40
0.0157480315000064
 50
176.2370015406860091
 51
218.5687450881752056
  0
ARC
  5
1F5C3
  8
0
 10
4932.9430452760097978
 20
325.8386485509677186
 30
0.0
 40
0.0157480314999979
 50
166.1201561392350072
 51
230.1015373920944
  0
ARC
  5
1F5C4
  8
0
 10
4932.9521609670928228
 20
325.8245248807352255
 30
0.0
 40
0.0157480315000065
 50
160.7716989776193088
 51
239.6407436460241911
  0
ARC
  5
1F5C5
  8
0
 10
4932.9599036750487357
 20
325.8121384464454877
 30
0.0
 40
0.0157480315000024
 50
154.1162394443327059
 51
244.4941754185419995
  0
ARC
  5
1F5C6
  8
0
 10
4932.9673305752730812
 20
325.804717239837089
 30
0.0
 40
0.0157480314999997
 50
150.4754940303076012
 51
248.9642879423207944
  0
ARC
  5
1F5C7
  8
0
 10
4932.9753546997517333
 20
325.7822120722105979
 30
0.0
 40
0.0157480314999981
 50
149.3926067593322102
 51
229.9053713327382127
  0
ARC
  5
1F5C8
  8
0
 10
4932.9679414782922322
 20
325.789261223312792
 30
0.0
 40
0.0157480315000027
 50
152.849775955891289
 51
245.3950352950847105
  0
ARC
  5
1F5C9
  8
0
 10
4932.9600413101843515
 20
325.8006246402059105
 30
0.0
 40
0.0157480314999987
 50
159.2410126774321952
 51
240.8745803922062976
  0
ARC
  5
1F5CA
  8
0
 10
4932.9591966788902937
 20
325.7940498648388825
 30
0.0
 40
0.0157480315000007
 50
160.5299879645700116
 51
244.9171162349651922
  0
ARC
  5
1F5CB
  8
0
 10
4932.9569381761648401
 20
325.7944604005738256
 30
0.0
 40
0.0157480314999995
 50
140.6218576551040087
 51
253.4428748233079887
  0
ARC
  5
1F5CC
  8
0
 10
4932.9525881494737405
 20
325.8048775497413203
 30
0.0
 40
0.0157480314999948
 50
157.0919429536550922
 51
223.6679892885975107
  0
ARC
  5
1F5CD
  8
0
 10
4932.9556153808007366
 20
325.7917651702841795
 30
0.0
 40
0.0157480314999912
 50
167.70563645888069
 51
236.3047487039854104
  0
ARC
  5
1F5CE
  8
0
 10
4932.9617689335173054
 20
325.7735360916515219
 30
0.0
 40
0.015748031500007
 50
150.0138259751207102
 51
223.1520309912932021
  0
ARC
  5
1F5CF
  8
0
 10
4932.9644740736875974
 20
325.7842669205065818
 30
0.0
 40
0.0227855992394045
 50
179.6327410406730962
 51
217.163456236582789
  0
ARC
  5
1F5D0
  8
0
 10
4932.9654132238629245
 20
325.7671230502721755
 30
0.0
 40
0.0157480314999967
 50
146.3044785544554998
 51
251.7982560886819101
  0
ARC
  5
1F5D1
  8
0
 10
4932.9673266743930071
 20
325.7690682609089095
 30
0.0
 40
0.0157480315000043
 50
160.3862667271035889
 51
244.2430568897754881
  0
ARC
  5
1F5D2
  8
0
 10
4932.9761776948607803
 20
325.7535862499580048
 30
0.0
 40
0.0157480314999982
 50
155.9104250196052988
 51
242.8595547777063928
  0
ARC
  5
1F5D3
  8
0
 10
4932.9887092921062504
 20
325.736618111584221
 30
0.0
 40
0.0157480315000014
 50
153.3712926285222977
 51
251.0689425869558136
  0
ARC
  5
1F5D4
  8
0
 10
4932.9861404377488725
 20
325.7449283971026261
 30
0.0
 40
0.0179636747162432
 50
156.7388097934068014
 51
225.9359169430589134
  0
ARC
  5
1F5D5
  8
0
 10
4932.975511326173546
 20
325.7445342821708891
 30
0.0
 40
0.0157480314999926
 50
159.040827003120711
 51
244.5670550505431891
  0
ARC
  5
1F5D6
  8
0
 10
4932.9919039422184142
 20
325.7208857214906175
 30
0.0
 40
0.0153859137359783
 50
161.5531684204399028
 51
238.7782872234039075
  0
ARC
  5
1F5D7
  8
0
 10
4932.9844962081770063
 20
325.7303647150645247
 30
0.0
 40
0.0157480315
 50
155.8891484472077025
 51
242.3197829525381906
  0
ARC
  5
1F5D8
  8
0
 10
4932.9707605500216232
 20
325.743961236030998
 30
0.0
 40
0.0157480314999998
 50
143.9981016467158099
 51
231.9376092086691017
  0
ARC
  5
1F5D9
  8
0
 10
4932.9738598895200994
 20
325.7406969759331901
 30
0.0
 40
0.0157320397785601
 50
149.3062018317517925
 51
252.139943286418486
  0
ARC
  5
1F5DA
  8
0
 10
4932.9655753041251955
 20
325.757048889202224
 30
0.0
 40
0.0157480315000098
 50
162.2650996896001061
 51
228.1618215067013011
  0
ARC
  5
1F5DB
  8
0
 10
4932.9674990445528238
 20
325.7447287638951252
 30
0.0
 40
0.014965128181448
 50
168.253685930077296
 51
246.0948444608893908
  0
ARC
  5
1F5DC
  8
0
 10
4932.9751600489598786
 20
325.7247309050637227
 30
0.0
 40
0.0157078753159705
 50
155.3693149976498091
 51
222.5162716778706056
  0
ARC
  5
1F5DD
  8
0
 10
4932.9733081181138914
 20
325.7373257994943856
 30
0.0
 40
0.0189969214584254
 50
179.0221031658203117
 51
223.188902473963708
  0
ARC
  5
1F5DE
  8
0
 10
4932.9838458841268221
 20
325.72037167316671
 30
0.0
 40
0.0157480315000068
 50
157.7375652324626003
 51
244.0311164551386867
  0
ARC
  5
1F5DF
  8
0
 10
4932.9926651434552696
 20
325.7072323029441918
 30
0.0
 40
0.0157480314967553
 50
155.7816115357547915
 51
227.793511609550194
  0
ARC
  5
1F5E0
  8
0
 10
4932.9796470127066641
 20
325.7157030127497137
 30
0.0
 40
0.015748031500002
 50
138.4318722688788057
 51
260.3412154661925229
  0
ARC
  5
1F5E1
  8
0
 10
4932.9823387412789089
 20
325.7149614983644028
 30
0.0
 40
0.0157480314999995
 50
154.1619061231114927
 51
249.5125314537054066
  0
ARC
  5
1F5E2
  8
0
 10
4932.9786826769732215
 20
325.7096467342843198
 30
0.0
 40
0.015748031499999
 50
159.725059321920611
 51
232.5888901178720971
  0
ARC
  5
1F5E3
  8
0
 10
4932.9845978263929283
 20
325.6942586827187824
 30
0.0
 40
0.0157480314999997
 50
148.6718501179373959
 51
226.4050121794334984
  0
ARC
  5
1F5E4
  8
0
 10
4932.9884604927328837
 20
325.6884452796404048
 30
0.0
 40
0.0157480314999997
 50
137.9109976554827028
 51
256.8273435691705231
  0
ARC
  5
1F5E5
  8
0
 10
4932.9925745835416819
 20
325.6965119486059166
 30
0.0
 40
0.0159956113574262
 50
158.5367600840590967
 51
242.4457434801039994
  0
ARC
  5
1F5E6
  8
0
 10
4932.9909069707837261
 20
325.6897867466706202
 30
0.0
 40
0.0157480314999974
 50
155.47193927467751
 51
261.7162080438909015
  0
ARC
  5
1F5E7
  8
0
 10
4932.9811936934320329
 20
325.698770327072225
 30
0.0
 40
0.0157480315000031
 50
172.242746597836998
 51
227.3727894814140029
  0
ARC
  5
1F5E8
  8
0
 10
4932.9827084360440494
 20
325.6922092559931912
 30
0.0
 40
0.0157480314999966
 50
180.6552445525124142
 51
233.1147130849801954
  0
ARC
  5
1F5E9
  8
0
 10
4932.983214708997366
 20
325.6900163469102267
 30
0.0
 40
0.0157480315000052
 50
188.9023644057016043
 51
229.6539960481302955
  0
ARC
  5
1F5EA
  8
0
 10
4932.988695445292251
 20
325.6765099453207881
 30
0.0
 40
0.0157480314999971
 50
158.8547383266034956
 51
227.6913663743416976
  0
ARC
  5
1F5EB
  8
0
 10
4932.9995743104827852
 20
325.6650542787231188
 30
0.0
 40
0.0157480315000017
 50
157.9503026673635873
 51
246.0925889636820045
  0
ARC
  5
1F5EC
  8
0
 10
4933.0006497212370959
 20
325.6728186611063052
 30
0.0
 40
0.0157807072626886
 50
171.4298502538979108
 51
230.0192946699945082
  0
ARC
  5
1F5ED
  8
0
 10
4932.9938406556948394
 20
325.6651412335803002
 30
0.0
 40
0.0157480314999994
 50
143.5916656063500909
 51
236.4310136932647879
  0
ARC
  5
1F5EE
  8
0
 10
4932.9973249731037868
 20
325.6619873244691803
 30
0.0
 40
0.0157480314999991
 50
142.029258213419098
 51
255.5479679591030049
  0
ARC
  5
1F5EF
  8
0
 10
4932.9919118784755483
 20
325.662578042592088
 30
0.0
 40
0.0157480315000062
 50
166.0011114448005003
 51
236.7456190455206126
  0
ARC
  5
1F5F0
  8
0
 10
4932.9984476572044514
 20
325.6451861176997795
 30
0.0
 40
0.0157480314999991
 50
152.4402590633289947
 51
225.4999773248800921
  0
ARC
  5
1F5F1
  8
0
 10
4933.0022544615621882
 20
325.6286970364701006
 30
0.0
 40
0.0157480315000001
 50
158.909497581530303
 51
230.9237775339269092
  0
ARC
  5
1F5F2
  8
0
 10
4933.0086683874933442
 20
325.6155905791719078
 30
0.0
 40
0.0163644949913899
 50
149.6147145571503927
 51
229.5924996826377082
  0
ARC
  5
1F5F3
  8
0
 10
4933.0052387289242688
 20
325.6157707543874835
 30
0.0
 40
0.015748031499997
 50
168.0893180779841032
 51
240.9889429189649945
  0
ARC
  5
1F5F4
  8
0
 10
4933.0124107950086909
 20
325.5966434508652014
 30
0.0
 40
0.0157480315000044
 50
155.4997825344005093
 51
228.8627995701521058
  0
ARC
  5
1F5F5
  8
0
 10
4933.0091059029246026
 20
325.5990201835098219
 30
0.0
 40
0.015748031500008
 50
191.0623413760183098
 51
238.3167670300188945
  0
ARC
  5
1F5F6
  8
0
 10
4933.0086745309336038
 20
325.6008886608796047
 30
0.0
 40
0.0157480315000145
 50
182.4964421843845912
 51
231.6951546344020869
  0
ARC
  5
1F5F7
  8
0
 10
4933.0073829464263326
 20
325.6064831280129965
 30
0.0
 40
0.0157480315000071
 50
175.3838383643810914
 51
227.6041848505848861
  0
ARC
  5
1F5F8
  8
0
 10
4933.0164540293972095
 20
325.616442451405419
 30
0.0
 40
0.0157480315000031
 50
176.2825149999316068
 51
246.2225447626495054
  0
ARC
  5
1F5F9
  8
0
 10
4933.0149324507738129
 20
325.6107819985497827
 30
0.0
 40
0.0157480315000024
 50
154.6356266468029901
 51
240.818583024831895
  0
ARC
  5
1F5FA
  8
0
 10
4933.0080442446023881
 20
325.6406180973892788
 30
0.0
 40
0.0157480315000014
 50
158.0537403676057977
 51
234.3908356308440091
  0
ARC
  5
1F5FB
  8
0
 10
4933.0062448621802105
 20
325.6361609449886032
 30
0.0
 40
0.0157480315000018
 50
149.2374431679662905
 51
242.4928556014494916
  0
ARC
  5
1F5FC
  8
0
 10
4932.9960853042148301
 20
325.6445009496925991
 30
0.0
 40
0.0157480315000024
 50
189.2301684814758005
 51
233.9152191283777995
  0
ARC
  5
1F5FD
  8
0
 10
4932.995619471252212
 20
325.6465186939306022
 30
0.0
 40
0.0157480314999915
 50
181.6503166034227092
 51
237.5613630649444019
  0
ARC
  5
1F5FE
  8
0
 10
4932.9942251544780447
 20
325.6525581434007108
 30
0.0
 40
0.0157480315000108
 50
173.9435248517399941
 51
225.4515839385456957
  0
ARC
  5
1F5FF
  8
0
 10
4932.8920741818028546
 20
326.2427345073713241
 30
0.0
 40
0.0236220471999996
 50
139.8782706801131894
 51
246.1191225779732008
  0
ARC
  5
1F600
  8
0
 10
4932.8841871180939052
 20
326.2407363067936785
 30
0.0
 40
0.0199609959797193
 50
120.920903521419504
 51
264.8605229794517868
  0
ARC
  5
1F601
  8
0
 10
4932.8728848167656906
 20
326.2383090320262227
 30
0.0
 40
0.0157480314999989
 50
128.446644802423009
 51
257.5728568894795103
  0
ARC
  5
1F602
  8
0
 10
4932.8701995449464448
 20
326.2376890881781719
 30
0.0
 40
0.0157480315000016
 50
133.5969327662608919
 51
252.4232837394424962
  0
ARC
  5
1F603
  8
0
 10
4932.8647073559995988
 20
326.2364173332887276
 30
0.0
 40
0.0157480315000005
 50
133.3894499453087121
 51
252.6105511599519957
  0
ARC
  5
1F604
  8
0
 10
4932.8596976569651815
 20
326.2352607531337867
 30
0.0
 40
0.0157480314999991
 50
134.4002526772335102
 51
251.5997484444087036
  0
ARC
  5
1F605
  8
0
 10
4932.8554076988521047
 20
326.2342748544493247
 30
0.0
 40
0.0157564995016277
 50
135.1880547467121971
 51
250.8367836429758881
  0
ARC
  5
1F606
  8
0
 10
4932.8518959654002174
 20
326.2334595907141193
 30
0.0
 40
0.0157480315000011
 50
135.9244627713578097
 51
250.0755383873813003
  0
ARC
  5
1F607
  8
0
 10
4932.8491653732899067
 20
326.2328291838524024
 30
0.0
 40
0.0157480314995871
 50
136.6143191035791062
 51
249.3856820773686991
  0
ARC
  5
1F608
  8
0
 10
4932.8472149504241315
 20
326.232378893253383
 30
0.0
 40
0.0157480315000011
 50
137.005738231083086
 51
248.9942629829749876
  0
ARC
  5
1F609
  8
0
 10
4932.8460449208077989
 20
326.2321087706326921
 30
0.0
 40
0.0157480315000005
 50
137.087418739749296
 51
248.9125825764828903
  0
ARC
  5
1F60A
  8
0
 10
4932.8456546113502554
 20
326.2320186605941217
 30
0.0
 40
0.0157480315000008
 50
136.2048905259620142
 51
249.7951107775909918
  0
LINE
  5
1F60B
  8
0
 10
4933.1829477360806777
 20
327.3262781496223965
 30
0.0
 11
4933.271022582211117
 21
327.3482376752315872
 31
0.0
  0
LINE
  5
1F60C
  8
0
 10
4933.2504481422511162
 20
327.4889438891028135
 30
0.0
 11
4933.7604803807507778
 21
325.2797515528528152
 31
0.0
  0
ARC
  5
1F60D
  8
0
 10
4933.2888091679560603
 20
327.4978002303167273
 30
0.0
 40
0.0393700783943794
 50
130.7911948550423062
 51
193.0000008505859057
  0
ARC
  5
1F60E
  8
0
 10
4933.2681842969268473
 20
327.3596864912275919
 30
0.0
 40
0.0117953911688314
 50
283.9235267520999741
 51
13.4607678947679208
  0
LINE
  5
1F60F
  8
0
 10
4933.6285034533320868
 20
325.3963643208895746
 30
0.0
 11
4933.7172910230401612
 21
325.4152367015396976
 31
0.0
  0
ARC
  5
1F610
  8
0
 10
4933.7988414095216285
 20
325.2886078936778063
 30
0.0
 40
0.0393700783943794
 50
192.9999992951100865
 51
255.2088052906482005
  0
ARC
  5
1F611
  8
0
 10
4933.7197588197514051
 20
325.4037023515166993
 30
0.0
 40
0.0117953911688314
 50
12.5392322509253091
 51
102.0764733935965012
  0
LINE
  5
1F612
  8
0
 10
4935.1901280223592039
 20
327.8537387144575064
 30
0.0
 11
4935.1611806901164528
 21
327.8506798081365901
 31
0.0
  0
LINE
  5
1F613
  8
0
 10
4935.7013329529299881
 20
327.1739707957074188
 30
0.0
 11
4935.8252517552409699
 21
326.6372194929978718
 31
0.0
  0
LINE
  5
1F614
  8
0
 10
4935.6913367868119167
 20
327.1797737852220962
 30
0.0
 11
4935.6269478057511151
 21
327.3987489906028259
 31
0.0
  0
ARC
  5
1F615
  8
0
 10
4931.4854870198178105
 20
326.1124104239081021
 30
0.0
 40
4.3366305864837162
 50
17.2548050192450297
 51
20.2779904889568385
  0
ARC
  5
1F616
  8
0
 10
4935.2318026714237931
 20
327.5157346160219163
 30
0.0
 40
0.3366259117164376
 50
17.2181863255941998
 51
48.0331369532168679
  0
ARC
  5
1F617
  8
0
 10
4935.2241046360168184
 20
327.5075215531238086
 30
0.0
 40
0.3478803430456391
 50
47.9949838745035606
 51
95.6048721986638128
  0
LINE
  5
1F618
  8
0
 10
4935.6913367868119167
 20
327.1797737852220962
 30
0.0
 11
4935.818805307500952
 21
326.6276469556028133
 31
0.0
  0
ARC
  5
1F619
  8
0
 10
4935.6936353626906566
 20
327.1721936330563949
 30
0.0
 40
0.0079000761128169
 50
13.0002396751396194
 51
102.5119809508353939
  0
ARC
  5
1F61A
  8
0
 10
4935.5436361773590761
 20
326.1271329469362854
 30
0.0
 40
0.3464477246950262
 50
338.0756281196063924
 51
6.2419542973184869
  0
ARC
  5
1F61B
  8
0
 10
4935.5434607108072669
 20
326.1272896341147884
 30
0.0
 40
0.3466690145020421
 50
295.0105012093071082
 51
338.0624327078515989
  0
LINE
  5
1F61C
  8
0
 10
4935.818805307500952
 20
326.6276469556028133
 30
0.0
 11
4935.8569253449495591
 21
326.4026070799616832
 31
0.0
  0
ARC
  5
1F61D
  8
0
 10
4928.8083880635977039
 20
325.3597281976914246
 30
0.0
 40
7.1252700282634001
 50
6.4876142965471253
 51
8.4089759990712594
  0
LINE
  5
1F61E
  8
0
 10
4935.8193909652509319
 20
326.6277853993527742
 30
0.0
 11
4935.818805307500952
 21
326.6276469556028133
 31
0.0
  0
ARC
  5
1F61F
  8
0
 10
4935.8175795504848793
 20
326.6354482247763258
 30
0.0
 40
0.0078740152989483
 50
283.2999971314055188
 51
13.0000013302454906
  0
LINE
  5
1F620
  8
0
 10
4935.6919238605169085
 20
327.1799060879644117
 30
0.0
 11
4935.6913367867991838
 21
327.179773785265013
 31
0.0
  0
ENDSEC
  0
EOF
