  0
SECTION
  2
HEADER
  9
$ACADVER
  1
AC1009
  9
$INSBASE
 10
4592.480125252362086
 20
456.8038792686720058
 30
0.0
  9
$EXTMIN
 10
4557.2771112191421707
 20
436.5737625645815001
 30
0.0
  9
$EXTMAX
 10
4603.3335068814812985
 20
461.9016998873191255
 30
0.0
  9
$LIMMIN
 10
0.0
 20
0.0
  9
$LIMMAX
 10
11.6929133858000007
 20
8.2677165353999982
  9
$ORTHOMODE
 70
     0
  9
$REGENMODE
 70
     1
  9
$FILLMODE
 70
     1
  9
$QTEXTMODE
 70
     0
  9
$MIRRTEXT
 70
     0
  9
$DRAGMODE
 70
     2
  9
$LTSCALE
 40
0.6431102362
  9
$OSMODE
 70
  2039
  9
$ATTMODE
 70
     1
  9
$TEXTSIZE
 40
0.2
  9
$TRACEWID
 40
0.05
  9
$TEXTSTYLE
  7
STANDARD
  9
$CLAYER
  8
0
  9
$CELTYPE
  6
BYLAYER
  9
$CECOLOR
 62
   256
  9
$DIMSCALE
 40
1.0
  9
$DIMASZ
 40
0.1875
  9
$DIMEXO
 40
0.0625
  9
$DIMDLI
 40
0.4443307087
  9
$DIMRND
 40
0.0
  9
$DIMDLE
 40
0.0
  9
$DIMEXE
 40
0.125
  9
$DIMTP
 40
0.01
  9
$DIMTM
 40
0.01
  9
$DIMTXT
 40
2.0
  9
$DIMCEN
 40
0.1052362205
  9
$DIMTSZ
 40
0.0
  9
$DIMTOL
 70
     1
  9
$DIMLIM
 70
     0
  9
$DIMTIH
 70
     1
  9
$DIMTOH
 70
     1
  9
$DIMSE1
 70
     0
  9
$DIMSE2
 70
     0
  9
$DIMTAD
 70
     0
  9
$DIMZIN
 70
     0
  9
$DIMBLK
  1

  9
$DIMASO
 70
     1
  9
$DIMSHO
 70
     1
  9
$DIMPOST
  1
\X
  9
$DIMAPOST
  1

  9
$DIMALT
 70
     1
  9
$DIMALTD
 70
     2
  9
$DIMALTF
 40
25.3999999999999986
  9
$DIMLFAC
 40
1.0
  9
$DIMTOFL
 70
     0
  9
$DIMTVP
 40
0.0
  9
$DIMTIX
 70
     0
  9
$DIMSOXD
 70
     0
  9
$DIMSAH
 70
     0
  9
$DIMBLK1
  1

  9
$DIMBLK2
  1

  9
$DIMSTYLE
  2
STANDARD
  9
$DIMCLRD
 70
     0
  9
$DIMCLRE
 70
     0
  9
$DIMCLRT
 70
     0
  9
$DIMTFAC
 40
1.0
  9
$DIMGAP
 40
0.09
  9
$LUNITS
 70
     2
  9
$LUPREC
 70
     4
  9
$SKETCHINC
 40
0.1
  9
$FILLETRAD
 40
0.0
  9
$AUNITS
 70
     0
  9
$AUPREC
 70
     0
  9
$MENU
  1
.
  9
$ELEVATION
 40
0.0
  9
$PELEVATION
 40
0.0
  9
$THICKNESS
 40
0.0
  9
$LIMCHECK
 70
     0
  9
$BLIPMODE
 70
     0
  9
$CHAMFERA
 40
0.0
  9
$CHAMFERB
 40
0.0
  9
$SKPOLY
 70
     0
  9
$TDCREATE
 40
2458060.468368056230247
  9
$TDUPDATE
 40
2459667.5756365740671754
  9
$TDINDWG
 40
1.5379194443999999
  9
$TDUSRTIMER
 40
1.5379194443999999
  9
$USRTIMER
 70
     1
  9
$ANGBASE
 50
0.0
  9
$ANGDIR
 70
     0
  9
$PDMODE
 70
     0
  9
$PDSIZE
 40
0.3125
  9
$PLINEWID
 40
0.0
  9
$COORDS
 70
     1
  9
$SPLFRAME
 70
     0
  9
$SPLINETYPE
 70
     6
  9
$SPLINESEGS
 70
     8
  9
$ATTDIA
 70
     1
  9
$ATTREQ
 70
     1
  9
$HANDLING
 70
     1
  9
$HANDSEED
  5
1E17A
  9
$SURFTAB1
 70
     6
  9
$SURFTAB2
 70
     6
  9
$SURFTYPE
 70
     6
  9
$SURFU
 70
     6
  9
$SURFV
 70
     6
  9
$UCSNAME
  2

  9
$UCSORG
 10
0.0
 20
0.0
 30
0.0
  9
$UCSXDIR
 10
1.0
 20
0.0
 30
0.0
  9
$UCSYDIR
 10
0.0
 20
1.0
 30
0.0
  9
$PUCSNAME
  2

  9
$PUCSORG
 10
0.0
 20
0.0
 30
0.0
  9
$PUCSXDIR
 10
1.0
 20
0.0
 30
0.0
  9
$PUCSYDIR
 10
0.0
 20
1.0
 30
0.0
  9
$USERI1
 70
     0
  9
$USERI2
 70
     0
  9
$USERI3
 70
     0
  9
$USERI4
 70
     0
  9
$USERI5
 70
     0
  9
$USERR1
 40
0.0
  9
$USERR2
 40
0.0
  9
$USERR3
 40
0.0
  9
$USERR4
 40
0.0
  9
$USERR5
 40
0.0
  9
$WORLDVIEW
 70
     1
  9
$SHADEDGE
 70
     3
  9
$SHADEDIF
 70
    70
  9
$TILEMODE
 70
     1
  9
$MAXACTVP
 70
    64
  9
$PLIMCHECK
 70
     0
  9
$PEXTMIN
 10
1.0000000000000000E+20
 20
1.0000000000000000E+20
 30
1.0000000000000000E+20
  9
$PEXTMAX
 10
-1.0000000000000000E+20
 20
-1.0000000000000000E+20
 30
-1.0000000000000000E+20
  9
$PLIMMIN
 10
0.0
 20
0.0
  9
$PLIMMAX
 10
12.0
 20
9.0
  9
$UNITMODE
 70
     0
  9
$VISRETAIN
 70
     1
  9
$PLINEGEN
 70
     0
  9
$PSLTSCALE
 70
     1
  0
ENDSEC
  0
SECTION
  2
TABLES
  0
TABLE
  2
VPORT
 70
     1
  0
VPORT
  2
*ACTIVE
 70
     0
 10
0.0
 20
0.0
 11
1.0
 21
1.0
 12
692.2650855775183345
 22
322.026450177958111
 13
0.0
 23
0.0
 14
1.0
 24
1.0
 15
0.0
 25
0.0
 16
0.0
 26
0.0
 36
60.4960186965801583
 17
3911.3653564453120453
 27
132.5796051025390057
 37
0.0
 40
85.6982649442649063
 41
2.0416666666666661
 42
50.0
 43
0.0
 44
0.0
 50
0.0
 51
0.0
 71
     0
 72
   100
 73
     1
 74
     1
 75
     0
 76
     0
 77
     0
 78
     0
  0
ENDTAB
  0
TABLE
  2
LTYPE
 70
     2
  0
LTYPE
  2
CONTINUOUS
 70
     0
  3
Solid line
 72
    65
 73
     0
 40
0.0
  0
LTYPE
  2
PHANTOM2
 70
     0
  3
___ _ _ ___ _ _ ___ _ _ ___ _ _
 72
    65
 73
     6
 40
1.25
 49
0.625
 49
-0.125
 49
0.125
 49
-0.125
 49
0.125
 49
-0.125
  0
ENDTAB
  0
TABLE
  2
LAYER
 70
     2
  0
LAYER
  2
0
 70
     0
 62
   255
  6
CONTINUOUS
  0
LAYER
  2
DEFPOINTS
 70
     0
 62
     7
  6
CONTINUOUS
  0
ENDTAB
  0
TABLE
  2
STYLE
 70
     1
  0
STYLE
  2
STANDARD
 70
     0
 40
0.0
 41
0.8
 50
0.0
 71
     0
 42
0.2
  3
txt
  4

  0
ENDTAB
  0
TABLE
  2
VIEW
 70
     0
  0
ENDTAB
  0
TABLE
  2
UCS
 70
     0
  0
ENDTAB
  0
TABLE
  2
APPID
 70
    11
  0
APPID
  2
ACAD
 70
     0
  0
APPID
  2
ACAD_MLEADERVER
 70
     0
  0
APPID
  2
ACAD_EXEMPT_FROM_CAD_STANDARDS
 70
     0
  0
APPID
  2
ACAD_NAV_VCDISPLAY
 70
     0
  0
APPID
  2
ACAECLAYERSTANDARD
 70
     0
  0
APPID
  2
ACCMTRANSPARENCY
 70
     0
  0
APPID
  2
ACAD_DSTYLE_DIMJAG
 70
     0
  0
APPID
  2
ACAD_DSTYLE_DIMTALN
 70
     0
  0
APPID
  2
ACDBATTR
 70
     0
  0
APPID
  2
ACADANNOTATIVE
 70
     0
  0
APPID
  2
DCO15
 70
     0
  0
ENDTAB
  0
TABLE
  2
DIMSTYLE
 70
     1
  0
DIMSTYLE
  2
STANDARD
 70
     0
  3

  4

  5

  6

  7

 40
1.0
 41
0.1875
 42
0.0625
 43
0.38
 44
0.125
 45
0.0
 46
0.0
 47
0.01
 48
0.01
140
0.15625
141
0.09
142
0.0
143
25.3999999999999986
144
1.0
145
0.0
146
1.0
147
0.09
 71
     1
 72
     0
 73
     1
 74
     1
 75
     0
 76
     0
 77
     0
 78
     4
170
     0
171
     2
172
     0
173
     0
174
     0
175
     0
176
     0
177
     0
178
     0
  0
ENDTAB
  0
ENDSEC
  0
SECTION
  2
BLOCKS
  0
BLOCK
  8
0
  2
$MODEL_SPACE
 70
     0
 10
0.0
 20
0.0
 30
0.0
  3
$MODEL_SPACE
  1

  0
ENDBLK
  5
21
  8
0
  0
BLOCK
 67
     1
  8
0
  2
$PAPER_SPACE
 70
     0
 10
0.0
 20
0.0
 30
0.0
  3
$PAPER_SPACE
  1

  0
ENDBLK
  5
1D
 67
     1
  8
0
  0
BLOCK
  8
0
  2
_FILLED
 70
     0
 10
0.0
 20
0.0
 30
0.0
  3
_FILLED
  1

  0
SOLID
  5
1B77F
  8
0
  6
BYBLOCK
 62
     0
 10
0.0
 20
0.0
 30
0.0
 11
-1.0
 21
0.1666666667
 31
0.0
 12
-1.0
 22
-0.1666666667
 32
0.0
 13
-1.0
 23
-0.1666666667
 33
0.0
  0
ENDBLK
  5
1B780
  8
0
  6
BYBLOCK
 62
     0
  0
ENDSEC
  0
SECTION
  2
ENTITIES
  0
ATTDEF
  5
159BF
  8
DEFPOINTS
 10
4592.4823624463842862
 20
456.8081056445424224
 30
0.0
 40
0.001
  1
K-28784IN
  3

  2
MODELNUMBER
 70
     0
1001
ACDBATTR
1070
     0
1070
     1
  0
ATTDEF
  5
159C0
  8
DEFPOINTS
 10
4592.4823624463842862
 20
456.8064388041631787
 30
0.0
 40
0.001
  1
VIVE
  3

  2
TRADENAME
 70
     0
1001
ACDBATTR
1070
     0
1070
     1
  0
ATTDEF
  5
159C1
  8
DEFPOINTS
 10
4592.4823624463842862
 20
456.8047723112089784
 30
0.0
 40
0.001
  1
BATHROOM SINK
  3

  2
PRODUCT
 70
     0
1001
ACDBATTR
1070
     0
1070
     1
  0
ARC
  5
1E07D
  8
0
 10
4582.4992126941788229
 20
460.4948315852903988
 30
0.0
 40
0.9155752923912146
 50
200.1085712878171989
 51
209.3535379875629019
  0
ARC
  5
1E07E
  8
0
 10
4581.8243182371697912
 20
459.9598039249625003
 30
0.0
 40
0.3880178112860923
 50
87.8563311516197416
 51
117.9883769640341029
  0
ARC
  5
1E07F
  8
0
 10
4581.7669989813821303
 20
460.2383865956567206
 30
0.0
 40
0.1402553581394798
 50
152.8260692361515112
 51
204.5749977167220095
  0
ARC
  5
1E080
  8
0
 10
4582.9742253486756454
 20
457.1188384181779156
 30
0.0
 40
0.315272669182454
 50
184.280105745944212
 51
267.444576606935982
  0
ARC
  5
1E081
  8
0
 10
4575.1487507519486826
 20
456.2861422082514196
 30
0.0
 40
7.5545411020668309
 50
6.1487443078390154
 51
29.8477913162275783
  0
ARC
  5
1E082
  8
0
 10
4592.3730627163540703
 20
437.9828475787745106
 30
0.0
 40
18.2296300539204488
 50
89.6634986025770928
 51
91.5358274060377255
  0
ARC
  5
1E083
  8
0
 10
4592.1928835097087358
 20
439.7067242291619777
 30
0.0
 40
16.5020868574731416
 50
91.0708787117091987
 51
92.4498888665663543
  0
ARC
  5
1E084
  8
0
 10
4591.375897721291949
 20
458.5906984549678782
 30
0.0
 40
2.3995667577166082
 50
268.8065298925620255
 51
272.6655577672004824
  0
ARC
  5
1E085
  8
0
 10
4591.923736803574684
 20
469.4562833953731911
 30
0.0
 40
13.2780957316179204
 50
266.8194711271696065
 51
267.4195054311653053
  0
ARC
  5
1E086
  8
0
 10
4591.1637503164865848
 20
457.5575727562920747
 30
0.0
 40
1.35913206971581
 50
267.4879201147434173
 51
270.9818046581200974
  0
ARC
  5
1E087
  8
0
 10
4591.6726992006251749
 20
458.6823639439098201
 30
0.0
 40
2.5501857053691892
 50
250.1254895055479039
 51
255.8681283837258889
  0
ARC
  5
1E088
  8
0
 10
4591.1599463881711927
 20
456.671028649915911
 30
0.0
 40
0.4745698224268607
 50
256.611679805885899
 51
263.2515616222290191
  0
ARC
  5
1E089
  8
0
 10
4584.7227515004169618
 20
464.2275271933161775
 30
0.0
 40
10.1329181436815006
 50
301.933774429012999
 51
303.9099353135295019
  0
ARC
  5
1E08A
  8
0
 10
4590.088834000262068
 20
456.3194096363554877
 30
0.0
 40
0.5776655526018957
 50
299.7858983038395877
 51
338.3440599292632101
  0
ARC
  5
1E08B
  8
0
 10
4591.0982514904453637
 20
455.9655655525688758
 30
0.0
 40
0.4930188125018834
 50
145.6069281979222012
 51
163.422168852393014
  0
ARC
  5
1E08C
  8
0
 10
4590.7756475259566287
 20
456.1867272987246906
 30
0.0
 40
0.1018852260240259
 50
72.8240240714585951
 51
145.758901072432991
  0
ARC
  5
1E08D
  8
0
 10
4589.8241149616706025
 20
456.1317654892474138
 30
0.0
 40
0.5660283806330443
 50
262.525859002238974
 51
297.154325309734304
  0
LINE
  5
1E08E
  8
0
 10
4582.9601686749610963
 20
456.8038792686720058
 30
0.0
 11
4602.0000818297621663
 21
456.8038792686720058
 31
0.0
  0
ARC
  5
1E08F
  8
0
 10
4589.6803350478639913
 20
455.3750905934339244
 30
0.0
 40
0.2076636202119821
 50
16.2568175170821192
 51
70.256255658578354
  0
ARC
  5
1E090
  8
0
 10
4590.4089209067824413
 20
454.5115108903167993
 30
0.0
 40
0.3054567489317187
 50
192.4793994251755862
 51
263.8760740462114995
  0
LINE
  5
1E091
  8
0
 10
4589.8796955603620518
 20
455.433224621471993
 30
0.0
 11
4590.1106809509628874
 21
454.4455051767719169
 31
0.0
  0
LINE
  5
1E092
  8
0
 10
4590.873025246162797
 20
453.6033396587826019
 30
0.0
 11
4590.8193027164634259
 21
453.985595319971992
 31
0.0
  0
LINE
  5
1E093
  8
0
 10
4590.9509991098620958
 20
453.535558013171908
 30
0.0
 11
4594.0092513948620763
 21
453.535558013171908
 31
0.0
  0
ARC
  5
1E094
  8
0
 10
4590.9509991098620958
 20
453.6142981706719866
 30
0.0
 40
0.0787401575000001
 50
187.9999999999980957
 51
270.0
  0
ARC
  5
1E095
  8
0
 10
4590.6242509574531141
 20
453.9580822899304735
 30
0.0
 40
0.1969826274439546
 50
8.0288880488252516
 51
79.5486809310489065
  0
LINE
  5
1E096
  8
0
 10
4590.3763349994123928
 20
454.2077972355219799
 30
0.0
 11
4590.6599836148616305
 21
454.1517968549720194
 31
0.0
  0
LINE
  5
1E097
  8
0
 10
4591.0163893735898455
 20
454.7602210954718771
 30
0.0
 11
4593.9396215954493528
 21
454.7602210954718771
 31
0.0
  0
ARC
  5
1E098
  8
0
 10
4591.0807947444127421
 20
452.3512547218055033
 30
0.0
 40
2.4098271807841312
 50
91.5314771953473922
 51
114.3544175935570024
  0
ARC
  5
1E099
  8
0
 10
4590.998188343512993
 20
470.0365361562512021
 30
0.0
 40
14.5196977470693103
 50
255.7343882977864951
 51
265.0703993230882816
  0
ARC
  5
1E09A
  8
0
 10
4589.7187932777751485
 20
465.6685530623839213
 30
0.0
 40
9.9724834387282861
 50
242.7446020829164013
 51
256.674355461310995
  0
LINE
  5
1E09B
  8
0
 10
4594.0872252585622846
 20
453.6033396587826019
 30
0.0
 11
4594.1409477882625652
 21
453.985595319971992
 31
0.0
  0
ARC
  5
1E09C
  8
0
 10
4594.0092513948620763
 20
453.6142981706719866
 30
0.0
 40
0.0787401575000001
 50
270.0
 51
352.000000000001819
  0
ARC
  5
1E09D
  8
0
 10
4594.335999547271058
 20
453.9580822899304735
 30
0.0
 40
0.1969826274439546
 50
100.4513190689510935
 51
171.9711119511746915
  0
LINE
  5
1E09E
  8
0
 10
4581.8388321797119715
 20
460.347550191671985
 30
0.0
 11
4603.1257144864866859
 21
460.347550191671985
 31
0.0
  0
ARC
  5
1E09F
  8
0
 10
4602.4610378105462587
 20
460.4948315852903988
 30
0.0
 40
0.9155752923912146
 50
330.6464620124370981
 51
339.8914287121828011
  0
ARC
  5
1E0A0
  8
0
 10
4603.1366766122537229
 20
459.9617995031035207
 30
0.0
 40
0.3859064160290155
 50
61.9701668333293014
 51
91.6277729870946018
  0
ARC
  5
1E0A1
  8
0
 10
4603.1932515233411323
 20
460.2383865956567206
 30
0.0
 40
0.1402553581394798
 50
335.4250022832779905
 51
27.1739307638485101
  0
ARC
  5
1E0A2
  8
0
 10
4601.9860251560476172
 20
457.1188384181779156
 30
0.0
 40
0.315272669182454
 50
272.555423393064018
 51
355.7198942540558164
  0
ARC
  5
1E0A3
  8
0
 10
4609.811499752776399
 20
456.2861422082514196
 30
0.0
 40
7.5545411020668309
 50
150.1522086837723862
 51
173.8512556921610042
  0
ARC
  5
1E0A4
  8
0
 10
4592.5871877883701018
 20
437.9828475787745106
 30
0.0
 40
18.2296300539204488
 50
88.4641725939622887
 51
90.3365013974229214
  0
ARC
  5
1E0A5
  8
0
 10
4592.7673669950163458
 20
439.7067242291619777
 30
0.0
 40
16.5020868574731416
 50
87.5501111334336599
 51
88.9291212882907871
  0
ARC
  5
1E0A6
  8
0
 10
4593.5843527834322231
 20
458.5906984549678782
 30
0.0
 40
2.3995667577166082
 50
267.3344422327994039
 51
271.1934701074379745
  0
ARC
  5
1E0A7
  8
0
 10
4593.0365137011503975
 20
469.4562833953731911
 30
0.0
 40
13.2780957316179204
 50
272.5804945688348084
 51
273.1805288728303935
  0
ARC
  5
1E0A8
  8
0
 10
4593.7965001882366778
 20
457.5575727562920747
 30
0.0
 40
1.35913206971581
 50
269.0181953418797889
 51
272.5120798852565827
  0
ARC
  5
1E0A9
  8
0
 10
4593.2875513040999067
 20
458.6823639439098201
 30
0.0
 40
2.5501857053691892
 50
284.1318716162741111
 51
289.8745104944520108
  0
ARC
  5
1E0AA
  8
0
 10
4593.8003041165538889
 20
456.671028649915911
 30
0.0
 40
0.4745698224268607
 50
276.7484383777709809
 51
283.3883201941142147
  0
ARC
  5
1E0AB
  8
0
 10
4600.2374990043072103
 20
464.2275271933161775
 30
0.0
 40
10.1329181436815006
 50
236.0900646864704129
 51
238.0662255709868873
  0
ARC
  5
1E0AC
  8
0
 10
4594.8714165044630136
 20
456.3194096363554877
 30
0.0
 40
0.5776655526018957
 50
201.6559400707367899
 51
240.2141016961604123
  0
ARC
  5
1E0AD
  8
0
 10
4593.8619990142778988
 20
455.9655655525688758
 30
0.0
 40
0.4930188125018834
 50
16.5778311476070215
 51
34.3930718020777491
  0
ARC
  5
1E0AE
  8
0
 10
4594.1846029787684529
 20
456.1867272987246906
 30
0.0
 40
0.1018852260240259
 50
34.2410989275669309
 51
107.1759759285414049
  0
ARC
  5
1E0AF
  8
0
 10
4595.1361355430535696
 20
456.1317654892474138
 30
0.0
 40
0.5660283806330443
 50
242.845674690265696
 51
277.474140997761026
  0
ARC
  5
1E0B0
  8
0
 10
4595.2799154568610902
 20
455.3750905934339244
 30
0.0
 40
0.2076636202119821
 50
109.7437443414216034
 51
163.7431824829178879
  0
ARC
  5
1E0B1
  8
0
 10
4594.5513295979417308
 20
454.5115108903167993
 30
0.0
 40
0.3054567489317187
 50
276.1239259537885005
 51
347.5206005748244138
  0
LINE
  5
1E0B2
  8
0
 10
4595.0805549443621203
 20
455.433224621471993
 30
0.0
 11
4594.8495695537621941
 21
454.4455051767719169
 31
0.0
  0
LINE
  5
1E0B3
  8
0
 10
4594.5839155053126888
 20
454.2077972355219799
 30
0.0
 11
4594.3002668898616321
 21
454.1517968549720194
 31
0.0
  0
ARC
  5
1E0B4
  8
0
 10
4593.8794557603123394
 20
452.3512547218055033
 30
0.0
 40
2.4098271807841312
 50
65.6455824064429834
 51
88.4685228046526078
  0
ARC
  5
1E0B5
  8
0
 10
4593.9620621612120885
 20
470.0365361562512021
 30
0.0
 40
14.5196977470693103
 50
274.9296006769117184
 51
284.2656117022135049
  0
ARC
  5
1E0B6
  8
0
 10
4595.2414572269490236
 20
465.6685530623839213
 30
0.0
 40
9.9724834387282861
 50
283.325644538689005
 51
297.2553979170835987
  0
ENDSEC
  0
EOF
