  0
SECTION
  2
HEADER
  9
$ACADVER
  1
AC1009
  9
$INSBASE
 10
433.92896835354111
 20
-6.2596613727101227
 30
0.0
  9
$EXTMIN
 10
424.33953368082121
 20
-12.96592825765884
 30
-0.0000000000000058
  9
$EXTMAX
 10
443.51295106630289
 20
-6.2541347923252948
 30
0.0000000000000104
  9
$LIMMIN
 10
0.0
 20
0.0
  9
$LIMMAX
 10
11.692913385800001
 20
8.2677165353999982
  9
$ORTHOMODE
 70
     0
  9
$REGENMODE
 70
     1
  9
$FILLMODE
 70
     1
  9
$QTEXTMODE
 70
     0
  9
$MIRRTEXT
 70
     0
  9
$DRAGMODE
 70
     2
  9
$LTSCALE
 40
0.6431102362
  9
$OSMODE
 70
  4095
  9
$ATTMODE
 70
     1
  9
$TEXTSIZE
 40
0.2
  9
$TRACEWID
 40
0.05
  9
$TEXTSTYLE
  7
STANDARD
  9
$CLAYER
  8
DEFPOINT
  9
$CELTYPE
  6
BYLAYER
  9
$CECOLOR
 62
   256
  9
$DIMSCALE
 40
1.0
  9
$DIMASZ
 40
0.1875
  9
$DIMEXO
 40
0.0625
  9
$DIMDLI
 40
0.4443307087
  9
$DIMRND
 40
0.0
  9
$DIMDLE
 40
0.0
  9
$DIMEXE
 40
0.125
  9
$DIMTP
 40
0.01
  9
$DIMTM
 40
0.01
  9
$DIMTXT
 40
1.0
  9
$DIMCEN
 40
0.1052362205
  9
$DIMTSZ
 40
0.0
  9
$DIMTOL
 70
     1
  9
$DIMLIM
 70
     0
  9
$DIMTIH
 70
     1
  9
$DIMTOH
 70
     1
  9
$DIMSE1
 70
     0
  9
$DIMSE2
 70
     0
  9
$DIMTAD
 70
     0
  9
$DIMZIN
 70
     0
  9
$DIMBLK
  1

  9
$DIMASO
 70
     1
  9
$DIMSHO
 70
     1
  9
$DIMPOST
  1
\X
  9
$DIMAPOST
  1

  9
$DIMALT
 70
     1
  9
$DIMALTD
 70
     2
  9
$DIMALTF
 40
25.399999999999999
  9
$DIMLFAC
 40
1.0
  9
$DIMTOFL
 70
     0
  9
$DIMTVP
 40
0.0
  9
$DIMTIX
 70
     0
  9
$DIMSOXD
 70
     0
  9
$DIMSAH
 70
     0
  9
$DIMBLK1
  1

  9
$DIMBLK2
  1

  9
$DIMSTYLE
  2
STANDARD
  9
$DIMCLRD
 70
     0
  9
$DIMCLRE
 70
     0
  9
$DIMCLRT
 70
     0
  9
$DIMTFAC
 40
1.0
  9
$DIMGAP
 40
0.09
  9
$LUNITS
 70
     2
  9
$LUPREC
 70
     4
  9
$SKETCHINC
 40
0.1
  9
$FILLETRAD
 40
0.0
  9
$AUNITS
 70
     0
  9
$AUPREC
 70
     0
  9
$MENU
  1
.
  9
$ELEVATION
 40
0.0
  9
$PELEVATION
 40
0.0
  9
$THICKNESS
 40
0.0
  9
$LIMCHECK
 70
     0
  9
$BLIPMODE
 70
     0
  9
$CHAMFERA
 40
0.0
  9
$CHAMFERB
 40
0.0
  9
$SKPOLY
 70
     0
  9
$TDCREATE
 40
2458306.609456806
  9
$TDUPDATE
 40
2458968.5178477429
  9
$TDINDWG
 40
0.0558244792
  9
$TDUSRTIMER
 40
0.0558243519
  9
$USRTIMER
 70
     1
  9
$ANGBASE
 50
0.0
  9
$ANGDIR
 70
     0
  9
$PDMODE
 70
     0
  9
$PDSIZE
 40
0.3125
  9
$PLINEWID
 40
0.0
  9
$COORDS
 70
     1
  9
$SPLFRAME
 70
     0
  9
$SPLINETYPE
 70
     6
  9
$SPLINESEGS
 70
     8
  9
$ATTDIA
 70
     1
  9
$ATTREQ
 70
     1
  9
$HANDLING
 70
     1
  9
$HANDSEED
  5
1A09
  9
$SURFTAB1
 70
     6
  9
$SURFTAB2
 70
     6
  9
$SURFTYPE
 70
     6
  9
$SURFU
 70
     6
  9
$SURFV
 70
     6
  9
$UCSNAME
  2

  9
$UCSORG
 10
0.0
 20
0.0
 30
0.0
  9
$UCSXDIR
 10
1.0
 20
0.0
 30
0.0
  9
$UCSYDIR
 10
0.0
 20
1.0
 30
0.0
  9
$PUCSNAME
  2

  9
$PUCSORG
 10
0.0
 20
0.0
 30
0.0
  9
$PUCSXDIR
 10
1.0
 20
0.0
 30
0.0
  9
$PUCSYDIR
 10
0.0
 20
1.0
 30
0.0
  9
$USERI1
 70
     0
  9
$USERI2
 70
     0
  9
$USERI3
 70
     0
  9
$USERI4
 70
     0
  9
$USERI5
 70
     0
  9
$USERR1
 40
0.0
  9
$USERR2
 40
0.0
  9
$USERR3
 40
0.0
  9
$USERR4
 40
0.0
  9
$USERR5
 40
0.0
  9
$WORLDVIEW
 70
     1
  9
$SHADEDGE
 70
     3
  9
$SHADEDIF
 70
    70
  9
$TILEMODE
 70
     1
  9
$MAXACTVP
 70
    64
  9
$PLIMCHECK
 70
     0
  9
$PEXTMIN
 10
1.0000000000000000E+020
 20
1.0000000000000000E+020
 30
1.0000000000000000E+020
  9
$PEXTMAX
 10
-1.0000000000000000E+020
 20
-1.0000000000000000E+020
 30
-1.0000000000000000E+020
  9
$PLIMMIN
 10
0.0
 20
0.0
  9
$PLIMMAX
 10
12.0
 20
9.0
  9
$UNITMODE
 70
     0
  9
$VISRETAIN
 70
     1
  9
$PLINEGEN
 70
     0
  9
$PSLTSCALE
 70
     1
  0
ENDSEC
  0
SECTION
  2
TABLES
  0
TABLE
  2
VPORT
 70
     1
  0
VPORT
  2
*ACTIVE
 70
     0
 10
0.0
 20
0.0
 11
1.0
 21
1.0
 12
92.318956152701276
 22
-0.6400944310015772
 13
0.0
 23
0.0
 14
1.0
 24
1.0
 15
0.0
 25
0.0
 16
0.0
 26
0.0
 36
57.172164043371602
 17
341.60728622086077
 27
-8.9699370939904934
 37
0.0
 40
7.3197592485440151
 41
2.6311637080867851
 42
50.0
 43
0.0
 44
0.0
 50
0.0
 51
0.0
 71
     0
 72
   100
 73
     1
 74
     1
 75
     0
 76
     0
 77
     0
 78
     0
  0
ENDTAB
  0
TABLE
  2
LTYPE
 70
     2
  0
LTYPE
  2
CONTINUOUS
 70
     0
  3
Solid line
 72
    65
 73
     0
 40
0.0
  0
ENDTAB
  0
TABLE
  2
LAYER
 70
     2
  0
LAYER
  2
0
 70
     0
 62
   255
  6
CONTINUOUS
  0
LAYER
  2
DEFPOINT
 70
     0
 62
     7
  6
CONTINUOUS
  0
ENDTAB
  0
TABLE
  2
STYLE
 70
     2
  0
STYLE
  2
STANDARD
 70
     0
 40
0.0
 41
0.8
 50
0.0
 71
     0
 42
0.2
  3
txt
  4

  0
ENDTAB
  0
TABLE
  2
VIEW
 70
     0
  0
ENDTAB
  0
TABLE
  2
UCS
 70
     0
  0
ENDTAB
  0
TABLE
  2
APPID
 70
    10
  0
APPID
  2
ACAD
 70
     0
  0
APPID
  2
ACADANNOTATIVE
 70
     0
  0
APPID
  2
ACAD_MLEADERVER
 70
     0
  0
APPID
  2
ACAD_EXEMPT_FROM_CAD_STANDARDS
 70
     0
  0
APPID
  2
ACAD_DSTYLE_DIMJAG
 70
     0
  0
APPID
  2
ACAD_DSTYLE_DIMTALN
 70
     0
  0
APPID
  2
ACAD_NAV_VCDISPLAY
 70
     0
  0
APPID
  2
ACAECLAYERSTANDARD
 70
     0
  0
APPID
  2
ACCMTRANSPARENCY
 70
     0
  0
APPID
  2
ACDBATTR
 70
     0
  0
ENDTAB
  0
TABLE
  2
DIMSTYLE
 70
     2
  0
DIMSTYLE
  2
STANDARD
 70
     0
  3

  4

  5

  6

  7

 40
1.0
 41
0.1875
 42
0.0625
 43
0.38
 44
0.125
 45
0.0
 46
0.0
 47
0.01
 48
0.01
140
0.15625
141
0.09
142
0.0
143
25.399999999999999
144
1.0
145
0.0
146
1.0
147
0.09
 71
     1
 72
     0
 73
     1
 74
     1
 75
     0
 76
     0
 77
     0
 78
     4
170
     0
171
     2
172
     0
173
     0
174
     0
175
     0
176
     0
177
     0
178
     0
  0
ENDTAB
  0
ENDSEC
  0
SECTION
  2
BLOCKS
  0
BLOCK
  8
0
  2
$MODEL_SPACE
 70
     0
 10
0.0
 20
0.0
 30
0.0
  3
$MODEL_SPACE
  1

  0
ENDBLK
  5
1598
  8
0
  0
BLOCK
 67
     1
  8
0
  2
$PAPER_SPACE
 70
     0
 10
0.0
 20
0.0
 30
0.0
  3
$PAPER_SPACE
  1

  0
ENDBLK
  5
1594
 67
     1
  8
0
  0
ENDSEC
  0
SECTION
  2
ENTITIES
  0
ATTDEF
  5
659
  8
DEFPOINT
 10
433.92621603286187
 20
-6.2551693730087248
 30
0.0
 40
0.001
  1
K-2881T
  3

  2
MODELNUMBER
 70
     0
1001
ACDBATTR
1070
     0
1070
     1
  0
ATTDEF
  5
65A
  8
DEFPOINT
 10
433.92621603286187
 20
-6.2568360396753899
 30
0.0
 40
0.001
  1
VERTICYL
  3

  2
TRADENAME
 70
     0
1001
ACDBATTR
1070
     0
1070
     1
  0
ATTDEF
  5
65B
  8
DEFPOINT
 10
433.92621603286187
 20
-6.2585027063420551
 30
0.0
 40
0.001
  1
BATHROOM SINK
  3

  2
PRODUCT
 70
     0
1001
ACDBATTR
1070
     0
1070
     1
  0
LINE
  5
1923
  8
0
 10
424.38219234514099
 20
-6.7028015301101229
 30
0.0
 11
424.358968353541
 21
-6.2596613727101227
 31
0.0
  0
LINE
  5
1924
  8
0
 10
425.35345412404098
 20
-10.41657676621012
 30
0.0
 11
424.98039097034109
 21
-6.8671179571101231
 31
0.0
  0
LINE
  5
1925
  8
0
 10
432.57398541304099
 20
-12.85037006681012
 30
0.0
 11
432.46236165204101
 21
-11.574504640410121
 31
0.0
  0
LINE
  5
1926
  8
0
 10
432.69851353819098
 20
-12.96447559901012
 30
0.0
 11
435.15942316889112
 21
-12.96447559901012
 31
0.0
  0
LINE
  5
1927
  8
0
 10
435.283951294041
 20
-12.85037006681012
 30
0.0
 11
435.39557505504098
 21
-11.574504640410121
 31
0.0
  0
LINE
  5
1928
  8
0
 10
436.0206352796589
 20
-11.46319058921012
 30
0.0
 11
441.71304628984097
 21
-11.16762165601012
 31
0.0
  0
LINE
  5
1929
  8
0
 10
431.83730142671152
 20
-11.463190586033241
 30
0.0
 11
426.14489041724102
 21
-11.16762165601012
 31
0.0
  0
LINE
  5
192A
  8
0
 10
424.4421101171381
 20
-6.7596613727101253
 30
0.0
 11
443.415826589944
 21
-6.7596613727101253
 31
0.0
  0
LINE
  5
192B
  8
0
 10
443.49896835354099
 20
-6.2596613727101227
 30
0.0
 11
424.358968353541
 21
-6.2596613727101227
 31
0.0
  0
LINE
  5
192C
  8
0
 10
442.50448258304101
 20
-10.41657676621012
 30
0.0
 11
442.877545736841
 21
-6.8671179571101231
 31
0.0
  0
LINE
  5
192D
  8
0
 10
443.47574436204098
 20
-6.7028015301101229
 30
0.0
 11
443.49896835354099
 21
-6.2596613727101227
 31
0.0
  0
ARC
  5
192E
  8
0
 10
432.69850975044608
 20
-12.839475598958339
 30
0.0
 40
0.1250000001091076
 50
185.00000001944849
 51
270.0017353035247
  0
ARC
  5
192F
  8
0
 10
424.861048342841
 20
-6.879661372710121
 30
0.0
 40
0.1199999999999969
 50
6.0000000037983989
 51
90.0
  0
ARC
  5
1930
  8
0
 10
424.44211011724099
 20
-6.6996613727101231
 30
0.0
 40
0.06
 50
182.99999999999989
 51
269.999999949401
  0
ARC
  5
1931
  8
0
 10
435.15942695673579
 20
-12.83947559895824
 30
0.0
 40
0.1250000001093329
 50
269.99826290894862
 51
354.99999998051129
  0
ARC
  5
1932
  8
0
 10
442.99688836424099
 20
-6.8796613727101237
 30
0.0
 40
0.12
 50
90.0
 51
173.9999999962001
  0
ARC
  5
1933
  8
0
 10
443.41582658994099
 20
-6.6996613727101231
 30
0.0
 40
0.06
 50
270.000000050599
 51
357.0
  0
ARC
  5
1934
  8
0
 10
426.18885274570209
 20
-10.3287725976137
 30
0.0
 40
0.8400002554144238
 50
186.00001596338959
 51
266.9999923603425
  0
ARC
  5
1935
  8
0
 10
441.6690839538648
 20
-10.32877258969449
 30
0.0
 40
0.8400002637160797
 50
273.00000812327761
 51
353.99998355298698
  0
LINE
  5
1936
  8
0
 10
432.48209502706459
 20
-11.58182634506287
 30
0.0
 11
432.48147225557028
 21
-6.8671179626101209
 31
0.0
  0
LINE
  5
1937
  8
0
 10
435.3758418662448
 20
-11.580224694696019
 30
0.0
 11
435.37646445287578
 21
-6.8671179626101209
 31
0.0
  0
ARC
  5
1938
  8
0
 10
433.8667367289591
 20
-10.71595805208343
 30
0.0
 40
1.838435543146093
 50
271.93985077973173
 51
308.47890839703712
  0
ARC
  5
1939
  8
0
 10
434.46256773901132
 20
-11.40357610879123
 30
0.0
 40
0.9302012440199208
 50
306.10161029186179
 51
349.05284022596948
  0
ARC
  5
193A
  8
0
 10
433.99119998114293
 20
-10.71595805251291
 30
0.0
 40
1.8384355429477139
 50
231.52109136779569
 51
268.06014900739018
  0
ARC
  5
193B
  8
0
 10
433.39701590674491
 20
-11.40203165938363
 30
0.0
 40
0.9324196185589769
 50
191.1177487280454
 51
233.87254027355601
  0
ARC
  5
193C
  8
0
 10
435.59101621430477
 20
-11.59088950956138
 30
0.0
 40
0.1961267719397248
 50
139.37511151873801
 51
175.2077970041081
  0
LINE
  5
193D
  8
0
 10
436.0206352796589
 20
-11.46319058921012
 30
0.0
 11
435.44215824034109
 21
-11.46319058921012
 31
0.0
  0
ARC
  5
193E
  8
0
 10
432.26692048552849
 20
-11.590889510949481
 30
0.0
 40
0.1961267793014309
 50
4.7922032371508738
 51
40.624888055223501
  0
LINE
  5
193F
  8
0
 10
431.83730142671152
 20
-11.463190586033241
 30
0.0
 11
432.41577846602928
 21
-11.46319058691185
 31
0.0
  0
ARC
  5
1940
  8
0
 10
435.49686427416412
 20
-6.8804551531134681
 30
0.0
 40
0.1211362770469799
 50
94.309541408415257
 51
173.67887872266689
  0
ARC
  5
1941
  8
0
 10
432.36107242427352
 20
-6.880455163917059
 30
0.0
 40
0.1211362881840705
 50
6.3211258350138104
 51
85.690456690701396
  0
ENDSEC
  0
EOF
