  0
SECTION
  2
HEADER
  9
$ACADVER
  1
AC1009
  9
$INSBASE
 10
551.899984910810872
 20
15.2776353890067398
 30
0.0
  9
$EXTMIN
 10
530.7507080787629548
 20
-4.95574265968252
 30
-0.0015258207003583
  9
$EXTMAX
 10
559.4766194520077534
 20
15.2832164758352498
 30
0.0000000349246037
  9
$LIMMIN
 10
0.0
 20
0.0
  9
$LIMMAX
 10
11.6929133858000007
 20
8.2677165353999982
  9
$ORTHOMODE
 70
     0
  9
$REGENMODE
 70
     1
  9
$FILLMODE
 70
     1
  9
$QTEXTMODE
 70
     0
  9
$MIRRTEXT
 70
     0
  9
$DRAGMODE
 70
     2
  9
$LTSCALE
 40
0.6431102362
  9
$OSMODE
 70
  4095
  9
$ATTMODE
 70
     1
  9
$TEXTSIZE
 40
0.2
  9
$TRACEWID
 40
0.05
  9
$TEXTSTYLE
  7
STANDARD
  9
$CLAYER
  8
0
  9
$CELTYPE
  6
BYLAYER
  9
$CECOLOR
 62
   256
  9
$DIMSCALE
 40
1.0
  9
$DIMASZ
 40
0.1875
  9
$DIMEXO
 40
0.0625
  9
$DIMDLI
 40
0.4443307087
  9
$DIMRND
 40
0.0
  9
$DIMDLE
 40
0.0
  9
$DIMEXE
 40
0.125
  9
$DIMTP
 40
0.01
  9
$DIMTM
 40
0.01
  9
$DIMTXT
 40
0.15625
  9
$DIMCEN
 40
0.1052362205
  9
$DIMTSZ
 40
0.0
  9
$DIMTOL
 70
     1
  9
$DIMLIM
 70
     0
  9
$DIMTIH
 70
     1
  9
$DIMTOH
 70
     1
  9
$DIMSE1
 70
     0
  9
$DIMSE2
 70
     0
  9
$DIMTAD
 70
     0
  9
$DIMZIN
 70
     0
  9
$DIMBLK
  1

  9
$DIMASO
 70
     1
  9
$DIMSHO
 70
     1
  9
$DIMPOST
  1
\X
  9
$DIMAPOST
  1

  9
$DIMALT
 70
     1
  9
$DIMALTD
 70
     2
  9
$DIMALTF
 40
25.3999999999999986
  9
$DIMLFAC
 40
1.0
  9
$DIMTOFL
 70
     0
  9
$DIMTVP
 40
0.0
  9
$DIMTIX
 70
     0
  9
$DIMSOXD
 70
     0
  9
$DIMSAH
 70
     0
  9
$DIMBLK1
  1

  9
$DIMBLK2
  1

  9
$DIMSTYLE
  2
STANDARD
  9
$DIMCLRD
 70
     0
  9
$DIMCLRE
 70
     0
  9
$DIMCLRT
 70
     0
  9
$DIMTFAC
 40
1.0
  9
$DIMGAP
 40
0.09
  9
$LUNITS
 70
     2
  9
$LUPREC
 70
     4
  9
$SKETCHINC
 40
0.1
  9
$FILLETRAD
 40
0.0
  9
$AUNITS
 70
     0
  9
$AUPREC
 70
     0
  9
$MENU
  1
.
  9
$ELEVATION
 40
0.0
  9
$PELEVATION
 40
0.0
  9
$THICKNESS
 40
0.0
  9
$LIMCHECK
 70
     0
  9
$BLIPMODE
 70
     0
  9
$CHAMFERA
 40
0.0
  9
$CHAMFERB
 40
0.0
  9
$SKPOLY
 70
     0
  9
$TDCREATE
 40
2458018.639108797069639
  9
$TDUPDATE
 40
2460259.5837152781896293
  9
$TDINDWG
 40
0.4227425926
  9
$TDUSRTIMER
 40
0.4227425926
  9
$USRTIMER
 70
     1
  9
$ANGBASE
 50
0.0
  9
$ANGDIR
 70
     0
  9
$PDMODE
 70
     0
  9
$PDSIZE
 40
0.3125
  9
$PLINEWID
 40
0.0
  9
$COORDS
 70
     1
  9
$SPLFRAME
 70
     0
  9
$SPLINETYPE
 70
     6
  9
$SPLINESEGS
 70
     8
  9
$ATTDIA
 70
     1
  9
$ATTREQ
 70
     1
  9
$HANDLING
 70
     1
  9
$HANDSEED
  5
CFA4
  9
$SURFTAB1
 70
     6
  9
$SURFTAB2
 70
     6
  9
$SURFTYPE
 70
     6
  9
$SURFU
 70
     6
  9
$SURFV
 70
     6
  9
$UCSNAME
  2

  9
$UCSORG
 10
0.0
 20
0.0
 30
0.0
  9
$UCSXDIR
 10
1.0
 20
0.0
 30
0.0
  9
$UCSYDIR
 10
0.0
 20
1.0
 30
0.0
  9
$PUCSNAME
  2

  9
$PUCSORG
 10
0.0
 20
0.0
 30
0.0
  9
$PUCSXDIR
 10
1.0
 20
0.0
 30
0.0
  9
$PUCSYDIR
 10
0.0
 20
1.0
 30
0.0
  9
$USERI1
 70
     0
  9
$USERI2
 70
     0
  9
$USERI3
 70
     0
  9
$USERI4
 70
     0
  9
$USERI5
 70
     0
  9
$USERR1
 40
0.0
  9
$USERR2
 40
0.0
  9
$USERR3
 40
0.0
  9
$USERR4
 40
0.0
  9
$USERR5
 40
0.0
  9
$WORLDVIEW
 70
     1
  9
$SHADEDGE
 70
     3
  9
$SHADEDIF
 70
    70
  9
$TILEMODE
 70
     1
  9
$MAXACTVP
 70
    64
  9
$PLIMCHECK
 70
     0
  9
$PEXTMIN
 10
1.0000000000000000E+20
 20
1.0000000000000000E+20
 30
1.0000000000000000E+20
  9
$PEXTMAX
 10
-1.0000000000000000E+20
 20
-1.0000000000000000E+20
 30
-1.0000000000000000E+20
  9
$PLIMMIN
 10
0.0
 20
0.0
  9
$PLIMMAX
 10
12.0
 20
9.0
  9
$UNITMODE
 70
     0
  9
$VISRETAIN
 70
     1
  9
$PLINEGEN
 70
     0
  9
$PSLTSCALE
 70
     1
  0
ENDSEC
  0
SECTION
  2
TABLES
  0
TABLE
  2
VPORT
 70
     1
  0
VPORT
  2
*ACTIVE
 70
     0
 10
0.0
 20
0.0
 11
1.0
 21
1.0
 12
449.789402767647573
 22
-1.8725951031464729
 13
0.0
 23
0.0
 14
1.0
 24
1.0
 15
0.0
 25
0.0
 16
-0.0000000000000142
 26
0.0
 36
39.3282560748450578
 17
95.3242609977377526
 27
7.0363320112228394
 37
0.0
 40
20.3944440968661809
 41
2.4474358974358972
 42
50.0
 43
0.0
 44
0.0
 50
0.0
 51
0.0
 71
     0
 72
   100
 73
     1
 74
     1
 75
     0
 76
     0
 77
     0
 78
     0
  0
ENDTAB
  0
TABLE
  2
LTYPE
 70
     2
  0
LTYPE
  2
CONTINUOUS
 70
     0
  3
Solid line
 72
    65
 73
     0
 40
0.0
  0
LTYPE
  2
PHANTOM2
 70
     0
  3
___ _ _ ___ _ _ ___ _ _ ___ _ _
 72
    65
 73
     6
 40
1.25
 49
0.625
 49
-0.125
 49
0.125
 49
-0.125
 49
0.125
 49
-0.125
  0
ENDTAB
  0
TABLE
  2
LAYER
 70
     2
  0
LAYER
  2
0
 70
     0
 62
   255
  6
CONTINUOUS
  0
LAYER
  2
DEFPOINTS
 70
     0
 62
     7
  6
CONTINUOUS
  0
ENDTAB
  0
TABLE
  2
STYLE
 70
     1
  0
STYLE
  2
STANDARD
 70
     0
 40
0.0
 41
0.8
 50
0.0
 71
     0
 42
0.2
  3
txt
  4

  0
ENDTAB
  0
TABLE
  2
VIEW
 70
     0
  0
ENDTAB
  0
TABLE
  2
UCS
 70
     0
  0
ENDTAB
  0
TABLE
  2
APPID
 70
    10
  0
APPID
  2
ACAD
 70
     0
  0
APPID
  2
ACAD_MLEADERVER
 70
     0
  0
APPID
  2
ACAD_DSTYLE_DIMJAG
 70
     0
  0
APPID
  2
ACAD_DSTYLE_DIMTALN
 70
     0
  0
APPID
  2
ACAD_NAV_VCDISPLAY
 70
     0
  0
APPID
  2
ACAD_EXEMPT_FROM_CAD_STANDARDS
 70
     0
  0
APPID
  2
ACAECLAYERSTANDARD
 70
     0
  0
APPID
  2
ACCMTRANSPARENCY
 70
     0
  0
APPID
  2
DCO15
 70
     0
  0
APPID
  2
ACDBATTR
 70
     0
  0
ENDTAB
  0
TABLE
  2
DIMSTYLE
 70
     1
  0
DIMSTYLE
  2
STANDARD
 70
     0
  3

  4

  5

  6

  7

 40
1.0
 41
0.1875
 42
0.0625
 43
0.38
 44
0.125
 45
0.0
 46
0.0
 47
0.01
 48
0.01
140
0.15625
141
0.09
142
0.0
143
25.3999999999999986
144
1.0
145
0.0
146
1.0
147
0.09
 71
     1
 72
     0
 73
     1
 74
     1
 75
     0
 76
     0
 77
     0
 78
     4
170
     0
171
     2
172
     0
173
     0
174
     0
175
     0
176
     0
177
     0
178
     0
  0
ENDTAB
  0
ENDSEC
  0
SECTION
  2
BLOCKS
  0
BLOCK
  8
0
  2
$MODEL_SPACE
 70
     0
 10
0.0
 20
0.0
 30
0.0
  3
$MODEL_SPACE
  1

  0
ENDBLK
  5
21
  8
0
  0
BLOCK
 67
     1
  8
0
  2
$PAPER_SPACE
 70
     0
 10
0.0
 20
0.0
 30
0.0
  3
$PAPER_SPACE
  1

  0
ENDBLK
  5
1D
 67
     1
  8
0
  0
BLOCK
  8
0
  2
_FILLED
 70
     0
 10
0.0
 20
0.0
 30
0.0
  3
_FILLED
  1

  0
SOLID
  5
A1C3
  8
0
  6
BYBLOCK
 62
     0
 10
0.0
 20
0.0
 30
0.0
 11
-1.0
 21
0.1666666667
 31
0.0
 12
-1.0
 22
-0.1666666667
 32
0.0
 13
-1.0
 23
-0.1666666667
 33
0.0
  0
ENDBLK
  5
A1C4
  8
0
  6
BYBLOCK
 62
     0
  0
ENDSEC
  0
SECTION
  2
ENTITIES
  0
ATTDEF
  5
7A6E
  8
DEFPOINTS
 10
551.8896243702251923
 20
15.2817828806590796
 30
0.0
 40
0.001
  1
K-28820MY
  3

  2
MODELNUMBER
 70
     0
1001
ACDBATTR
1070
     0
1070
     1
  0
ATTDEF
  5
7A6F
  8
DEFPOINTS
 10
551.8896243702251923
 20
15.2801162139924092
 30
0.0
 40
0.001
  1
PUREWASH
  3

  2
TRADENAME
 70
     0
1001
ACDBATTR
1070
     0
1070
     1
  0
ATTDEF
  5
7A70
  8
DEFPOINTS
 10
551.8896243702251923
 20
15.2784495473257493
 30
0.0
 40
0.001
  1
BIDET SEAT
  3

  2
PRODUCT
 70
     0
1001
ACDBATTR
1070
     0
1070
     1
  0
LINE
  5
CB56
  8
0
 10
544.3581806502911604
 20
6.6902127957129087
 30
0.0
 11
544.3581806502911604
 21
3.3851638949218019
 31
0.0
  0
LINE
  5
CB57
  8
0
 10
550.3561414469661486
 20
15.2776353890067398
 30
0.0
 11
553.443828374655709
 21
15.2776353890067398
 31
0.0
  0
ARC
  5
CB58
  8
0
 10
557.8289780570825087
 20
-606.1274075207669512
 30
0.0
 40
621.4499743669633745
 50
90.6889891955220833
 51
91.1020623747363487
  0
ARC
  5
CB59
  8
0
 10
545.9186008531529524
 20
13.8371732128450002
 30
0.0
 40
1.3659296874886451
 50
106.8776404745385946
 51
108.9726162622722967
  0
LINE
  5
CB5A
  8
0
 10
545.5220321568100417
 20
15.1442681521067204
 30
0.0
 11
545.5220321568101554
 21
15.1363640890067508
 31
0.0
  0
ARC
  5
CB5B
  8
0
 10
546.4470668456042404
 20
11.0058026546906493
 30
0.0
 40
4.2328745478849132
 50
97.7485917169992149
 51
102.6230489106159069
  0
LINE
  5
CB5C
  8
0
 10
545.876362865510032
 20
15.2076113143067406
 30
0.0
 11
545.8763628655101456
 21
15.2000277208067605
 31
0.0
  0
LINE
  5
CB5D
  8
0
 10
545.8566955607989257
 20
15.1123523668999802
 30
0.0
 11
545.8566955607989257
 21
12.9126238970637406
 31
0.0
  0
ARC
  5
CB5E
  8
0
 10
545.8045208188666493
 20
12.9479255783749601
 30
0.0
 40
2.2038644873308031
 50
89.661836426133533
 51
100.1390769578966058
  0
ARC
  5
CB5F
  8
0
 10
545.6426108361673641
 20
13.85330604203841
 30
0.0
 40
1.2841207042688569
 50
100.1390769578966058
 51
121.3331050070938062
  0
ARC
  5
CB60
  8
0
 10
545.6025306024597512
 20
13.9191407250645103
 30
0.0
 40
1.2070452177429529
 50
121.3331050070938062
 51
159.4036509596830058
  0
ARC
  5
CB61
  8
0
 10
546.0744247924017145
 20
13.7786273911602795
 30
0.0
 40
1.6985567509239969
 50
160.5665377444566957
 51
181.5858110723430059
  0
ARC
  5
CB62
  8
0
 10
953.5858989127867744
 20
12.0224331145460592
 30
0.0
 40
409.2129497808455199
 50
179.7606880265286975
 51
179.8387374462095067
  0
ARC
  5
CB63
  8
0
 10
2913.5495315400721665
 20
5.6306280178835664
 30
0.0
 40
2369.1869710495097934
 50
179.817568292712707
 51
179.8615493236214036
  0
ARC
  5
CB64
  8
0
 10
-7509.031858023841778
 20
28.5235165939741293
 30
0.0
 40
8053.4196344267629684
 50
359.8446675139696822
 51
359.8778591621253895
  0
ARC
  5
CB65
  8
0
 10
556.4092281576067762
 20
3.7690012226497198
 30
0.0
 40
12.0571587497940005
 50
181.8243083419550885
 51
188.5983221031166863
  0
ARC
  5
CB66
  8
0
 10
554.6407569836571838
 20
3.529604403832209
 30
0.0
 40
10.2728098176028002
 50
188.7527697448524009
 51
198.1405553123684058
  0
ARC
  5
CB67
  8
0
 10
553.4385205369446794
 20
3.1357108625293928
 30
0.0
 40
9.0076914058784041
 50
198.1405553123684058
 51
213.7264889231344966
  0
ARC
  5
CB68
  8
0
 10
551.8871254807120295
 20
2.222270125894326
 30
0.0
 40
7.2109480270024511
 50
214.5343763245166997
 51
236.6373063645789045
  0
ARC
  5
CB69
  8
0
 10
551.7930763840618056
 20
2.1051112203569882
 30
0.0
 40
7.061389229004063
 50
236.751878369326306
 51
251.1679836074320065
  0
ARC
  5
CB6A
  8
0
 10
551.8640280562265161
 20
2.3065252083991221
 30
0.0
 40
7.2749244640946733
 50
251.1511435299844948
 51
262.6394866883348982
  0
ARC
  5
CB6B
  8
0
 10
552.1001915889227121
 20
9.178705027710464
 30
0.0
 40
14.1355085733179706
 50
265.2596251857877974
 51
269.1884705684356049
  0
ARC
  5
CB6C
  8
0
 10
545.8172955607989252
 20
15.1123523668999802
 30
0.0
 40
0.0394
 50
359.9999999999943157
 51
89.6618364261107388
  0
ARC
  5
CB6D
  8
0
 10
550.2684526388454742
 20
-106.3908952909151964
 30
0.0
 40
119.2726489601596001
 50
91.7549190820259355
 51
92.0846228066710779
  0
ARC
  5
CB6E
  8
0
 10
552.5764213335235127
 20
-181.7194456887287117
 30
0.0
 40
194.6365476420320988
 50
90.9215832521883556
 51
91.7549190820259355
  0
ARC
  5
CB6F
  8
0
 10
551.7241332729907981
 20
-128.736389244212603
 30
0.0
 40
141.6466366670088064
 50
89.9288683480758948
 51
90.9215832521883556
  0
ARC
  5
CB70
  8
0
 10
546.0145829295453268
 20
12.9260926071461206
 30
0.0
 40
0.1584608070184369
 50
184.875858479285597
 51
213.0088744254724133
  0
ARC
  5
CB71
  8
0
 10
545.9592610346572883
 20
12.8909915555701904
 30
0.0
 40
0.092949321088028
 50
213.4418466793688083
 51
251.5533054029328071
  0
LINE
  5
CB72
  8
0
 10
545.9308628641784935
 20
15.0821195378041502
 30
0.0
 11
545.9308628641784935
 21
12.8028549853478992
 31
0.0
  0
LINE
  5
CB73
  8
0
 10
545.9172461772888028
 20
15.1236093453811105
 30
0.0
 11
545.9308628641784935
 21
15.0696816473150808
 31
0.0
  0
LINE
  5
CB74
  8
0
 10
545.9172461772888028
 20
15.1236093453811105
 30
0.0
 11
545.9172461772888028
 21
14.6673991686067495
 31
0.0
  0
LINE
  5
CB75
  8
0
 10
545.9172461772888028
 20
14.0768479875067491
 30
0.0
 11
545.9172461772888028
 21
12.80807998791499
 31
0.0
  0
ARC
  5
CB76
  8
0
 10
551.4690015535851444
 20
-286.2073228113384857
 30
0.0
 40
301.3790160451388829
 50
89.9180648468824018
 51
91.045571141957538
  0
ARC
  5
CB77
  8
0
 10
545.9702628641787214
 20
15.0821195378041306
 30
0.0
 40
0.0394
 50
91.0455711419868692
 51
179.9999999999739089
  0
LINE
  5
CB78
  8
0
 10
545.9547975058023894
 20
15.1627516949720302
 30
0.0
 11
545.9695439069196254
 21
15.1215129776191493
 31
0.0
  0
ARC
  5
CB79
  8
0
 10
545.9605163726737374
 20
15.1196816195028507
 30
0.0
 40
0.0434480936199972
 50
97.5635203114626961
 51
174.8133566730303983
  0
ARC
  5
CB7A
  8
0
 10
545.9398753052716984
 20
14.1792542511922495
 30
0.0
 40
0.9836106414583191
 50
89.1307414997126557
 51
98.6188435989316332
  0
LINE
  5
CB7B
  8
0
 10
545.8763628655101456
 20
14.7720704823067397
 30
0.0
 11
545.8763628655101456
 21
13.9721766737067501
 31
0.0
  0
ARC
  5
CB7C
  8
0
 10
545.8566778261101717
 20
13.9721766737067501
 30
0.0
 40
0.0196850393999968
 50
270.0516190463022781
 51
0.0
  0
ARC
  5
CB7D
  8
0
 10
545.8566778261101717
 20
14.7720704823067397
 30
0.0
 40
0.0196850394000019
 50
0.0
 51
89.9483809537074563
  0
LINE
  5
CB7E
  8
0
 10
545.8763628655101456
 20
14.6673991686067495
 30
0.0
 11
545.9241462314812452
 21
14.6673991686067495
 31
0.0
  0
LINE
  5
CB7F
  8
0
 10
545.8763628655101456
 20
14.0768479875067491
 30
0.0
 11
545.9241462314829505
 21
14.0768479875067491
 31
0.0
  0
ARC
  5
CB80
  8
0
 10
545.9416684229166776
 20
14.6675987942557509
 30
0.0
 40
0.017982798624549
 50
168.0092699132526093
 51
180.6360490564019869
  0
ARC
  5
CB81
  8
0
 10
528.7823058509164866
 20
14.3721235780067094
 30
0.0
 40
17.1443833166190416
 50
358.9999984670056961
 51
1.0000015329943299
  0
ARC
  5
CB82
  8
0
 10
545.9396037003780293
 20
14.0764243966723903
 30
0.0
 40
0.0159179799190217
 50
178.4751311097971893
 51
192.7461831102556005
  0
ARC
  5
CB83
  8
0
 10
551.9000520337092439
 20
-152.6444651560684918
 30
0.0
 40
165.3375739233752881
 50
90.0000232606451647
 51
91.2532449713424967
  0
ARC
  5
CB84
  8
0
 10
551.9000520337158378
 20
-152.644465156363708
 30
0.0
 40
165.3375739236705897
 50
91.2532449713424967
 51
91.9078739077285718
  0
ARC
  5
CB85
  8
0
 10
551.7562683770162266
 20
-148.3280626992161899
 30
0.0
 40
161.0187773422138093
 50
91.9078739077285718
 51
92.2185183112518274
  0
ARC
  5
CB86
  8
0
 10
545.5006728988961413
 20
10.9760152833568707
 30
0.0
 40
1.594166731626214
 50
89.1936781371589404
 51
107.9017862952667031
  0
ARC
  5
CB87
  8
0
 10
545.257363399424662
 20
11.8351450534217406
 30
0.0
 40
0.7025965113593261
 50
110.5575593666548997
 51
163.3662675661585126
  0
ARC
  5
CB88
  8
0
 10
546.5797902417609748
 20
11.4820431027247007
 30
0.0
 40
2.0711522767058019
 50
164.4790249090854957
 51
181.7020201846970053
  0
ARC
  5
CB89
  8
0
 10
1646.2079859815949021
 20
2.293503824487686
 30
0.0
 40
1101.7362400238760074
 50
179.5253438540190984
 51
179.7430566735447997
  0
ARC
  5
CB8A
  8
0
 10
2275.1529827638769348
 20
-0.7162002583116874
 30
0.0
 40
1730.6884198550790188
 50
179.7367938884758871
 51
179.853905432871386
  0
ARC
  5
CB8B
  8
0
 10
555.1366859734971513
 20
3.5408708454197462
 30
0.0
 40
10.6676359740660001
 50
179.1626999501727937
 51
199.3051709457513994
  0
ARC
  5
CB8C
  8
0
 10
552.5001383010501286
 20
2.6742745548824161
 30
0.0
 40
7.8930252391814069
 50
199.6955140952491092
 51
219.2673759263668956
  0
ARC
  5
CB8D
  8
0
 10
551.8311936562827213
 20
2.1578983825248201
 30
0.0
 40
7.0483321840429438
 50
219.4594081895297961
 51
238.7903256958670966
  0
ARC
  5
CB8E
  8
0
 10
551.8191721495288675
 20
2.16138210142904
 30
0.0
 40
7.0450928950021847
 50
238.8886249681480081
 51
256.9502867491243023
  0
ARC
  5
CB8F
  8
0
 10
551.9771816145022285
 20
3.2162095817499639
 30
0.0
 40
8.1087945752488562
 50
257.5455798964894143
 51
269.4545290193743767
  0
ARC
  5
CB90
  8
0
 10
551.8819149143849927
 20
-207.2858611559078952
 30
0.0
 40
220.322330923265099
 50
89.995300818905875
 51
91.5379013562698134
  0
ARC
  5
CB91
  8
0
 10
545.9678628641786418
 20
12.9940941584523202
 30
0.0
 40
0.037
 50
180.0
 51
271.5379013562665023
  0
LINE
  5
CB92
  8
0
 10
559.4417891713304698
 20
6.6902127957129087
 30
0.0
 11
559.4417891713304698
 21
3.3851638949218019
 31
0.0
  0
ARC
  5
CB93
  8
0
 10
545.9709917645393489
 20
-606.1274075207669512
 30
0.0
 40
621.4499743669633745
 50
88.8979376252636371
 51
89.3110108044779167
  0
ARC
  5
CB94
  8
0
 10
557.8813689684685642
 20
13.8371732128450002
 30
0.0
 40
1.3659296874886451
 50
71.0273837377276891
 51
73.122359525461377
  0
LINE
  5
CB95
  8
0
 10
558.2779376648118159
 20
15.1442681521067204
 30
0.0
 11
558.2779376648117022
 21
15.1363640890067508
 31
0.0
  0
ARC
  5
CB96
  8
0
 10
557.3529029760176172
 20
11.0058026546906493
 30
0.0
 40
4.2328745478849132
 50
77.3769510893839367
 51
82.2514082830007993
  0
LINE
  5
CB97
  8
0
 10
557.9236069561118256
 20
15.2076113143067406
 30
0.0
 11
557.923606956111712
 21
15.2000277208067605
 31
0.0
  0
LINE
  5
CB98
  8
0
 10
557.9432742608227045
 20
15.1123523668999802
 30
0.0
 11
557.9432742608227045
 21
12.9126238970637406
 31
0.0
  0
ARC
  5
CB99
  8
0
 10
557.9954490027549809
 20
12.9479255783749601
 30
0.0
 40
2.2038644873308031
 50
79.8609230421033374
 51
90.3381635738697355
  0
ARC
  5
CB9A
  8
0
 10
558.1573589854541524
 20
13.85330604203841
 30
0.0
 40
1.2841207042688569
 50
58.666894992906208
 51
79.8609230421033374
  0
ARC
  5
CB9B
  8
0
 10
558.1974392191617653
 20
13.9191407250645103
 30
0.0
 40
1.2070452177429529
 50
20.59634904031698
 51
58.666894992906208
  0
ARC
  5
CB9C
  8
0
 10
557.7255450292200294
 20
13.7786273911602795
 30
0.0
 40
1.6985567509239969
 50
358.4141889276568804
 51
19.4334622555432617
  0
ARC
  5
CB9D
  8
0
 10
150.214070908834799
 20
12.0224331145460592
 30
0.0
 40
409.2129497808455199
 50
0.1612625537904754
 51
0.239311973471249
  0
ARC
  5
CB9E
  8
0
 10
-1809.7495617184499679
 20
5.6306280178835664
 30
0.0
 40
2369.1869710495097934
 50
0.1384506763785908
 51
0.1824317072873361
  0
ARC
  5
CB9F
  8
0
 10
8612.8318278454626125
 20
28.5235165939741293
 30
0.0
 40
8053.4196344267629684
 50
180.122140837873701
 51
180.1553324860302894
  0
ARC
  5
CBA0
  8
0
 10
547.390741664014854
 20
3.7690012226497198
 30
0.0
 40
12.0571587497940005
 50
351.4016778968833137
 51
358.1756916580449115
  0
ARC
  5
CBA1
  8
0
 10
549.1592128379644464
 20
3.529604403832209
 30
0.0
 40
10.2728098176028002
 50
341.8594446876315942
 51
351.2472302551475991
  0
ARC
  5
CBA2
  8
0
 10
550.3614492846770645
 20
3.1357108625293928
 30
0.0
 40
9.0076914058784041
 50
326.2735110768654749
 51
341.8594446876315942
  0
ARC
  5
CBA3
  8
0
 10
551.9128443409097144
 20
2.222270125894326
 30
0.0
 40
7.2109480270024511
 50
303.3626936354210102
 51
325.465623675483414
  0
ARC
  5
CBA4
  8
0
 10
552.0068934375599383
 20
2.1051112203569882
 30
0.0
 40
7.061389229004063
 50
288.8320163925679935
 51
303.2481216306737792
  0
ARC
  5
CBA5
  8
0
 10
551.9359417653951141
 20
2.3065252083991221
 30
0.0
 40
7.2749244640946733
 50
277.3605133116651018
 51
288.8488564700155052
  0
ARC
  5
CBA6
  8
0
 10
551.6997782326991455
 20
9.178705027710464
 30
0.0
 40
14.1355085733179706
 50
270.8115294315643951
 51
274.7403748142090194
  0
ARC
  5
CBA7
  8
0
 10
557.982674260822705
 20
15.1123523668999802
 30
0.0
 40
0.0394
 50
90.3381635738892754
 51
180.0000000000048885
  0
ARC
  5
CBA8
  8
0
 10
553.531517182776156
 20
-106.3908952909151964
 30
0.0
 40
119.2726489601596001
 50
87.9153771933256536
 51
88.2450809179740787
  0
ARC
  5
CBA9
  8
0
 10
551.2235484880983449
 20
-181.7194456887287117
 30
0.0
 40
194.6365476420320988
 50
88.2450809179740787
 51
89.0784167478116444
  0
ARC
  5
CBAA
  8
0
 10
552.0758365486308321
 20
-128.736389244212603
 30
0.0
 40
141.6466366670088064
 50
89.0784167478116444
 51
90.0711316519273595
  0
ARC
  5
CBAB
  8
0
 10
557.7853868920765308
 20
12.9260926071461206
 30
0.0
 40
0.1584608070184369
 50
326.9911255745275867
 51
355.1241415207135788
  0
ARC
  5
CBAC
  8
0
 10
557.8407087869645693
 20
12.8909915555701904
 30
0.0
 40
0.092949321088028
 50
288.4466945970672214
 51
326.5581533206312201
  0
LINE
  5
CBAD
  8
0
 10
557.8691069574431367
 20
15.0821195378041502
 30
0.0
 11
557.8691069574431367
 21
12.8028549853478992
 31
0.0
  0
LINE
  5
CBAE
  8
0
 10
557.8827236443329411
 20
15.1236093453811105
 30
0.0
 11
557.8691069574431367
 21
15.0696816473150808
 31
0.0
  0
LINE
  5
CBAF
  8
0
 10
557.8827236443329411
 20
15.1236093453811105
 30
0.0
 11
557.8827236443329411
 21
14.6673991686067495
 31
0.0
  0
LINE
  5
CBB0
  8
0
 10
557.8827236443329411
 20
14.0768479875067491
 30
0.0
 11
557.8827236443329411
 21
12.80807998791499
 31
0.0
  0
ARC
  5
CBB1
  8
0
 10
552.3309682680367132
 20
-286.2073228113384857
 30
0.0
 40
301.3790160451388829
 50
88.9544288580424478
 51
90.0819351531176125
  0
ARC
  5
CBB2
  8
0
 10
557.8297069574431362
 20
15.0821195378041306
 30
0.0
 40
0.0394
 50
0.0000000000260551
 51
88.9544288580098765
  0
LINE
  5
CBB3
  8
0
 10
557.8451723158193545
 20
15.1627516949720302
 30
0.0
 11
557.8304259147021185
 21
15.1215129776191493
 31
0.0
  0
ARC
  5
CBB4
  8
0
 10
557.8394534489481202
 20
15.1196816195028507
 30
0.0
 40
0.0434480936199972
 50
5.1866433269695804
 51
82.4364796885373181
  0
ARC
  5
CBB5
  8
0
 10
557.8600945163500455
 20
14.1792542511922495
 30
0.0
 40
0.9836106414583191
 50
81.3811564010683526
 51
90.86925850028409
  0
LINE
  5
CBB6
  8
0
 10
557.923606956111712
 20
14.7720704823067397
 30
0.0
 11
557.923606956111712
 21
13.9721766737067501
 31
0.0
  0
ARC
  5
CBB7
  8
0
 10
557.9432919955116859
 20
13.9721766737067501
 30
0.0
 40
0.0196850393999968
 50
180.0
 51
269.9483809536977219
  0
ARC
  5
CBB8
  8
0
 10
557.9432919955116859
 20
14.7720704823067397
 30
0.0
 40
0.0196850394000019
 50
90.0516190462925721
 51
180.0
  0
LINE
  5
CBB9
  8
0
 10
557.923606956111712
 20
14.6673991686067495
 30
0.0
 11
557.875823590140385
 21
14.6673991686067495
 31
0.0
  0
LINE
  5
CBBA
  8
0
 10
557.923606956111712
 20
14.0768479875067491
 30
0.0
 11
557.8758235901386797
 21
14.0768479875067491
 31
0.0
  0
ARC
  5
CBBB
  8
0
 10
557.8583013987049526
 20
14.6675987942557509
 30
0.0
 40
0.017982798624549
 50
359.3639509435980131
 51
11.9907300867473694
  0
ARC
  5
CBBC
  8
0
 10
575.017663970705371
 20
14.3721235780067094
 30
0.0
 40
17.1443833166190416
 50
178.9999984670056108
 51
181.0000015329935081
  0
ARC
  5
CBBD
  8
0
 10
557.8603661212437146
 20
14.0764243966723903
 30
0.0
 40
0.0159179799190217
 50
347.2538168897443143
 51
1.5248688902027341
  0
ARC
  5
CBBE
  8
0
 10
551.8999177879059062
 20
-152.644465156363708
 30
0.0
 40
165.3375739236705897
 50
88.0921260922714566
 51
88.746755028660786
  0
ARC
  5
CBBF
  8
0
 10
552.043701444605631
 20
-148.3280626992161899
 30
0.0
 40
161.0187773422138093
 50
87.7814816887481868
 51
88.0921260922714566
  0
ARC
  5
CBC0
  8
0
 10
558.2992969227254889
 20
10.9760152833568707
 30
0.0
 40
1.594166731626214
 50
72.0982137047332827
 51
90.8063218628443138
  0
ARC
  5
CBC1
  8
0
 10
558.5426064221969682
 20
11.8351450534217406
 30
0.0
 40
0.7025965113593261
 50
16.6337324338414803
 51
69.4424406333450861
  0
ARC
  5
CBC2
  8
0
 10
557.2201795798607691
 20
11.4820431027247007
 30
0.0
 40
2.0711522767058019
 50
358.2979798153021989
 51
15.5209750909144901
  0
ARC
  5
CBC3
  8
0
 10
-542.4080161599732719
 20
2.293503824487686
 30
0.0
 40
1101.7362400238760074
 50
0.2569433264543833
 51
0.4746561459808766
  0
ARC
  5
CBC4
  8
0
 10
-1171.3530129422549635
 20
-0.7162002583116874
 30
0.0
 40
1730.6884198550790188
 50
0.1460945671286334
 51
0.2632061115248959
  0
ARC
  5
CBC5
  8
0
 10
548.6632838481245926
 20
3.5408708454197462
 30
0.0
 40
10.6676359740660001
 50
340.6948290542486006
 51
0.8373000498272171
  0
ARC
  5
CBC6
  8
0
 10
551.299831520571729
 20
2.6742745548824161
 30
0.0
 40
7.8930252391814069
 50
320.732624073633076
 51
340.3044859047508908
  0
ARC
  5
CBC7
  8
0
 10
551.9687761653391362
 20
2.1578983825248201
 30
0.0
 40
7.0483321840429438
 50
301.209674304132875
 51
320.5405918104701755
  0
ARC
  5
CBC8
  8
0
 10
551.9807976720929901
 20
2.16138210142904
 30
0.0
 40
7.0450928950021847
 50
283.0497132508756977
 51
301.1113750318521056
  0
ARC
  5
CBC9
  8
0
 10
551.8227882071196291
 20
3.2162095817499639
 30
0.0
 40
8.1087945752488562
 50
270.5454709806256233
 51
282.4544201035072888
  0
ARC
  5
CBCA
  8
0
 10
551.9180549072366375
 20
-207.2858611559078952
 30
0.0
 40
220.322330923265099
 50
88.4620986437301866
 51
90.004699181094125
  0
ARC
  5
CBCB
  8
0
 10
557.8321069574432158
 20
12.9940941584523202
 30
0.0
 40
0.037
 50
268.4620986437333841
 51
0.0
  0
LINE
  5
CBCC
  8
0
 10
530.7667516016400668
 20
5.5187105180067562
 30
0.0
 11
530.7667516016400668
 21
6.6435438083067586
 31
0.0
  0
LINE
  5
CBCD
  8
0
 10
530.9050054386101465
 20
6.5119278506067531
 30
0.0
 11
541.5119299137101052
 21
6.5119278506067531
 31
0.0
  0
LINE
  5
CBCE
  8
0
 10
530.9480881929891893
 20
5.6457861183067592
 30
0.0
 11
541.4688471593309487
 21
5.6457861183067592
 31
0.0
  0
LINE
  5
CBCF
  8
0
 10
530.9025740995330125
 20
6.4798780998049494
 30
0.0
 11
530.9165929905916528
 21
5.676736367504958
 31
0.0
  0
ARC
  5
CBD0
  8
0
 10
530.9340693019304354
 20
6.4804278506067439
 30
0.0
 40
0.0315
 50
90.0
 51
180.9999999982117913
  0
ARC
  5
CBD1
  8
0
 10
530.9480881929891893
 20
5.6772861183067533
 30
0.0
 40
0.0315
 50
180.9999999982182999
 51
270.0
  0
LINE
  5
CBD2
  8
0
 10
530.9890198163101331
 20
5.4987105180067601
 30
0.0
 11
530.7867516016400486
 21
5.4987105180067601
 31
0.0
  0
LINE
  5
CBD3
  8
0
 10
531.0090198163101149
 20
5.5187105180067562
 30
0.0
 11
531.0090198163101149
 21
5.5906068504067568
 31
0.0
  0
ARC
  5
CBD4
  8
0
 10
530.9890198163101331
 20
5.5187105180067562
 30
0.0
 40
0.02
 50
270.0000000000163141
 51
359.9999999999894271
  0
ARC
  5
CBD5
  8
0
 10
530.7867516016400486
 20
5.5187105180067562
 30
0.0
 40
0.02
 50
180.0000000000098055
 51
269.9999999999902229
  0
LINE
  5
CBD6
  8
0
 10
530.7946744264114614
 20
6.671277347706762
 30
0.0
 11
541.6222609259086767
 21
6.671277347706762
 31
0.0
  0
LINE
  5
CBD7
  8
0
 10
530.7867516016400486
 20
6.6635438083067546
 30
0.0
 11
532.6368212011101377
 21
6.6635438083067546
 31
0.0
  0
LINE
  5
CBD8
  8
0
 10
532.6722542720101501
 20
6.6635438083067546
 30
0.0
 11
534.05414403571001
 21
6.6635438083067546
 31
0.0
  0
LINE
  5
CBD9
  8
0
 10
534.0895771066101361
 20
6.6635438083067546
 30
0.0
 11
535.4714668704101541
 21
6.6635438083067546
 31
0.0
  0
LINE
  5
CBDA
  8
0
 10
535.5068999413100528
 20
6.6635438083067546
 30
0.0
 11
536.9100354110099715
 21
6.6635438083067546
 31
0.0
  0
ARC
  5
CBDB
  8
0
 10
530.7867516016400486
 20
6.6435438083067586
 30
0.0
 40
0.02
 50
90.0000000000195257
 51
179.9999999999893987
  0
LINE
  5
CBDC
  8
0
 10
530.7738435526471221
 20
6.6588206624067681
 30
0.0
 11
530.7806276285147078
 21
6.6655141826374509
 31
0.0
  0
ARC
  5
CBDD
  8
0
 10
530.7946744264114614
 20
6.6512773477067517
 30
0.0
 40
0.02
 50
90.0000000000130314
 51
134.6150368585842045
  0
LINE
  5
CBDE
  8
0
 10
530.9890198163101331
 20
5.6106068504067528
 30
0.0
 11
530.9050054386101465
 21
5.6106068504067528
 31
0.0
  0
LINE
  5
CBDF
  8
0
 10
530.8790054386100792
 20
5.636606850406749
 30
0.0
 11
530.8790054386100792
 21
6.4859278506067417
 31
0.0
  0
ARC
  5
CBE0
  8
0
 10
530.9890198163101331
 20
5.5906068504067434
 30
0.0
 40
0.02
 50
0.0000000000097707
 51
89.9999999999772058
  0
ARC
  5
CBE1
  8
0
 10
530.9050054386101465
 20
5.6366068504067641
 30
0.0
 40
0.026
 50
180.0000000000154046
 51
269.9999999999869829
  0
ARC
  5
CBE2
  8
0
 10
530.9050054386101465
 20
6.4859278506067417
 30
0.0
 40
0.026
 50
90.0000000000032543
 51
179.9999999999917861
  0
LINE
  5
CBE3
  8
0
 10
530.8848291918827726
 20
6.4919278506067419
 30
0.0
 11
530.8848291918827726
 21
5.6409425727067477
 31
0.0
  0
ARC
  5
CBE4
  8
0
 10
530.9048291918827545
 20
6.4919278506067419
 30
0.0
 40
0.02
 50
93.6010172678162036
 51
179.9999999999893987
  0
LINE
  5
CBE5
  8
0
 10
541.5121061604374972
 20
5.6209425727067517
 30
0.0
 11
530.9048291918827545
 21
5.6209425727067517
 31
0.0
  0
LINE
  5
CBE6
  8
0
 10
531.012468854613644
 20
5.6009425727067557
 30
0.0
 11
531.012468854613644
 21
5.525455287394478
 31
0.0
  0
ARC
  5
CBE7
  8
0
 10
530.9924688546136622
 20
5.6009425727067557
 30
0.0
 40
0.02
 50
0.0
 51
89.9999999999869686
  0
ARC
  5
CBE8
  8
0
 10
530.9048291918827545
 20
5.6409425727067619
 30
0.0
 40
0.02
 50
180.0000000000202931
 51
269.9999999999902229
  0
LINE
  5
CBE9
  8
0
 10
531.0073020637145191
 20
5.5106012991884077
 30
0.0
 11
531.0104509934216139
 21
5.5167007066568337
 31
0.0
  0
ARC
  5
CBEA
  8
0
 10
530.9924688546136622
 20
5.525455287394478
 30
0.0
 40
0.02
 50
334.0409257087807759
 51
359.9999999999894271
  0
LINE
  5
CBEB
  8
0
 10
531.0052008381220503
 20
5.5069557516067533
 30
0.0
 11
541.411734514197974
 21
5.5069557516067533
 31
0.0
  0
LINE
  5
CBEC
  8
0
 10
530.9576976529352805
 20
6.4323908826539897
 30
0.0
 11
530.9700541895557535
 21
5.7244853708539827
 31
0.0
  0
LINE
  5
CBED
  8
0
 10
530.9940505342393635
 20
5.7009042286067588
 30
0.0
 11
541.4228848180805471
 21
5.7009042286067588
 31
0.0
  0
LINE
  5
CBEE
  8
0
 10
530.9816939976188905
 20
6.4568097404067544
 30
0.0
 11
541.4352413547012475
 21
6.4568097404067544
 31
0.0
  0
ARC
  5
CBEF
  8
0
 10
530.9816939976188905
 20
6.4328097404067668
 30
0.0
 40
0.024
 50
89.9999999999902229
 51
180.9999999958990884
  0
ARC
  5
CBF0
  8
0
 10
530.9940505342393635
 20
5.7249042286067464
 30
0.0
 40
0.024
 50
180.9999999958648971
 51
270.0000000000064801
  0
LINE
  5
CBF1
  8
0
 10
531.163096953210129
 20
6.6435438083067586
 30
0.0
 11
531.163096953210129
 21
6.5319278506067491
 31
0.0
  0
ARC
  5
CBF2
  8
0
 10
531.1830969532101108
 20
6.6435438083067586
 30
0.0
 40
0.02
 50
90.0000000000130314
 51
179.9999999999893987
  0
ARC
  5
CBF3
  8
0
 10
531.1830969532101108
 20
6.5319278506067633
 30
0.0
 40
0.02
 50
180.0000000000202931
 51
269.9999999999935199
  0
LINE
  5
CBF4
  8
0
 10
531.2190345468101214
 20
6.6429307299067508
 30
0.0
 11
541.1979008055101303
 21
6.6429307299067508
 31
0.0
  0
LINE
  5
CBF5
  8
0
 10
541.2527695358400024
 20
6.6429307299067508
 30
0.0
 11
541.2538383991101227
 21
6.6429307299067508
 31
0.0
  0
LINE
  5
CBF6
  8
0
 10
531.1990345468101395
 20
6.5319278506067491
 30
0.0
 11
531.1990345468101395
 21
6.6229307299067548
 31
0.0
  0
ARC
  5
CBF7
  8
0
 10
531.2190345468101214
 20
6.5319278506067491
 30
0.0
 40
0.02
 50
180.0000000000098055
 51
270.0000000000032969
  0
ARC
  5
CBF8
  8
0
 10
531.2190345468101214
 20
6.6229307299067548
 30
0.0
 40
0.02
 50
90.0000000000097771
 51
179.9999999999893987
  0
LINE
  5
CBF9
  8
0
 10
531.2319712696543093
 20
6.662891056936985
 30
0.0
 11
532.6368212011101377
 21
6.6628910608065288
 31
0.0
  0
LINE
  5
CBFA
  8
0
 10
532.6722542720101501
 20
6.6628910609041148
 30
0.0
 11
534.05414403571001
 21
6.6628910647104362
 31
0.0
  0
LINE
  5
CBFB
  8
0
 10
534.0895771066101361
 20
6.6628910648080222
 30
0.0
 11
535.4714668704101541
 21
6.6628910686143277
 31
0.0
  0
LINE
  5
CBFC
  8
0
 10
535.5068999413100528
 20
6.6628910687119278
 30
0.0
 11
536.9100354110099715
 21
6.6628910725767554
 31
0.0
  0
LINE
  5
CBFD
  8
0
 10
531.2472319127919036
 20
6.6552642218067604
 30
0.0
 11
532.6368212011101377
 21
6.6552642218067604
 31
0.0
  0
LINE
  5
CBFE
  8
0
 10
532.6722542720101501
 20
6.6552642218067604
 30
0.0
 11
532.866348385025276
 21
6.6552642218067604
 31
0.0
  0
LINE
  5
CBFF
  8
0
 10
533.6239402332083728
 20
6.6552642218067604
 30
0.0
 11
534.05414403571001
 21
6.6552642218067604
 31
0.0
  0
LINE
  5
CC00
  8
0
 10
534.0895771066101361
 20
6.6552642218067604
 30
0.0
 11
535.4714668704101541
 21
6.6552642218067604
 31
0.0
  0
LINE
  5
CC01
  8
0
 10
535.5068999413100528
 20
6.6552642218067604
 30
0.0
 11
536.9100354110099715
 21
6.6552642218067604
 31
0.0
  0
LINE
  5
CC02
  8
0
 10
531.2484692629607252
 20
6.6546458294067596
 30
0.0
 11
532.6368212011101377
 21
6.6546458294039317
 31
0.0
  0
LINE
  5
CC03
  8
0
 10
532.6722542720101501
 20
6.6546458294038606
 30
0.0
 11
532.8696693211602451
 21
6.6546458294034627
 31
0.0
  0
LINE
  5
CC04
  8
0
 10
533.6192712075719555
 20
6.6546458294019279
 30
0.0
 11
534.05414403571001
 21
6.6546458294010469
 31
0.0
  0
LINE
  5
CC05
  8
0
 10
534.0895771066101361
 20
6.6546458294009758
 30
0.0
 11
535.4714668704101541
 21
6.6546458293981621
 31
0.0
  0
LINE
  5
CC06
  8
0
 10
535.5068999413100528
 20
6.6546458293980768
 30
0.0
 11
536.9100354110099715
 21
6.6546458293952213
 31
0.0
  0
LINE
  5
CC07
  8
0
 10
531.2637299138414164
 20
6.6470189904067487
 30
0.0
 11
532.6368212011101377
 21
6.6470189904067487
 31
0.0
  0
LINE
  5
CC08
  8
0
 10
532.6722542720101501
 20
6.6470189904067487
 30
0.0
 11
534.05414403571001
 21
6.6470189904067487
 31
0.0
  0
LINE
  5
CC09
  8
0
 10
534.0895771066101361
 20
6.6470189904067487
 30
0.0
 11
535.4714668704101541
 21
6.6470189904067487
 31
0.0
  0
LINE
  5
CC0A
  8
0
 10
535.5068999413100528
 20
6.6470189904067487
 30
0.0
 11
536.9100354110099715
 21
6.6470189904067487
 31
0.0
  0
LINE
  5
CC0B
  8
0
 10
531.2649672638101492
 20
6.6464005981067507
 30
0.0
 11
532.6368212011101377
 21
6.6464005981067507
 31
0.0
  0
LINE
  5
CC0C
  8
0
 10
532.6722542720101501
 20
6.6464005981067507
 30
0.0
 11
534.05414403571001
 21
6.6464005981067507
 31
0.0
  0
LINE
  5
CC0D
  8
0
 10
534.0895771066101361
 20
6.6464005981067507
 30
0.0
 11
535.4714668704101541
 21
6.6464005981067507
 31
0.0
  0
LINE
  5
CC0E
  8
0
 10
535.5068999413100528
 20
6.6464005981067507
 30
0.0
 11
536.9100354110099715
 21
6.6464005981067507
 31
0.0
  0
LINE
  5
CC0F
  8
0
 10
531.2697165732258782
 20
6.6440270284236362
 30
0.0
 11
532.6368212011101377
 21
6.6440270284236362
 31
0.0
  0
LINE
  5
CC10
  8
0
 10
532.6722542720101501
 20
6.6440270284236362
 30
0.0
 11
534.05414403571001
 21
6.6440270284236362
 31
0.0
  0
LINE
  5
CC11
  8
0
 10
534.0895771066101361
 20
6.6440270284236362
 30
0.0
 11
535.4714668704101541
 21
6.6440270284236362
 31
0.0
  0
LINE
  5
CC12
  8
0
 10
535.5068999413100528
 20
6.6440270284236362
 30
0.0
 11
536.9100354110099715
 21
6.6440270284236362
 31
0.0
  0
LINE
  5
CC13
  8
0
 10
531.2697165732258782
 20
6.6440270284236362
 30
0.0
 11
531.2649672638101492
 21
6.6464005981067507
 31
0.0
  0
LINE
  5
CC14
  8
0
 10
531.2637299138414164
 20
6.6470189904067487
 30
0.0
 11
531.2484692629607252
 21
6.6546458294067596
 31
0.0
  0
LINE
  5
CC15
  8
0
 10
531.2472319127919036
 20
6.6552642218067604
 30
0.0
 11
531.2319712696543093
 21
6.662891056936985
 31
0.0
  0
LINE
  5
CC16
  8
0
 10
531.2190345468101214
 20
6.6429307299067508
 30
0.0
 11
531.1830969532101108
 21
6.6635438083067546
 31
0.0
  0
LINE
  5
CC17
  8
0
 10
531.1990345468101395
 20
6.6229307299067548
 30
0.0
 11
531.163096953210129
 21
6.6435438083067586
 31
0.0
  0
LINE
  5
CC18
  8
0
 10
531.1990345468101395
 20
6.5319278506067491
 30
0.0
 11
531.163096953210129
 21
6.5319278506067491
 31
0.0
  0
LINE
  5
CC19
  8
0
 10
530.8643169497780718
 20
6.6702087037067477
 30
0.0
 11
532.6368212011101377
 21
6.6702087037067477
 31
0.0
  0
LINE
  5
CC1A
  8
0
 10
532.6722542720101501
 20
6.6702087037067477
 30
0.0
 11
534.05414403571001
 21
6.6702087037067477
 31
0.0
  0
LINE
  5
CC1B
  8
0
 10
534.0895771066101361
 20
6.6702087037067477
 30
0.0
 11
535.4714668704101541
 21
6.6702087037067477
 31
0.0
  0
LINE
  5
CC1C
  8
0
 10
535.5068999413100528
 20
6.6702087037067477
 30
0.0
 11
536.9100354110099715
 21
6.6702087037067477
 31
0.0
  0
LINE
  5
CC1D
  8
0
 10
530.8585444085775862
 20
6.6644370417067469
 30
0.0
 11
531.1248820125433667
 21
6.6644370417067469
 31
0.0
  0
LINE
  5
CC1E
  8
0
 10
530.8643169497780718
 20
6.6702087037067477
 30
0.0
 11
530.8585444085775862
 21
6.6644370417067469
 31
0.0
  0
LINE
  5
CC1F
  8
0
 10
532.6368212011101377
 20
6.6702087037067477
 30
0.0
 11
532.6368212011101377
 21
6.6635438083067546
 31
0.0
  0
LINE
  5
CC20
  8
0
 10
532.6368212011101377
 20
6.6628910608065288
 30
0.0
 11
532.6368212011101377
 21
6.6552642218067604
 31
0.0
  0
LINE
  5
CC21
  8
0
 10
532.6368212011101377
 20
6.6546458294039317
 30
0.0
 11
532.6368212011101377
 21
6.6470189904067487
 31
0.0
  0
LINE
  5
CC22
  8
0
 10
532.6368212011101377
 20
6.6464005981067507
 30
0.0
 11
532.6368212011101377
 21
6.6440270284236362
 31
0.0
  0
LINE
  5
CC23
  8
0
 10
532.6722542720101501
 20
6.6702087037067477
 30
0.0
 11
532.6722542720101501
 21
6.6635438083067546
 31
0.0
  0
LINE
  5
CC24
  8
0
 10
532.6722542720101501
 20
6.6628910609041148
 30
0.0
 11
532.6722542720101501
 21
6.6552642218067604
 31
0.0
  0
LINE
  5
CC25
  8
0
 10
532.6722542720101501
 20
6.6546458294038606
 30
0.0
 11
532.6722542720101501
 21
6.6470189904067487
 31
0.0
  0
LINE
  5
CC26
  8
0
 10
532.6722542720101501
 20
6.6464005981067507
 30
0.0
 11
532.6722542720101501
 21
6.6440270284236362
 31
0.0
  0
ARC
  5
CC27
  8
0
 10
531.0689165705947516
 20
-0.8374676583390368
 30
0.0
 40
7.5021134528385769
 50
89.0179373158949403
 51
89.5725719979174357
  0
LINE
  5
CC28
  8
0
 10
535.4714668704101541
 20
6.6702087037067477
 30
0.0
 11
535.4714668704101541
 21
6.6635438083067546
 31
0.0
  0
LINE
  5
CC29
  8
0
 10
535.4714668704101541
 20
6.6628910686143277
 30
0.0
 11
535.4714668704101541
 21
6.6552642218067604
 31
0.0
  0
LINE
  5
CC2A
  8
0
 10
535.4714668704101541
 20
6.6546458293981621
 30
0.0
 11
535.4714668704101541
 21
6.6470189904067487
 31
0.0
  0
LINE
  5
CC2B
  8
0
 10
535.4714668704101541
 20
6.6464005981067507
 30
0.0
 11
535.4714668704101541
 21
6.6440270284236362
 31
0.0
  0
LINE
  5
CC2C
  8
0
 10
535.5068999413100528
 20
6.6702087037067477
 30
0.0
 11
535.5068999413100528
 21
6.6635438083067546
 31
0.0
  0
LINE
  5
CC2D
  8
0
 10
535.5068999413100528
 20
6.6628910687119278
 30
0.0
 11
535.5068999413100528
 21
6.6552642218067604
 31
0.0
  0
LINE
  5
CC2E
  8
0
 10
535.5068999413100528
 20
6.6546458293980768
 30
0.0
 11
535.5068999413100528
 21
6.6470189904067487
 31
0.0
  0
LINE
  5
CC2F
  8
0
 10
535.5068999413100528
 20
6.6464005981067507
 30
0.0
 11
535.5068999413100528
 21
6.6440270284236362
 31
0.0
  0
LINE
  5
CC30
  8
0
 10
534.05414403571001
 20
6.6702087037067477
 30
0.0
 11
534.05414403571001
 21
6.6635438083067546
 31
0.0
  0
LINE
  5
CC31
  8
0
 10
534.05414403571001
 20
6.6628910647104362
 30
0.0
 11
534.05414403571001
 21
6.6552642218067604
 31
0.0
  0
LINE
  5
CC32
  8
0
 10
534.05414403571001
 20
6.6546458294010469
 30
0.0
 11
534.05414403571001
 21
6.6470189904067487
 31
0.0
  0
LINE
  5
CC33
  8
0
 10
534.05414403571001
 20
6.6464005981067507
 30
0.0
 11
534.05414403571001
 21
6.6440270284236362
 31
0.0
  0
LINE
  5
CC34
  8
0
 10
534.0895771066101361
 20
6.6702087037067477
 30
0.0
 11
534.0895771066101361
 21
6.6635438083067546
 31
0.0
  0
LINE
  5
CC35
  8
0
 10
534.0895771066101361
 20
6.6628910648080222
 30
0.0
 11
534.0895771066101361
 21
6.6552642218067604
 31
0.0
  0
LINE
  5
CC36
  8
0
 10
534.0895771066101361
 20
6.6546458294009758
 30
0.0
 11
534.0895771066101361
 21
6.6470189904067487
 31
0.0
  0
LINE
  5
CC37
  8
0
 10
534.0895771066101361
 20
6.6464005981067507
 30
0.0
 11
534.0895771066101361
 21
6.6440270284236362
 31
0.0
  0
ARC
  5
CC38
  8
0
 10
532.892233928253745
 20
6.4640456027073014
 30
0.0
 40
0.1937328391697216
 50
91.0363498837442364
 51
99.2407762737205132
  0
ARC
  5
CC39
  8
0
 10
532.9911467975579171
 20
3.9990642584313458
 30
0.0
 40
2.6606543954833879
 50
91.1792052536380453
 51
92.2060377779657045
  0
ARC
  5
CC3A
  8
0
 10
533.0634659298657425
 20
0.6988907873425206
 30
0.0
 40
5.9616188612300292
 50
90.8113307690213958
 51
91.2213744000221851
  0
ARC
  5
CC3B
  8
0
 10
533.1578526726599421
 20
-6.1020731960357182
 30
0.0
 40
12.7632376561686396
 50
90.2477758559673475
 51
90.8026944714513462
  0
ARC
  5
CC3C
  8
0
 10
533.2100938314038103
 20
-20.5027411760217788
 30
0.0
 40
27.1639987504363312
 50
89.9261864413320211
 51
90.2266097232623565
  0
ARC
  5
CC3D
  8
0
 10
533.2831253434942482
 20
-16.1588654156906308
 30
0.0
 40
22.8201321476313304
 50
89.6547072683681421
 51
90.0955002165843695
  0
ARC
  5
CC3E
  8
0
 10
533.3746631143676495
 20
-2.007039225825479
 30
0.0
 40
8.6680135497342121
 50
88.7093398846157442
 51
89.6960246453638774
  0
ARC
  5
CC3F
  8
0
 10
533.53731673136474
 20
5.2339866879222248
 30
0.0
 40
1.425161139301331
 50
86.9681486694748713
 51
88.6897550289145755
  0
ARC
  5
CC40
  8
0
 10
533.6095586727973341
 20
6.5564212545706653
 30
0.0
 40
0.1007805708582414
 50
78.7466981415935123
 51
88.2166087950063087
  0
ARC
  5
CC41
  8
0
 10
532.8665889595406497
 20
6.6570047666963026
 30
0.0
 40
0.0017570920892097
 50
236.8479894101060097
 51
262.1305575068781764
  0
ARC
  5
CC42
  8
0
 10
532.8656976254991378
 20
6.655640172342828
 30
0.0
 40
0.0001271859191333
 50
134.2959112358796006
 51
236.847989410607795
  0
ARC
  5
CC43
  8
0
 10
532.8667319686871906
 20
6.6540756907223084
 30
0.0
 40
0.0020005566342276
 50
99.7561857869633855
 51
124.1544993777178973
  0
ARC
  5
CC44
  8
0
 10
533.4988958695821566
 20
6.0411743939959024
 30
0.0
 40
0.6274258900516645
 50
78.5233745703702226
 51
78.716269792222036
  0
ARC
  5
CC45
  8
0
 10
533.6228467963909452
 20
6.6521006677832304
 30
0.0
 40
0.0040530500506015
 50
67.4247504658131334
 51
77.3609890008380461
  0
ARC
  5
CC46
  8
0
 10
533.6242209466155373
 20
6.6554058752790288
 30
0.0
 40
0.0004735688829076
 50
38.0993194557561381
 51
67.4247504657492982
  0
ARC
  5
CC47
  8
0
 10
533.624489575305347
 20
6.655640164461019
 30
0.0
 40
0.0001190759382104
 50
307.6228963897140147
 51
29.1025000884345317
  0
ARC
  5
CC48
  8
0
 10
533.623455717181173
 20
6.657162127463593
 30
0.0
 40
0.0019587755519205
 50
284.3211438884624727
 51
304.3966632057972106
  0
ARC
  5
CC49
  8
0
 10
532.8706779447020381
 20
6.638876937579993
 30
0.0
 40
0.0158011161248025
 50
93.6598167266110551
 51
148.9836003431593952
  0
ARC
  5
CC4A
  8
0
 10
533.1146776016388458
 20
13.4263922423436401
 30
0.0
 40
6.776177280640713
 50
267.9278875997856062
 51
269.9417493689580851
  0
ARC
  5
CC4B
  8
0
 10
533.2059662671036904
 20
80.3133570608945888
 30
0.0
 40
73.663204022563022
 50
269.9236365900310943
 51
270.0763634099689057
  0
ARC
  5
CC4C
  8
0
 10
533.3555261163536443
 20
14.2101265884132406
 30
0.0
 40
7.560082735852296
 50
269.6105864007449782
 51
271.9992568985442176
  0
ARC
  5
CC4D
  8
0
 10
533.6191829414600534
 20
6.638526083629599
 30
0.0
 40
0.0162704297400326
 50
31.4654401060123909
 51
82.1961774197714448
  0
ARC
  5
CC4E
  8
0
 10
533.2450889176101327
 20
4.3440857378880358
 30
0.0
 40
2.312964944318924
 50
88.0003135773306582
 51
91.999686422669356
  0
ARC
  5
CC4F
  8
0
 10
533.2450889176101327
 20
8.9671986827310093
 30
0.0
 40
2.3129651084244638
 50
268.0003137192675808
 51
271.9996862807324192
  0
LINE
  5
CC50
  8
0
 10
541.6501837506800712
 20
5.5187105180067562
 30
0.0
 11
541.6501837506800712
 21
6.6435438083067586
 31
0.0
  0
LINE
  5
CC51
  8
0
 10
541.5143612527872392
 20
6.4798780998049494
 30
0.0
 11
541.5003423617282579
 21
5.676736367504958
 31
0.0
  0
ARC
  5
CC52
  8
0
 10
541.4828660503898163
 20
6.4804278506067439
 30
0.0
 40
0.0315
 50
359.0000000017873845
 51
90.0
  0
ARC
  5
CC53
  8
0
 10
541.4688471593309487
 20
5.6772861183067533
 30
0.0
 40
0.0315
 50
270.0
 51
359.0000000017807906
  0
LINE
  5
CC54
  8
0
 10
541.4279155360101186
 20
5.4987105180067601
 30
0.0
 11
541.6301837506799757
 21
5.4987105180067601
 31
0.0
  0
LINE
  5
CC55
  8
0
 10
541.4079155360101367
 20
5.5187105180067562
 30
0.0
 11
541.4079155360101367
 21
5.5906068504067568
 31
0.0
  0
ARC
  5
CC56
  8
0
 10
541.4279155360101186
 20
5.5187105180067562
 30
0.0
 40
0.02
 50
180.0000000000098055
 51
269.999999999980389
  0
ARC
  5
CC57
  8
0
 10
541.6301837506799757
 20
5.5187105180067562
 30
0.0
 40
0.02
 50
270.0000000000097771
 51
359.9999999999894271
  0
LINE
  5
CC58
  8
0
 10
541.6301837506799757
 20
6.6635438083067546
 30
0.0
 11
539.7801141512100003
 21
6.6635438083067546
 31
0.0
  0
LINE
  5
CC59
  8
0
 10
539.7446810803101016
 20
6.6635438083067546
 30
0.0
 11
538.362791316610128
 21
6.6635438083067546
 31
0.0
  0
LINE
  5
CC5A
  8
0
 10
538.3273582457101156
 20
6.6635438083067546
 30
0.0
 11
536.9454684819100976
 21
6.6635438083067546
 31
0.0
  0
ARC
  5
CC5B
  8
0
 10
541.6301837506799757
 20
6.6435438083067586
 30
0.0
 40
0.02
 50
0.0000000000097707
 51
89.9999999999772058
  0
LINE
  5
CC5C
  8
0
 10
541.6430917996731296
 20
6.6588206624067681
 30
0.0
 11
541.6363077238055439
 21
6.6655141826374509
 31
0.0
  0
ARC
  5
CC5D
  8
0
 10
541.6222609259086767
 20
6.6512773477067517
 30
0.0
 40
0.02
 50
45.384963141415767
 51
89.9999999999837144
  0
LINE
  5
CC5E
  8
0
 10
541.4279155360101186
 20
5.6106068504067528
 30
0.0
 11
541.5119299137101052
 21
5.6106068504067528
 31
0.0
  0
LINE
  5
CC5F
  8
0
 10
541.5379299137099451
 20
5.636606850406749
 30
0.0
 11
541.5379299137099451
 21
6.4859278506067417
 31
0.0
  0
ARC
  5
CC60
  8
0
 10
541.4279155360101186
 20
5.5906068504067434
 30
0.0
 40
0.02
 50
90.0000000000195257
 51
179.9999999999893987
  0
ARC
  5
CC61
  8
0
 10
541.5119299137101052
 20
5.6366068504067641
 30
0.0
 40
0.026
 50
270.0000000000097771
 51
359.9999999999836859
  0
ARC
  5
CC62
  8
0
 10
541.5119299137101052
 20
6.4859278506067417
 30
0.0
 40
0.026
 50
0.0000000000081422
 51
89.9999999999967457
  0
LINE
  5
CC63
  8
0
 10
541.5321061604373654
 20
6.4919278506067419
 30
0.0
 11
541.5321061604373654
 21
5.6409425727067477
 31
0.0
  0
ARC
  5
CC64
  8
0
 10
541.5121061604374972
 20
6.4919278506067419
 30
0.0
 40
0.02
 50
0.0000000000097707
 51
86.3989827321805564
  0
LINE
  5
CC65
  8
0
 10
541.404466497706494
 20
5.6009425727067557
 30
0.0
 11
541.404466497706494
 21
5.525455287394478
 31
0.0
  0
ARC
  5
CC66
  8
0
 10
541.4244664977065895
 20
5.6009425727067557
 30
0.0
 40
0.02
 50
90.0000000000130314
 51
180.0
  0
ARC
  5
CC67
  8
0
 10
541.5121061604374972
 20
5.6409425727067619
 30
0.0
 40
0.02
 50
270.0000000000064801
 51
359.9999999999797069
  0
LINE
  5
CC68
  8
0
 10
541.4096332886057326
 20
5.5106012991884077
 30
0.0
 11
541.4064843588986378
 21
5.5167007066568337
 31
0.0
  0
ARC
  5
CC69
  8
0
 10
541.4244664977065895
 20
5.525455287394478
 30
0.0
 40
0.02
 50
180.0000000000098055
 51
205.9590742912191956
  0
LINE
  5
CC6A
  8
0
 10
541.4592376993849712
 20
6.4323908826539897
 30
0.0
 11
541.4468811627644982
 21
5.7244853708539827
 31
0.0
  0
ARC
  5
CC6B
  8
0
 10
541.4352413547012475
 20
6.4328097404067668
 30
0.0
 40
0.024
 50
359.0000000041009116
 51
90.0000000000065086
  0
ARC
  5
CC6C
  8
0
 10
541.4228848180805471
 20
5.7249042286067464
 30
0.0
 40
0.024
 50
269.9999999999902229
 51
359.0000000041350745
  0
LINE
  5
CC6D
  8
0
 10
541.2538383991101227
 20
6.6435438083067586
 30
0.0
 11
541.2538383991101227
 21
6.5319278506067491
 31
0.0
  0
ARC
  5
CC6E
  8
0
 10
541.2338383991101409
 20
6.6435438083067586
 30
0.0
 40
0.02
 50
0.0000000000097707
 51
89.9999999999869686
  0
ARC
  5
CC6F
  8
0
 10
541.2338383991101409
 20
6.5319278506067633
 30
0.0
 40
0.02
 50
270.0000000000032969
 51
359.9999999999797069
  0
LINE
  5
CC70
  8
0
 10
541.2179008055101121
 20
6.5319278506067491
 30
0.0
 11
541.2179008055101121
 21
6.6229307299067548
 31
0.0
  0
ARC
  5
CC71
  8
0
 10
541.1979008055101303
 20
6.5319278506067491
 30
0.0
 40
0.02
 50
269.9999999999968168
 51
359.9999999999894271
  0
ARC
  5
CC72
  8
0
 10
541.1979008055101303
 20
6.6229307299067548
 30
0.0
 40
0.02
 50
0.0000000000097707
 51
89.9999999999902229
  0
LINE
  5
CC73
  8
0
 10
541.1849640826659424
 20
6.662891056936985
 30
0.0
 11
539.7801141512100003
 21
6.6628910608065288
 31
0.0
  0
LINE
  5
CC74
  8
0
 10
539.7446810803101016
 20
6.6628910609041148
 30
0.0
 11
538.362791316610128
 21
6.6628910647104362
 31
0.0
  0
LINE
  5
CC75
  8
0
 10
538.3273582457101156
 20
6.6628910648080222
 30
0.0
 11
536.9454684819100976
 21
6.6628910686143277
 31
0.0
  0
LINE
  5
CC76
  8
0
 10
541.1697034395283481
 20
6.6552642218067604
 30
0.0
 11
539.7801141512100003
 21
6.6552642218067604
 31
0.0
  0
LINE
  5
CC77
  8
0
 10
539.7446810803101016
 20
6.6552642218067604
 30
0.0
 11
539.5505869672947483
 21
6.6552642218067604
 31
0.0
  0
LINE
  5
CC78
  8
0
 10
538.7929951191116515
 20
6.6552642218067604
 30
0.0
 11
538.362791316610128
 21
6.6552642218067604
 31
0.0
  0
LINE
  5
CC79
  8
0
 10
538.3273582457101156
 20
6.6552642218067604
 30
0.0
 11
536.9454684819100976
 21
6.6552642218067604
 31
0.0
  0
LINE
  5
CC7A
  8
0
 10
541.1684660893595264
 20
6.6546458294067596
 30
0.0
 11
539.7801141512100003
 21
6.6546458294039317
 31
0.0
  0
LINE
  5
CC7B
  8
0
 10
539.7446810803101016
 20
6.6546458294038606
 30
0.0
 11
539.5472660311598929
 21
6.6546458294034627
 31
0.0
  0
LINE
  5
CC7C
  8
0
 10
538.7976641447480688
 20
6.6546458294019279
 30
0.0
 11
538.362791316610128
 21
6.6546458294010469
 31
0.0
  0
LINE
  5
CC7D
  8
0
 10
538.3273582457101156
 20
6.6546458294009758
 30
0.0
 11
536.9454684819100976
 21
6.6546458293981621
 31
0.0
  0
LINE
  5
CC7E
  8
0
 10
541.1532054384787216
 20
6.6470189904067487
 30
0.0
 11
539.7801141512100003
 21
6.6470189904067487
 31
0.0
  0
LINE
  5
CC7F
  8
0
 10
539.7446810803101016
 20
6.6470189904067487
 30
0.0
 11
538.362791316610128
 21
6.6470189904067487
 31
0.0
  0
LINE
  5
CC80
  8
0
 10
538.3273582457101156
 20
6.6470189904067487
 30
0.0
 11
536.9454684819100976
 21
6.6470189904067487
 31
0.0
  0
LINE
  5
CC81
  8
0
 10
541.1519680885101025
 20
6.6464005981067507
 30
0.0
 11
539.7801141512100003
 21
6.6464005981067507
 31
0.0
  0
LINE
  5
CC82
  8
0
 10
539.7446810803101016
 20
6.6464005981067507
 30
0.0
 11
538.362791316610128
 21
6.6464005981067507
 31
0.0
  0
LINE
  5
CC83
  8
0
 10
538.3273582457101156
 20
6.6464005981067507
 30
0.0
 11
536.9454684819100976
 21
6.6464005981067507
 31
0.0
  0
LINE
  5
CC84
  8
0
 10
541.1472187790942598
 20
6.6440270284236362
 30
0.0
 11
539.7801141512100003
 21
6.6440270284236362
 31
0.0
  0
LINE
  5
CC85
  8
0
 10
539.7446810803101016
 20
6.6440270284236362
 30
0.0
 11
538.362791316610128
 21
6.6440270284236362
 31
0.0
  0
LINE
  5
CC86
  8
0
 10
538.3273582457101156
 20
6.6440270284236362
 30
0.0
 11
536.9454684819100976
 21
6.6440270284236362
 31
0.0
  0
LINE
  5
CC87
  8
0
 10
541.1472187790942598
 20
6.6440270284236362
 30
0.0
 11
541.1519680885101025
 21
6.6464005981067507
 31
0.0
  0
LINE
  5
CC88
  8
0
 10
541.1532054384787216
 20
6.6470189904067487
 30
0.0
 11
541.1684660893595264
 21
6.6546458294067596
 31
0.0
  0
LINE
  5
CC89
  8
0
 10
541.1697034395283481
 20
6.6552642218067604
 30
0.0
 11
541.1849640826659424
 21
6.662891056936985
 31
0.0
  0
LINE
  5
CC8A
  8
0
 10
541.1979008055101303
 20
6.6429307299067508
 30
0.0
 11
541.2338383991101409
 21
6.6635438083067546
 31
0.0
  0
LINE
  5
CC8B
  8
0
 10
541.2179008055101121
 20
6.6229307299067548
 30
0.0
 11
541.2538383991101227
 21
6.6435438083067586
 31
0.0
  0
LINE
  5
CC8C
  8
0
 10
541.2179008055101121
 20
6.5319278506067491
 30
0.0
 11
541.2538383991101227
 21
6.5319278506067491
 31
0.0
  0
LINE
  5
CC8D
  8
0
 10
541.5526184025421799
 20
6.6702087037067477
 30
0.0
 11
539.7801141512100003
 21
6.6702087037067477
 31
0.0
  0
LINE
  5
CC8E
  8
0
 10
539.7446810803101016
 20
6.6702087037067477
 30
0.0
 11
538.362791316610128
 21
6.6702087037067477
 31
0.0
  0
LINE
  5
CC8F
  8
0
 10
538.3273582457101156
 20
6.6702087037067477
 30
0.0
 11
536.9454684819100976
 21
6.6702087037067477
 31
0.0
  0
LINE
  5
CC90
  8
0
 10
541.5583909437425518
 20
6.6644370417067469
 30
0.0
 11
541.292053339776885
 21
6.6644370417067469
 31
0.0
  0
LINE
  5
CC91
  8
0
 10
541.5526184025421799
 20
6.6702087037067477
 30
0.0
 11
541.5583909437425518
 21
6.6644370417067469
 31
0.0
  0
LINE
  5
CC92
  8
0
 10
539.7801141512100003
 20
6.6702087037067477
 30
0.0
 11
539.7801141512100003
 21
6.6635438083067546
 31
0.0
  0
LINE
  5
CC93
  8
0
 10
539.7801141512100003
 20
6.6628910608065288
 30
0.0
 11
539.7801141512100003
 21
6.6552642218067604
 31
0.0
  0
LINE
  5
CC94
  8
0
 10
539.7801141512100003
 20
6.6546458294039317
 30
0.0
 11
539.7801141512100003
 21
6.6470189904067487
 31
0.0
  0
LINE
  5
CC95
  8
0
 10
539.7801141512100003
 20
6.6464005981067507
 30
0.0
 11
539.7801141512100003
 21
6.6440270284236362
 31
0.0
  0
LINE
  5
CC96
  8
0
 10
539.7446810803101016
 20
6.6702087037067477
 30
0.0
 11
539.7446810803101016
 21
6.6635438083067546
 31
0.0
  0
LINE
  5
CC97
  8
0
 10
539.7446810803101016
 20
6.6628910609041148
 30
0.0
 11
539.7446810803101016
 21
6.6552642218067604
 31
0.0
  0
LINE
  5
CC98
  8
0
 10
539.7446810803101016
 20
6.6546458294038606
 30
0.0
 11
539.7446810803101016
 21
6.6470189904067487
 31
0.0
  0
LINE
  5
CC99
  8
0
 10
539.7446810803101016
 20
6.6464005981067507
 30
0.0
 11
539.7446810803101016
 21
6.6440270284236362
 31
0.0
  0
ARC
  5
CC9A
  8
0
 10
541.3480187817253864
 20
-0.8374676583390368
 30
0.0
 40
7.5021134528385769
 50
90.4274280020825643
 51
90.9820626841050455
  0
LINE
  5
CC9B
  8
0
 10
536.9454684819100976
 20
6.6702087037067477
 30
0.0
 11
536.9454684819100976
 21
6.6635438083067546
 31
0.0
  0
LINE
  5
CC9C
  8
0
 10
536.9454684819100976
 20
6.6628910686143277
 30
0.0
 11
536.9454684819100976
 21
6.6552642218067604
 31
0.0
  0
LINE
  5
CC9D
  8
0
 10
536.9454684819100976
 20
6.6546458293981621
 30
0.0
 11
536.9454684819100976
 21
6.6470189904067487
 31
0.0
  0
LINE
  5
CC9E
  8
0
 10
536.9454684819100976
 20
6.6464005981067507
 30
0.0
 11
536.9454684819100976
 21
6.6440270284236362
 31
0.0
  0
LINE
  5
CC9F
  8
0
 10
536.9100354110099715
 20
6.6702087037067477
 30
0.0
 11
536.9100354110099715
 21
6.6635438083067546
 31
0.0
  0
LINE
  5
CCA0
  8
0
 10
536.9100354110099715
 20
6.6628910725767554
 30
0.0
 11
536.9100354110099715
 21
6.6552642218067604
 31
0.0
  0
LINE
  5
CCA1
  8
0
 10
536.9100354110099715
 20
6.6546458293980768
 30
0.0
 11
536.9100354110099715
 21
6.6470189904067487
 31
0.0
  0
LINE
  5
CCA2
  8
0
 10
536.9100354110099715
 20
6.6464005981067507
 30
0.0
 11
536.9100354110099715
 21
6.6440270284236362
 31
0.0
  0
LINE
  5
CCA3
  8
0
 10
538.362791316610128
 20
6.6702087037067477
 30
0.0
 11
538.362791316610128
 21
6.6635438083067546
 31
0.0
  0
LINE
  5
CCA4
  8
0
 10
538.362791316610128
 20
6.6628910647104362
 30
0.0
 11
538.362791316610128
 21
6.6552642218067604
 31
0.0
  0
LINE
  5
CCA5
  8
0
 10
538.362791316610128
 20
6.6546458294010469
 30
0.0
 11
538.362791316610128
 21
6.6470189904067487
 31
0.0
  0
LINE
  5
CCA6
  8
0
 10
538.362791316610128
 20
6.6464005981067507
 30
0.0
 11
538.362791316610128
 21
6.6440270284236362
 31
0.0
  0
LINE
  5
CCA7
  8
0
 10
538.3273582457101156
 20
6.6702087037067477
 30
0.0
 11
538.3273582457101156
 21
6.6635438083067546
 31
0.0
  0
LINE
  5
CCA8
  8
0
 10
538.3273582457101156
 20
6.6628910648080222
 30
0.0
 11
538.3273582457101156
 21
6.6552642218067604
 31
0.0
  0
LINE
  5
CCA9
  8
0
 10
538.3273582457101156
 20
6.6546458294009758
 30
0.0
 11
538.3273582457101156
 21
6.6470189904067487
 31
0.0
  0
LINE
  5
CCAA
  8
0
 10
538.3273582457101156
 20
6.6464005981067507
 30
0.0
 11
538.3273582457101156
 21
6.6440270284236362
 31
0.0
  0
ARC
  5
CCAB
  8
0
 10
539.524701424066393
 20
6.4640456027073014
 30
0.0
 40
0.1937328391697216
 50
80.7592237262826842
 51
88.9636501162590037
  0
ARC
  5
CCAC
  8
0
 10
539.4257885547623346
 20
3.9990642584313458
 30
0.0
 40
2.6606543954833879
 50
87.7939622220310554
 51
88.8207947463619547
  0
ARC
  5
CCAD
  8
0
 10
539.3534694224545092
 20
0.6988907873425206
 30
0.0
 40
5.9616188612300292
 50
88.7786255999778007
 51
89.1886692309786042
  0
ARC
  5
CCAE
  8
0
 10
539.2590826796601959
 20
-6.1020731960357182
 30
0.0
 40
12.7632376561686396
 50
89.1973055285519223
 51
89.7522241440326525
  0
ARC
  5
CCAF
  8
0
 10
539.2068415209164414
 20
-20.5027411760217788
 30
0.0
 40
27.1639987504363312
 50
89.7733902767376577
 51
90.0738135586679647
  0
ARC
  5
CCB0
  8
0
 10
539.1338100088260035
 20
-16.1588654156906308
 30
0.0
 40
22.8201321476313304
 50
89.9044997834156447
 51
90.3452927316318721
  0
ARC
  5
CCB1
  8
0
 10
539.0422722379526022
 20
-2.007039225825479
 30
0.0
 40
8.6680135497342121
 50
90.3039753546361084
 51
91.2906601153842558
  0
ARC
  5
CCB2
  8
0
 10
538.8796186209552843
 20
5.2339866879222248
 30
0.0
 40
1.425161139301331
 50
91.3102449710821702
 51
93.031851330528383
  0
ARC
  5
CCB3
  8
0
 10
538.8073766795229176
 20
6.5564212545706653
 30
0.0
 40
0.1007805708582414
 50
91.7833912049936913
 51
101.2533018584033044
  0
ARC
  5
CCB4
  8
0
 10
539.5503463927793746
 20
6.6570047666963026
 30
0.0
 40
0.0017570920892097
 50
277.86944249312171
 51
303.1520105898940187
  0
ARC
  5
CCB5
  8
0
 10
539.5512377268211139
 20
6.655640172342828
 30
0.0
 40
0.0001271859191333
 50
303.152010589392205
 51
45.7040887641203426
  0
ARC
  5
CCB6
  8
0
 10
539.5502033836329474
 20
6.6540756907223084
 30
0.0
 40
0.0020005566342276
 50
55.8455006222821027
 51
80.2438142130366003
  0
ARC
  5
CCB7
  8
0
 10
538.9180394827380951
 20
6.0411743939959024
 30
0.0
 40
0.6274258900516645
 50
101.2837302077778929
 51
101.4766254296298058
  0
ARC
  5
CCB8
  8
0
 10
538.7940885559291928
 20
6.6521006677832304
 30
0.0
 40
0.0040530500506015
 50
102.6390109991618971
 51
112.5752495341868951
  0
ARC
  5
CCB9
  8
0
 10
538.7927144057047144
 20
6.6554058752790288
 30
0.0
 40
0.0004735688829076
 50
112.5752495342507018
 51
141.9006805442438122
  0
ARC
  5
CCBA
  8
0
 10
538.792445777014791
 20
6.655640164461019
 30
0.0
 40
0.0001190759382104
 50
150.8974999115654896
 51
232.3771036102860137
  0
ARC
  5
CCBB
  8
0
 10
538.7934796351388513
 20
6.657162127463593
 30
0.0
 40
0.0019587755519205
 50
235.6033367942027894
 51
255.6788561115342873
  0
ARC
  5
CCBC
  8
0
 10
539.5462574076182136
 20
6.638876937579993
 30
0.0
 40
0.0158011161248025
 50
31.0163996568405693
 51
86.3401832733889592
  0
ARC
  5
CCBD
  8
0
 10
539.3022577506812922
 20
13.4263922423436401
 30
0.0
 40
6.776177280640713
 50
270.0582506310419149
 51
272.0721124002110969
  0
ARC
  5
CCBE
  8
0
 10
539.2109690852164476
 20
80.3133570608945888
 30
0.0
 40
73.663204022563022
 50
269.9236365900310943
 51
270.0763634099689057
  0
ARC
  5
CCBF
  8
0
 10
539.06140923596638
 20
14.2101265884132406
 30
0.0
 40
7.560082735852296
 50
268.0007431014525991
 51
270.3894135992550218
  0
ARC
  5
CCC0
  8
0
 10
538.7977524108601983
 20
6.638526083629599
 30
0.0
 40
0.0162704297400326
 50
97.8038225802285694
 51
148.5345598939875913
  0
ARC
  5
CCC1
  8
0
 10
539.171846434710119
 20
4.3440857378880358
 30
0.0
 40
2.312964944318924
 50
88.0003135773306582
 51
91.999686422669356
  0
ARC
  5
CCC2
  8
0
 10
539.171846434710119
 20
8.9671986827310093
 30
0.0
 40
2.3129651084244638
 50
268.0003137192675808
 51
271.9996862807324192
  0
ARC
  5
CCC4
  8
0
 10
551.8999177879126137
 20
-152.6444651560684918
 30
0.0
 40
165.3375739233752881
 50
88.746755028660786
 51
89.9999767393515242
  0
ENDSEC
  0
EOF
