  0
SECTION
  2
HEADER
  9
$ACADVER
  1
AC1009
  9
$INSBASE
 10
78.7786372726070852
 20
-0.8186455501655505
 30
0.0
  9
$EXTMIN
 10
70.9805863723399995
 20
-7.0786455501655512
 30
0.0
  9
$EXTMAX
 10
86.5766881728739861
 20
-0.3186455501655505
 30
0.0
  9
$LIMMIN
 10
0.0
 20
0.0
  9
$LIMMAX
 10
12.0
 20
9.0
  9
$ORTHOMODE
 70
     0
  9
$REGENMODE
 70
     1
  9
$FILLMODE
 70
     1
  9
$QTEXTMODE
 70
     0
  9
$MIRRTEXT
 70
     1
  9
$DRAGMODE
 70
     2
  9
$LTSCALE
 40
1.0
  9
$OSMODE
 70
  4095
  9
$ATTMODE
 70
     1
  9
$TEXTSIZE
 40
0.001
  9
$TRACEWID
 40
0.05
  9
$TEXTSTYLE
  7
STANDARD
  9
$CLAYER
  8
0
  9
$CELTYPE
  6
BYLAYER
  9
$CECOLOR
 62
     7
  9
$DIMSCALE
 40
1.0
  9
$DIMASZ
 40
0.18
  9
$DIMEXO
 40
0.0625
  9
$DIMDLI
 40
0.38
  9
$DIMRND
 40
0.0
  9
$DIMDLE
 40
0.0
  9
$DIMEXE
 40
0.18
  9
$DIMTP
 40
0.0
  9
$DIMTM
 40
0.0
  9
$DIMTXT
 40
0.18
  9
$DIMCEN
 40
0.09
  9
$DIMTSZ
 40
0.0
  9
$DIMTOL
 70
     0
  9
$DIMLIM
 70
     0
  9
$DIMTIH
 70
     1
  9
$DIMTOH
 70
     1
  9
$DIMSE1
 70
     0
  9
$DIMSE2
 70
     0
  9
$DIMTAD
 70
     0
  9
$DIMZIN
 70
     0
  9
$DIMBLK
  1

  9
$DIMASO
 70
     1
  9
$DIMSHO
 70
     0
  9
$DIMPOST
  1

  9
$DIMAPOST
  1

  9
$DIMALT
 70
     0
  9
$DIMALTD
 70
     2
  9
$DIMALTF
 40
25.3999999999999986
  9
$DIMLFAC
 40
1.0
  9
$DIMTOFL
 70
     0
  9
$DIMTVP
 40
0.0
  9
$DIMTIX
 70
     0
  9
$DIMSOXD
 70
     0
  9
$DIMSAH
 70
     0
  9
$DIMBLK1
  1

  9
$DIMBLK2
  1

  9
$DIMSTYLE
  2
STANDARD
  9
$DIMCLRD
 70
     0
  9
$DIMCLRE
 70
     0
  9
$DIMCLRT
 70
     0
  9
$DIMTFAC
 40
1.0
  9
$DIMGAP
 40
0.09
  9
$LUNITS
 70
     2
  9
$LUPREC
 70
     4
  9
$SKETCHINC
 40
0.1
  9
$FILLETRAD
 40
0.0
  9
$AUNITS
 70
     0
  9
$AUPREC
 70
     0
  9
$MENU
  1
acad
  9
$ELEVATION
 40
0.0
  9
$PELEVATION
 40
0.0
  9
$THICKNESS
 40
0.0
  9
$LIMCHECK
 70
     0
  9
$BLIPMODE
 70
     0
  9
$CHAMFERA
 40
0.0
  9
$CHAMFERB
 40
0.0
  9
$SKPOLY
 70
     0
  9
$TDCREATE
 40
2455153.5904282410629094
  9
$TDUPDATE
 40
2459012.7465393519960344
  9
$TDINDWG
 40
0.0228904167
  9
$TDUSRTIMER
 40
0.0228903588
  9
$USRTIMER
 70
     1
  9
$ANGBASE
 50
0.0
  9
$ANGDIR
 70
     0
  9
$PDMODE
 70
     0
  9
$PDSIZE
 40
0.0
  9
$PLINEWID
 40
0.0
  9
$COORDS
 70
     1
  9
$SPLFRAME
 70
     0
  9
$SPLINETYPE
 70
     6
  9
$SPLINESEGS
 70
     8
  9
$ATTDIA
 70
     1
  9
$ATTREQ
 70
     1
  9
$HANDLING
 70
     1
  9
$HANDSEED
  5
ED4
  9
$SURFTAB1
 70
     6
  9
$SURFTAB2
 70
     6
  9
$SURFTYPE
 70
     6
  9
$SURFU
 70
     6
  9
$SURFV
 70
     6
  9
$UCSNAME
  2

  9
$UCSORG
 10
0.0
 20
0.0
 30
0.0
  9
$UCSXDIR
 10
1.0
 20
0.0
 30
0.0
  9
$UCSYDIR
 10
0.0
 20
1.0
 30
0.0
  9
$PUCSNAME
  2

  9
$PUCSORG
 10
0.0
 20
0.0
 30
0.0
  9
$PUCSXDIR
 10
1.0
 20
0.0
 30
0.0
  9
$PUCSYDIR
 10
0.0
 20
1.0
 30
0.0
  9
$USERI1
 70
     0
  9
$USERI2
 70
     0
  9
$USERI3
 70
     0
  9
$USERI4
 70
     0
  9
$USERI5
 70
     0
  9
$USERR1
 40
0.0
  9
$USERR2
 40
0.0
  9
$USERR3
 40
0.0
  9
$USERR4
 40
0.0
  9
$USERR5
 40
0.0
  9
$WORLDVIEW
 70
     1
  9
$SHADEDGE
 70
     3
  9
$SHADEDIF
 70
    70
  9
$TILEMODE
 70
     1
  9
$MAXACTVP
 70
    16
  9
$PLIMCHECK
 70
     0
  9
$PEXTMIN
 10
1.0000000000000000E+20
 20
1.0000000000000000E+20
 30
1.0000000000000000E+20
  9
$PEXTMAX
 10
-1.0000000000000000E+20
 20
-1.0000000000000000E+20
 30
-1.0000000000000000E+20
  9
$PLIMMIN
 10
0.0
 20
0.0
  9
$PLIMMAX
 10
12.0
 20
9.0
  9
$UNITMODE
 70
     0
  9
$VISRETAIN
 70
     0
  9
$PLINEGEN
 70
     0
  9
$PSLTSCALE
 70
     0
  0
ENDSEC
  0
SECTION
  2
TABLES
  0
TABLE
  2
VPORT
 70
     1
  0
VPORT
  2
*ACTIVE
 70
     0
 10
0.0
 20
0.0
 11
1.0
 21
1.0
 12
0.0
 22
2.2144505693160141
 13
0.0
 23
0.0
 14
1.0
 24
1.0
 15
0.0
 25
0.0
 16
-0.0000000000000142
 26
0.0
 36
58.5391949978063906
 17
78.7786369323730469
 27
-3.6986456215381618
 37
0.0
 40
21.4270237087017499
 41
2.127494456762749
 42
50.0
 43
0.0
 44
0.0
 50
0.0
 51
0.0
 71
     0
 72
   100
 73
     1
 74
     1
 75
     0
 76
     0
 77
     0
 78
     0
  0
ENDTAB
  0
TABLE
  2
LTYPE
 70
     1
  0
LTYPE
  2
CONTINUOUS
 70
     0
  3
Solid line
 72
    65
 73
     0
 40
0.0
  0
ENDTAB
  0
TABLE
  2
LAYER
 70
     2
  0
LAYER
  2
0
 70
     0
 62
     7
  6
CONTINUOUS
  0
LAYER
  2
DEFPOINTS
 70
     0
 62
     7
  6
CONTINUOUS
  0
ENDTAB
  0
TABLE
  2
STYLE
 70
     1
  0
STYLE
  2
STANDARD
 70
     0
 40
0.0
 41
1.0
 50
0.0
 71
     0
 42
0.001
  3
txt
  4

  0
ENDTAB
  0
TABLE
  2
VIEW
 70
     0
  0
ENDTAB
  0
TABLE
  2
UCS
 70
     0
  0
ENDTAB
  0
TABLE
  2
APPID
 70
     8
  0
APPID
  2
ACAD
 70
     0
  0
APPID
  2
ACADANNOTATIVE
 70
     0
  0
APPID
  2
ACAD_MLEADERVER
 70
     0
  0
APPID
  2
ACDBATTR
 70
     0
  0
APPID
  2
ACAD_EXEMPT_FROM_CAD_STANDARDS
 70
     0
  0
APPID
  2
ACAD_NAV_VCDISPLAY
 70
     0
  0
APPID
  2
ACAD_DSTYLE_DIMJAG
 70
     0
  0
APPID
  2
ACAD_DSTYLE_DIMTALN
 70
     0
  0
ENDTAB
  0
TABLE
  2
DIMSTYLE
 70
     2
  0
DIMSTYLE
  2
STANDARD
 70
     0
  3

  4

  5

  6

  7

 40
1.0
 41
0.18
 42
0.0625
 43
0.38
 44
0.18
 45
0.0
 46
0.0
 47
0.0
 48
0.0
140
0.18
141
0.09
142
0.0
143
25.3999999999999986
144
1.0
145
0.0
146
1.0
147
0.09
 71
     0
 72
     0
 73
     1
 74
     1
 75
     0
 76
     0
 77
     0
 78
     0
170
     0
171
     2
172
     0
173
     0
174
     0
175
     0
176
     0
177
     0
178
     0
  0
DIMSTYLE
  2
ANNOTATIVE
 70
     0
  3

  4

  5

  6

  7

 40
0.0
 41
0.18
 42
0.0625
 43
0.38
 44
0.18
 45
0.0
 46
0.0
 47
0.0
 48
0.0
140
0.18
141
0.09
142
0.0
143
25.3999999999999986
144
1.0
145
0.0
146
1.0
147
0.09
 71
     0
 72
     0
 73
     1
 74
     1
 75
     0
 76
     0
 77
     0
 78
     0
170
     0
171
     2
172
     0
173
     0
174
     0
175
     0
176
     0
177
     0
178
     0
  0
ENDTAB
  0
ENDSEC
  0
SECTION
  2
BLOCKS
  0
BLOCK
  8
0
  2
$MODEL_SPACE
 70
     0
 10
0.0
 20
0.0
 30
0.0
  3
$MODEL_SPACE
  1

  0
ENDBLK
  5
965
  8
0
  0
BLOCK
 67
     1
  8
0
  2
$PAPER_SPACE
 70
     0
 10
0.0
 20
0.0
 30
0.0
  3
$PAPER_SPACE
  1

  0
ENDBLK
  5
961
 67
     1
  8
0
  0
BLOCK
  8
0
  2
_FILLED
 70
     0
 10
0.0
 20
0.0
 30
0.0
  3
_FILLED
  1

  0
SOLID
  5
BC6
  8
0
  6
BYBLOCK
 62
     0
 10
0.0
 20
0.0
 30
0.0
 11
-1.0
 21
0.1666666667
 31
0.0
 12
-1.0
 22
-0.1666666667
 32
0.0
 13
-1.0
 23
-0.1666666667
 33
0.0
  0
ENDBLK
  5
BC7
  8
0
  6
BYBLOCK
 62
     0
  0
ENDSEC
  0
SECTION
  2
ENTITIES
  0
ATTDEF
  5
55D
  8
DEFPOINTS
 62
     7
 10
78.7732831394038726
 20
-0.8207952496674126
 30
0.0
 40
0.001
  1
K-2882
  3

  2
MODELNUMBER
 70
     8
1001
ACDBATTR
1070
     0
1070
     1
  0
ATTDEF
  5
55E
  8
DEFPOINTS
 62
     7
 10
78.7732831394038726
 20
-0.8224619163340793
 30
0.0
 40
0.001
  1
VERTICYL
  3

  2
TRADENAME
 70
     8
1001
ACDBATTR
1070
     0
1070
     1
  0
ATTDEF
  5
55F
  8
DEFPOINTS
 62
     7
 10
78.7732831394038726
 20
-0.8241285830007459
 30
0.0
 40
0.001
  1
BATHROOM SINK
  3

  2
PRODUCT
 70
     8
1001
ACDBATTR
1070
     0
1070
     1
  0
LINE
  5
D92
  8
0
 10
70.9805863723401984
 20
-0.5642164516655513
 30
0.0
 11
70.9805863723401984
 21
-0.6986473844655503
 31
0.0
  0
LINE
  5
D93
  8
0
 10
72.2310087527401947
 20
-4.4666559570655506
 30
0.0
 11
71.9100679862742282
 21
-1.5043158578071461
 31
0.0
  0
LINE
  5
D94
  8
0
 10
71.1650333384401961
 20
-0.9238830586655506
 30
0.0
 11
71.5801883977402014
 21
-4.810717581665549
 31
0.0
  0
LINE
  5
D95
  8
0
 10
77.4236189998313904
 20
-6.964574306971639
 30
0.0
 11
77.4178617240402076
 21
-6.8989762552655511
 31
0.0
  0
LINE
  5
D96
  8
0
 10
77.5481403324401839
 20
-7.0786455501655512
 30
0.0
 11
79.8476904979402065
 21
-7.0786455501655512
 31
0.0
  0
LINE
  5
D97
  8
0
 10
79.972629204740187
 20
-6.9588617996655513
 30
0.0
 11
80.0253896558402147
 21
-5.6945356262655507
 31
0.0
  0
LINE
  5
D98
  8
0
 10
84.9244522640401982
 20
-5.115733915965551
 30
0.0
 11
84.9787122881401871
 21
-5.07514410566555
 31
0.0
  0
LINE
  5
D99
  8
0
 10
85.326277767040196
 20
-4.4666814151655512
 30
0.0
 11
85.6472135548212208
 21
-1.504295078990445
 31
0.0
  0
LINE
  5
D9A
  8
0
 10
71.1006122157901785
 20
-0.8186455501655505
 30
0.0
 11
86.4566588649901888
 21
-0.8186455501655505
 31
0.0
  0
LINE
  5
D9B
  8
0
 10
86.3243557401402057
 20
-0.3186455501655505
 30
0.0
 11
71.23291534064019
 21
-0.3186455501655505
 31
0.0
  0
LINE
  5
D9C
  8
0
 10
86.5766881728739861
 20
-0.5642164516655513
 30
0.0
 11
86.5766881728739861
 21
-0.6986473786655516
 31
0.0
  0
ARC
  5
D9D
  8
0
 10
73.1667333779427196
 20
-4.349973004837401
 30
0.0
 40
0.9429716249978408
 50
187.1079763596960959
 51
263.8526619198826779
  0
ARC
  5
D9E
  8
0
 10
71.2346240959890338
 20
-0.5728232888406737
 30
0.0
 40
0.254183482317088
 50
90.3851753318279663
 51
178.0595524019948925
  0
ARC
  5
D9F
  8
0
 10
77.5481403324401839
 20
-6.9536455501655512
 30
0.0
 40
0.125
 50
185.0157771290000142
 51
270.0
  0
ARC
  5
DA0
  8
0
 10
71.1005843191745868
 20
-0.6986476065735907
 30
0.0
 40
0.1199979468345939
 50
179.9998939494080901
 51
270.0133198808205179
  0
ARC
  5
DA1
  8
0
 10
84.449330705740195
 20
-4.3679479696655497
 30
0.0
 40
0.8832799790999999
 50
306.8200503873994762
 51
308.4233798090003233
  0
ARC
  5
DA2
  8
0
 10
84.4456197020469261
 20
-4.3671263279957389
 30
0.0
 40
0.886267365313142
 50
306.7218682240091994
 51
353.5503087871771868
  0
ARC
  5
DA3
  8
0
 10
84.4521255240401985
 20
-4.3714997016655497
 30
0.0
 40
0.8787605218000001
 50
308.4245347598999274
 51
308.6394711345002975
  0
ARC
  5
DA4
  8
0
 10
86.3226444548125613
 20
-0.5728294723851147
 30
0.0
 40
0.2541896827418224
 50
1.9417948525866291
 51
89.6142637795523171
  0
ARC
  5
DA5
  8
0
 10
86.4566795701240238
 20
-0.6986369487485149
 30
0.0
 40
0.1200086032031687
 50
269.990114735467273
 51
359.9950204384376775
  0
ARC
  5
DA6
  8
0
 10
77.1687051844148613
 20
-6.9209536742714572
 30
0.0
 40
0.2501239456140805
 50
5.0408581827630696
 51
87.9383437819052034
  0
ARC
  5
DA7
  8
0
 10
79.0223490564676894
 20
44.5716903635118626
 30
0.0
 40
51.2758732364518011
 50
263.3971197941355058
 51
267.9383437819043934
  0
ARC
  5
DA8
  8
0
 10
73.3394222916237624
 20
-4.5227950953512472
 30
0.0
 40
1.8535689691971211
 50
255.3687092369123945
 51
263.3971197941355058
  0
ARC
  5
DA9
  8
0
 10
73.3106127419660396
 20
-4.63315514694228
 30
0.0
 40
1.7395105142867919
 50
185.8587336473306095
 51
255.3686627167813015
  0
ARC
  5
DAA
  8
0
 10
79.8470674626506849
 20
-6.9529460723076131
 30
0.0
 40
0.1257010219001033
 50
270.283986861840674
 51
357.302556115729999
  0
ARC
  5
DAB
  8
0
 10
71.0343989079761826
 20
-0.9406498978568169
 30
0.0
 40
0.131706041315966
 50
7.3138868841951581
 51
70.3041880662269136
  0
ARC
  5
DAC
  8
0
 10
71.1910095342067706
 20
-1.004617911240048
 30
0.0
 40
0.1908680862440541
 50
53.0789832485580604
 51
76.9949454347595861
  0
ARC
  5
DAD
  8
0
 10
78.4733909222435813
 20
8.6871972772779493
 30
0.0
 40
11.9320177223913308
 50
233.078983248558103
 51
234.9444272051063081
  0
ARC
  5
DAE
  8
0
 10
71.4682725263989624
 20
-1.296524665556622
 30
0.0
 40
0.2641450992357009
 50
29.0018084799508387
 51
54.9444272051063294
  0
ARC
  5
DAF
  8
0
 10
43084.0148827302909922
 20
27391.2758183252190065
 30
0.0
 40
50994.1692315077525564
 50
212.4910707941278076
 51
212.491483399595495
  0
ARC
  5
DB0
  8
0
 10
70.7238084757599808
 20
-2.101480643751152
 30
0.0
 40
1.3280878765567481
 50
8.5997881939959022
 51
27.9892002374526392
  0
ARC
  5
DB1
  8
0
 10
72.3530210636355804
 20
-2.029353447590633
 30
0.0
 40
0.3404186474854081
 50
145.5018321464615951
 51
158.1921162172587003
  0
ARC
  5
DB2
  8
0
 10
80.2432442845452556
 20
-4.3177176790711922
 30
0.0
 40
8.5391925208776573
 50
160.7291742754098891
 51
163.1083552605211082
  0
ARC
  5
DB3
  8
0
 10
71.3992146037798676
 20
-1.3033570611255789
 30
0.0
 40
0.8074790244599631
 50
345.9420903313583722
 51
6.1378166194840551
  0
ARC
  5
DB4
  8
0
 10
325.4645353575875788
 20
23.3768986480833689
 30
0.0
 40
254.4538069453319906
 50
185.4794514066167039
 51
185.5465119486908065
  0
ARC
  5
DB5
  8
0
 10
72.0602249680224958
 20
-0.9199372400193936
 30
0.0
 40
0.1132297635238543
 50
359.6752306798755967
 51
63.452956933236301
  0
ARC
  5
DB6
  8
0
 10
86.3662615465736252
 20
-1.004617911240048
 30
0.0
 40
0.1908680862440541
 50
103.0050545652403997
 51
126.921016751441897
  0
ARC
  5
DB7
  8
0
 10
79.0838801585368145
 20
8.6871972772779493
 30
0.0
 40
11.9320177223913308
 50
305.0555727948935782
 51
306.9210167514419823
  0
ARC
  5
DB8
  8
0
 10
86.0889985543814333
 20
-1.296524665556622
 30
0.0
 40
0.2641450992357009
 50
125.0555727948937061
 51
150.9981915200490903
  0
ARC
  5
DB9
  8
0
 10
-42926.4576116495009046
 20
27391.2758183252190065
 30
0.0
 40
50994.1692315077525564
 50
327.5085166004042776
 51
327.5089292058721071
  0
ARC
  5
DBA
  8
0
 10
86.8334626050203866
 20
-2.101480643751152
 30
0.0
 40
1.3280878765567481
 50
152.0107997625472933
 51
171.4002118060039948
  0
ARC
  5
DBB
  8
0
 10
85.2042500171448154
 20
-2.029353447590633
 30
0.0
 40
0.3404186474854081
 50
21.8078837827412713
 51
34.4981678535384333
  0
ARC
  5
DBC
  8
0
 10
77.314026796235126
 20
-4.3177176790711922
 30
0.0
 40
8.5391925208776573
 50
16.8916447394788705
 51
19.2708257245901109
  0
ARC
  5
DBD
  8
0
 10
86.1580564770005282
 20
-1.3033570611255789
 30
0.0
 40
0.8074790244599631
 50
173.8621833805158019
 51
194.0579096686414005
  0
ARC
  5
DBE
  8
0
 10
-167.9072642768070978
 20
23.3768986480833689
 30
0.0
 40
254.4538069453319906
 50
354.4534880513090798
 51
354.5205485933831255
  0
ARC
  5
DBF
  8
0
 10
85.4970461127579142
 20
-0.9199372400193936
 30
0.0
 40
0.1132297635238543
 50
116.5470430657470047
 51
180.3247693201242896
  0
ARC
  5
DC0
  8
0
 10
78.7916734705146524
 20
44.3331543694088879
 30
0.0
 40
49.9499519996061494
 50
263.4175356863599973
 51
276.5508381274805174
  0
ARC
  5
DC1
  8
0
 10
84.3893053411588738
 20
-4.4137916752360828
 30
0.0
 40
0.8826693256195477
 50
276.5637234802778721
 51
307.3211827126617095
  0
ARC
  5
DC2
  8
0
 10
80.2347183118569234
 20
-5.705812758920608
 30
0.0
 40
0.209632201607206
 50
149.957943476628401
 51
176.9162936491964899
  0
ENDSEC
  0
EOF
