  0
SECTION
  2
HEADER
  9
$ACADVER
  1
AC1009
  9
$INSBASE
 10
1151.9897456755679741
 20
-1.837167167952596
 30
0.0
  9
$EXTMIN
 10
1142.0422566351369369
 20
-8.6026651001590437
 30
-0.0000000000000058
  9
$EXTMAX
 10
1161.964679090089021
 20
-1.830368471863721
 30
0.0000000000000104
  9
$LIMMIN
 10
0.0
 20
0.0
  9
$LIMMAX
 10
11.6929133858000007
 20
8.2677165353999982
  9
$ORTHOMODE
 70
     0
  9
$REGENMODE
 70
     1
  9
$FILLMODE
 70
     1
  9
$QTEXTMODE
 70
     0
  9
$MIRRTEXT
 70
     0
  9
$DRAGMODE
 70
     2
  9
$LTSCALE
 40
0.6431102362
  9
$OSMODE
 70
  4095
  9
$ATTMODE
 70
     1
  9
$TEXTSIZE
 40
0.2
  9
$TRACEWID
 40
0.05
  9
$TEXTSTYLE
  7
STANDARD
  9
$CLAYER
  8
0
  9
$CELTYPE
  6
BYLAYER
  9
$CECOLOR
 62
   256
  9
$DIMSCALE
 40
1.0
  9
$DIMASZ
 40
0.1875
  9
$DIMEXO
 40
0.0625
  9
$DIMDLI
 40
0.4443307087
  9
$DIMRND
 40
0.0
  9
$DIMDLE
 40
0.0
  9
$DIMEXE
 40
0.125
  9
$DIMTP
 40
0.01
  9
$DIMTM
 40
0.01
  9
$DIMTXT
 40
1.0
  9
$DIMCEN
 40
0.1052362205
  9
$DIMTSZ
 40
0.0
  9
$DIMTOL
 70
     1
  9
$DIMLIM
 70
     0
  9
$DIMTIH
 70
     0
  9
$DIMTOH
 70
     1
  9
$DIMSE1
 70
     0
  9
$DIMSE2
 70
     0
  9
$DIMTAD
 70
     0
  9
$DIMZIN
 70
     0
  9
$DIMBLK
  1

  9
$DIMASO
 70
     1
  9
$DIMSHO
 70
     1
  9
$DIMPOST
  1
\X
  9
$DIMAPOST
  1

  9
$DIMALT
 70
     1
  9
$DIMALTD
 70
     2
  9
$DIMALTF
 40
25.3999999999999986
  9
$DIMLFAC
 40
1.0
  9
$DIMTOFL
 70
     0
  9
$DIMTVP
 40
0.0
  9
$DIMTIX
 70
     0
  9
$DIMSOXD
 70
     0
  9
$DIMSAH
 70
     0
  9
$DIMBLK1
  1

  9
$DIMBLK2
  1

  9
$DIMSTYLE
  2
STANDARD
  9
$DIMCLRD
 70
     0
  9
$DIMCLRE
 70
     0
  9
$DIMCLRT
 70
     0
  9
$DIMTFAC
 40
1.0
  9
$DIMGAP
 40
0.09
  9
$LUNITS
 70
     2
  9
$LUPREC
 70
     4
  9
$SKETCHINC
 40
0.1
  9
$FILLETRAD
 40
0.0
  9
$AUNITS
 70
     0
  9
$AUPREC
 70
     0
  9
$MENU
  1
.
  9
$ELEVATION
 40
0.0
  9
$PELEVATION
 40
0.0
  9
$THICKNESS
 40
0.0
  9
$LIMCHECK
 70
     0
  9
$BLIPMODE
 70
     0
  9
$CHAMFERA
 40
0.0
  9
$CHAMFERB
 40
0.0
  9
$SKPOLY
 70
     0
  9
$TDCREATE
 40
2458172.5207638889551163
  9
$TDUPDATE
 40
2460151.5841550920158625
  9
$TDINDWG
 40
0.2181572222
  9
$TDUSRTIMER
 40
0.2181572222
  9
$USRTIMER
 70
     1
  9
$ANGBASE
 50
0.0
  9
$ANGDIR
 70
     0
  9
$PDMODE
 70
     0
  9
$PDSIZE
 40
0.3125
  9
$PLINEWID
 40
0.0
  9
$COORDS
 70
     1
  9
$SPLFRAME
 70
     0
  9
$SPLINETYPE
 70
     6
  9
$SPLINESEGS
 70
     8
  9
$ATTDIA
 70
     1
  9
$ATTREQ
 70
     1
  9
$HANDLING
 70
     1
  9
$HANDSEED
  5
EE04
  9
$SURFTAB1
 70
     6
  9
$SURFTAB2
 70
     6
  9
$SURFTYPE
 70
     6
  9
$SURFU
 70
     6
  9
$SURFV
 70
     6
  9
$UCSNAME
  2

  9
$UCSORG
 10
0.0
 20
0.0
 30
0.0
  9
$UCSXDIR
 10
1.0
 20
0.0
 30
0.0
  9
$UCSYDIR
 10
0.0
 20
1.0
 30
0.0
  9
$PUCSNAME
  2

  9
$PUCSORG
 10
0.0
 20
0.0
 30
0.0
  9
$PUCSXDIR
 10
1.0
 20
0.0
 30
0.0
  9
$PUCSYDIR
 10
0.0
 20
1.0
 30
0.0
  9
$USERI1
 70
     0
  9
$USERI2
 70
     0
  9
$USERI3
 70
     0
  9
$USERI4
 70
     0
  9
$USERI5
 70
     0
  9
$USERR1
 40
0.0
  9
$USERR2
 40
0.0
  9
$USERR3
 40
0.0
  9
$USERR4
 40
0.0
  9
$USERR5
 40
0.0
  9
$WORLDVIEW
 70
     1
  9
$SHADEDGE
 70
     3
  9
$SHADEDIF
 70
    70
  9
$TILEMODE
 70
     1
  9
$MAXACTVP
 70
    64
  9
$PLIMCHECK
 70
     0
  9
$PEXTMIN
 10
1.0000000000000000E+20
 20
1.0000000000000000E+20
 30
1.0000000000000000E+20
  9
$PEXTMAX
 10
-1.0000000000000000E+20
 20
-1.0000000000000000E+20
 30
-1.0000000000000000E+20
  9
$PLIMMIN
 10
0.0
 20
0.0
  9
$PLIMMAX
 10
12.0
 20
9.0
  9
$UNITMODE
 70
     0
  9
$VISRETAIN
 70
     1
  9
$PLINEGEN
 70
     0
  9
$PSLTSCALE
 70
     1
  0
ENDSEC
  0
SECTION
  2
TABLES
  0
TABLE
  2
VPORT
 70
     1
  0
VPORT
  2
*ACTIVE
 70
     0
 10
0.0
 20
0.0
 11
1.0
 21
1.0
 12
778.1823313880034902
 22
-47.1029649182748429
 13
0.0
 23
0.0
 14
1.0
 24
1.0
 15
0.0
 25
0.0
 16
0.0
 26
0.0
 36
25.5757211105568096
 17
373.821136474609375
 27
41.8864481322634603
 37
0.0
 40
7.3402881064380976
 41
2.7227011494252871
 42
50.0
 43
0.0
 44
0.0
 50
0.0
 51
0.0
 71
     0
 72
   100
 73
     1
 74
     1
 75
     0
 76
     0
 77
     0
 78
     0
  0
ENDTAB
  0
TABLE
  2
LTYPE
 70
     2
  0
LTYPE
  2
CONTINUOUS
 70
     0
  3
Solid line
 72
    65
 73
     0
 40
0.0
  0
LTYPE
  2
PHANTOM2
 70
     0
  3
___ _ _ ___ _ _ ___ _ _ ___ _ _
 72
    65
 73
     6
 40
1.25
 49
0.625
 49
-0.125
 49
0.125
 49
-0.125
 49
0.125
 49
-0.125
  0
ENDTAB
  0
TABLE
  2
LAYER
 70
     2
  0
LAYER
  2
0
 70
     0
 62
   255
  6
CONTINUOUS
  0
LAYER
  2
DEFPOINTS
 70
     0
 62
     7
  6
CONTINUOUS
  0
ENDTAB
  0
TABLE
  2
STYLE
 70
     1
  0
STYLE
  2
STANDARD
 70
     0
 40
0.0
 41
0.8
 50
0.0
 71
     0
 42
0.2
  3
txt
  4

  0
ENDTAB
  0
TABLE
  2
VIEW
 70
     0
  0
ENDTAB
  0
TABLE
  2
UCS
 70
     0
  0
ENDTAB
  0
TABLE
  2
APPID
 70
    10
  0
APPID
  2
ACAD
 70
     0
  0
APPID
  2
ACAD_MLEADERVER
 70
     0
  0
APPID
  2
ACAD_EXEMPT_FROM_CAD_STANDARDS
 70
     0
  0
APPID
  2
ACAD_DSTYLE_DIMJAG
 70
     0
  0
APPID
  2
ACAD_DSTYLE_DIMTALN
 70
     0
  0
APPID
  2
ACAD_NAV_VCDISPLAY
 70
     0
  0
APPID
  2
ACAECLAYERSTANDARD
 70
     0
  0
APPID
  2
ACCMTRANSPARENCY
 70
     0
  0
APPID
  2
DCO15
 70
     0
  0
APPID
  2
ACDBATTR
 70
     0
  0
ENDTAB
  0
TABLE
  2
DIMSTYLE
 70
     1
  0
DIMSTYLE
  2
STANDARD
 70
     0
  3

  4

  5

  6

  7

 40
1.0
 41
0.1875
 42
0.0625
 43
0.38
 44
0.125
 45
0.0
 46
0.0
 47
0.01
 48
0.01
140
0.15625
141
0.09
142
0.0
143
25.3999999999999986
144
1.0
145
0.0
146
1.0
147
0.09
 71
     1
 72
     0
 73
     1
 74
     1
 75
     0
 76
     0
 77
     0
 78
     4
170
     0
171
     2
172
     0
173
     0
174
     0
175
     0
176
     0
177
     0
178
     0
  0
ENDTAB
  0
ENDSEC
  0
SECTION
  2
BLOCKS
  0
BLOCK
  8
0
  2
$MODEL_SPACE
 70
     0
 10
0.0
 20
0.0
 30
0.0
  3
$MODEL_SPACE
  1

  0
ENDBLK
  5
21
  8
0
  0
BLOCK
 67
     1
  8
0
  2
$PAPER_SPACE
 70
     0
 10
0.0
 20
0.0
 30
0.0
  3
$PAPER_SPACE
  1

  0
ENDBLK
  5
1D
 67
     1
  8
0
  0
BLOCK
  8
0
  2
_FILLED
 70
     0
 10
0.0
 20
0.0
 30
0.0
  3
_FILLED
  1

  0
SOLID
  5
B64D
  8
0
  6
BYBLOCK
 62
     0
 10
0.0
 20
0.0
 30
0.0
 11
-1.0
 21
0.1666666667
 31
0.0
 12
-1.0
 22
-0.1666666667
 32
0.0
 13
-1.0
 23
-0.1666666667
 33
0.0
  0
ENDBLK
  5
B64E
  8
0
  6
BYBLOCK
 62
     0
  0
ENDSEC
  0
SECTION
  2
ENTITIES
  0
ATTDEF
  5
829
  8
DEFPOINTS
 10
1151.9816153134700016
 20
-1.8327943727200591
 30
0.0
 40
0.001
  1
K-2882T
  3

  2
MODELNUMBER
 70
     0
1001
ACDBATTR
1070
     0
1070
     1
  0
ATTDEF
  5
82A
  8
DEFPOINTS
 10
1151.9816153134700016
 20
-1.834461039386724
 30
0.0
 40
0.001
  1
VERTICYL
  3

  2
TRADENAME
 70
     0
1001
ACDBATTR
1070
     0
1070
     1
  0
ATTDEF
  5
82B
  8
DEFPOINTS
 10
1151.9816153134700016
 20
-1.8361277060533889
 30
0.0
 40
0.001
  1
BATHROOM SINK
  3

  2
PRODUCT
 70
     0
1001
ACDBATTR
1070
     0
1070
     1
  0
LINE
  5
E936
  8
0
 10
1142.0907535869680487
 20
-2.0827380694525979
 30
0.0
 11
1142.0907535869680487
 21
-2.2171689964525978
 31
0.0
  0
LINE
  5
E937
  8
0
 10
1143.3553226475689826
 20
-5.9844920313525947
 30
0.0
 11
1142.9911280381729739
 21
-2.635239248967804
 31
0.0
  0
LINE
  5
E938
  8
0
 10
1143.2349485837739849
 20
-2.9568246283431119
 30
0.0
 11
1143.0540084235678933
 21
-2.6979486368525949
 31
0.0
  0
LINE
  5
E939
  8
0
 10
1150.5302977522680976
 20
-7.213754985752594
 30
0.0
 11
1150.6403183071690819
 21
-8.4829230711525945
 31
0.0
  0
LINE
  5
E93A
  8
0
 10
1150.7648562676690744
 20
-8.5971671679525947
 30
0.0
 11
1153.2146350834680106
 21
-8.5971671679525947
 31
0.0
  0
LINE
  5
E93B
  8
0
 10
1153.3391730439689127
 20
-8.4829230711525945
 30
0.0
 11
1153.4491935988689875
 21
-7.213754985752594
 31
0.0
  0
LINE
  5
E93C
  8
0
 10
1142.9479349417690628
 20
-2.605761385752595
 30
0.0
 11
1142.5458782752680236
 21
-2.375786245652594
 31
0.0
  0
LINE
  5
E93D
  8
0
 10
1142.2107638614259031
 20
-2.3371671679525901
 30
0.0
 11
1161.7687274897109546
 21
-2.337167167952594
 31
0.0
  0
LINE
  5
E93E
  8
0
 10
1161.6364256941180884
 20
-1.837167167952596
 30
0.0
 11
1142.3430656570189967
 21
-1.837167167952596
 31
0.0
  0
LINE
  5
E93F
  8
0
 10
1160.6241851426680114
 20
-5.9844966863525961
 30
0.0
 11
1160.9883816949300126
 21
-2.6352247635434209
 31
0.0
  0
ARC
  5
E940
  8
0
 10
1142.4004423180870162
 20
-2.6255603529707918
 30
0.0
 40
0.2890306598405355
 50
59.7890426096202106
 51
86.1939275974733619
  0
ARC
  5
E941
  8
0
 10
1142.3447763129458963
 20
-2.0913293790911558
 30
0.0
 40
0.254167967915994
 50
90.3856272907428462
 51
178.0629362096412933
  0
ARC
  5
E942
  8
0
 10
1142.2107515435438927
 20
-2.217169212009217
 30
0.0
 40
0.1199979565755971
 50
179.9998970775421014
 51
270.0058814558187237
  0
ARC
  5
E943
  8
0
 10
1153.2146364042339428
 20
-8.4721668874644891
 30
0.0
 40
0.1250002804950846
 50
269.9993946069760113
 51
355.0636349343955089
  0
LINE
  5
E944
  8
0
 10
1143.6439932362679883
 20
-2.9416802347525941
 30
0.0
 11
1143.5803766027690926
 21
-2.4408424890525948
 31
0.0
  0
ARC
  5
E945
  8
0
 10
1150.7648549469029149
 20
-8.4721668874644891
 30
0.0
 40
0.1250002804950846
 50
184.9363650656042921
 51
270.0006053930239887
  0
ARC
  5
E946
  8
0
 10
1142.7549039693039958
 20
-2.9349880780090039
 30
0.0
 40
0.3816427272002385
 50
38.3967258774330134
 51
59.6162094675857901
  0
ARC
  5
E947
  8
0
 10
1139.9322082001228864
 20
-4.9324932825666021
 30
0.0
 40
3.84855306226628
 50
28.0753588721433793
 51
30.8874721557978908
  0
ARC
  5
E948
  8
0
 10
1146.9024406294040546
 20
-0.8174934966071347
 30
0.0
 40
4.2525978766738843
 50
212.8012598055804006
 51
216.6282288004746874
  0
ARC
  5
E949
  8
0
 10
1142.6340601656070248
 20
-4.554359543806684
 30
0.0
 40
1.4735099739737569
 50
50.2536547331455665
 51
54.5048430754294699
  0
ARC
  5
E94A
  8
0
 10
1143.3575084135889028
 20
-2.442603226258933
 30
0.0
 40
0.2228751442932669
 50
0.4526474250040124
 51
28.2339120538454686
  0
ARC
  5
E94B
  8
0
 10
1142.6405065192859638
 20
-3.0445367187641832
 30
0.0
 40
1.0087442924068379
 50
338.0622046015737965
 51
5.8523278830704752
  0
LINE
  5
E94C
  8
0
 10
1160.7710837119570897
 20
-2.9218241835291479
 30
0.0
 11
1160.9254829275689644
 21
-2.6979486368525949
 31
0.0
  0
LINE
  5
E94D
  8
0
 10
1161.0315564093680223
 20
-2.605761385752595
 30
0.0
 11
1161.4336130758690615
 21
-2.375786245652594
 31
0.0
  0
ARC
  5
E94E
  8
0
 10
1161.5790490330500688
 20
-2.6255603529707918
 30
0.0
 40
0.2890306598405355
 50
93.8060724025266239
 51
120.2109573903798037
  0
LINE
  5
E94F
  8
0
 10
1160.3354981148690968
 20
-2.9416802347525941
 30
0.0
 11
1160.3991147483689019
 21
-2.4408424890525948
 31
0.0
  0
ARC
  5
E950
  8
0
 10
1161.2245873818339987
 20
-2.9349880780090039
 30
0.0
 40
0.3816427272002385
 50
120.3837905324140962
 51
141.6032741225670009
  0
ARC
  5
E951
  8
0
 10
1162.1861166155040337
 20
-3.9052367121814942
 30
0.0
 40
1.7232000231051849
 50
145.2016643645278862
 51
152.9372529084755001
  0
ARC
  5
E952
  8
0
 10
1157.0770507217330305
 20
-0.8174934966071347
 30
0.0
 40
4.2525978766738843
 50
323.3717711995251989
 51
327.1987401944194858
  0
ARC
  5
E953
  8
0
 10
1161.3454311855300602
 20
-4.554359543806684
 30
0.0
 40
1.4735099739737569
 50
125.4951569245704945
 51
129.7463452668544051
  0
ARC
  5
E954
  8
0
 10
1160.6219829375479549
 20
-2.442603226258933
 30
0.0
 40
0.2228751442932669
 50
151.7660879461544994
 51
179.5473525749960118
  0
ARC
  5
E955
  8
0
 10
1161.3389848318508939
 20
-3.0445367187641832
 30
0.0
 40
1.0087442924068379
 50
174.147672116929499
 51
201.9377953984262035
  0
ARC
  5
E956
  8
0
 10
1144.2942735705848918
 20
-5.9551206891262254
 30
0.0
 40
0.9394101934605354
 50
181.7916861647478015
 51
264.7695632116104889
  0
ARC
  5
E957
  8
0
 10
1152.0600147425370778
 20
-6.6467920411512322
 30
0.0
 40
1.588158338526189
 50
199.0716592481126099
 51
225.8312098503922982
  0
ARC
  5
E958
  8
0
 10
1151.9671893463530523
 20
-6.7150276354681164
 30
0.0
 40
1.474658139220727
 50
226.5709225830188132
 51
270.8764288020855133
  0
ARC
  5
E959
  8
0
 10
1150.33715205775502
 20
-7.2288223152398361
 30
0.0
 40
0.1937325056026137
 50
4.4606199436072211
 51
31.7405102647808199
  0
ARC
  5
E95A
  8
0
 10
1149.5019771671929902
 20
51.5301017464578166
 30
0.0
 40
58.6655289701566431
 50
270.2550059744170881
 51
270.9766330505657947
  0
ARC
  5
E95B
  8
0
 10
1151.9192669281130748
 20
-6.6466209465181461
 30
0.0
 40
1.5884271633597169
 50
314.169915102746188
 51
340.9250269419856068
  0
ARC
  5
E95C
  8
0
 10
1152.0123020047840328
 20
-6.7150276354681164
 30
0.0
 40
1.474658139220727
 50
269.1235711979146004
 51
313.4290774169812153
  0
ARC
  5
E95D
  8
0
 10
1153.642339272586014
 20
-7.2288223039367621
 30
0.0
 40
0.1937324839905018
 50
148.2594896981688919
 51
175.5393829107781016
  0
ARC
  5
E95E
  8
0
 10
1154.4774964094090137
 20
51.52848719237344
 30
0.0
 40
58.6639143476594498
 50
269.0233574292228127
 51
269.7151614639786885
  0
ARC
  5
E95F
  8
0
 10
1153.3862922807129507
 20
138.5521265717983113
 30
0.0
 40
145.7320201852274124
 50
266.3893370442002038
 51
268.5753560290019095
  0
ARC
  5
E960
  8
0
 10
1151.2463223647650921
 20
124.1459000878157042
 30
0.0
 40
131.3135081114430136
 50
271.2827090918278259
 51
273.7221173417941031
  0
ARC
  5
E961
  8
0
 10
1159.7116278755449912
 20
-5.9799761382279106
 30
0.0
 40
0.9125684638066269
 50
273.7221173417941031
 51
359.7161753904480861
  0
ARC
  5
E962
  8
0
 10
177.0808807674698926
 20
-5.5769150484243886
 30
0.0
 40
973.4794451551631482
 50
359.906487949807115
 51
359.9734007897549191
  0
ARC
  5
E963
  8
0
 10
1591.1566243089309864
 20
-6.234050177566842
 30
0.0
 40
440.5964510752597789
 50
179.8760321034743868
 51
179.9733150678692084
  0
ARC
  5
E964
  8
0
 10
1147.0278623125320792
 20
-5.2731103876822667
 30
0.0
 40
3.5333504892532508
 50
359.8760321034744152
 51
20.9736346090604791
  0
ARC
  5
E965
  8
0
 10
1157.4688283654149927
 20
-1.2707105581836331
 30
0.0
 40
7.6484640554720391
 50
188.7982040895176112
 51
200.9736346090604115
  0
ARC
  5
E966
  8
0
 10
1149.7888627989659653
 20
-2.4593855502209281
 30
0.0
 40
0.1229463273699411
 50
8.7982040895175988
 51
83.7620242892775622
  0
ARC
  5
E967
  8
0
 10
2086.5249348620482124
 20
-5.607445875709951
 30
0.0
 40
933.1057596849648235
 50
180.0258754128589942
 51
180.0956836627601945
  0
ARC
  5
E968
  8
0
 10
712.8228670422066671
 20
-6.234050177566842
 30
0.0
 40
440.5964510752597789
 50
0.0266849321307428
 51
0.1239678965255533
  0
ARC
  5
E969
  8
0
 10
1156.9516290386050059
 20
-5.2731103876822667
 30
0.0
 40
3.5333504892532508
 50
159.0263653909395032
 51
180.1239678965254996
  0
ARC
  5
E96A
  8
0
 10
1146.5106629857220923
 20
-1.2707105581836331
 30
0.0
 40
7.6484640554720391
 50
339.0263653909394748
 51
351.2017959104823035
  0
ARC
  5
E96B
  8
0
 10
1154.1906285521708924
 20
-2.4593855502209281
 30
0.0
 40
0.1229463273699411
 50
96.237975710722452
 51
171.2017959104823888
  0
LINE
  5
E96C
  8
0
 10
1161.8887377641690364
 20
-2.0827380694525979
 30
0.0
 11
1161.8887377641690364
 21
-2.2171689964525978
 31
0.0
  0
ARC
  5
E96D
  8
0
 10
1161.6347150382021027
 20
-2.091329379079899
 30
0.0
 40
0.2541679679046312
 50
1.9370637879063399
 51
89.6143727117324431
  0
ARC
  5
E96E
  8
0
 10
1161.768739807592965
 20
-2.2171692120092241
 30
0.0
 40
0.11999795657559
 50
269.9941185441292077
 51
0.0001029224616647
  0
ENDSEC
  0
EOF
