  0
SECTION
  2
HEADER
  9
$ACADVER
  1
AC1009
  9
$INSBASE
 10
3446.700179676190146
 20
190.7430803355032083
 30
0.0
  9
$EXTMIN
 10
3435.3902037012890105
 20
182.4655803260731091
 30
0.0
  9
$EXTMAX
 10
3458.0101556494751094
 20
199.0205803349115001
 30
0.0
  9
$LIMMIN
 10
0.0
 20
0.0
  9
$LIMMAX
 10
11.6929133858000007
 20
8.2677165353999982
  9
$ORTHOMODE
 70
     0
  9
$REGENMODE
 70
     1
  9
$FILLMODE
 70
     1
  9
$QTEXTMODE
 70
     0
  9
$MIRRTEXT
 70
     0
  9
$DRAGMODE
 70
     2
  9
$LTSCALE
 40
0.6431102362
  9
$OSMODE
 70
  4095
  9
$ATTMODE
 70
     1
  9
$TEXTSIZE
 40
0.2
  9
$TRACEWID
 40
0.05
  9
$TEXTSTYLE
  7
STANDARD
  9
$CLAYER
  8
0
  9
$CELTYPE
  6
BYLAYER
  9
$CECOLOR
 62
   256
  9
$DIMSCALE
 40
1.0
  9
$DIMASZ
 40
0.1875
  9
$DIMEXO
 40
0.0625
  9
$DIMDLI
 40
0.4443307087
  9
$DIMRND
 40
0.0
  9
$DIMDLE
 40
0.0
  9
$DIMEXE
 40
0.125
  9
$DIMTP
 40
0.01
  9
$DIMTM
 40
0.01
  9
$DIMTXT
 40
2.0
  9
$DIMCEN
 40
0.1052362205
  9
$DIMTSZ
 40
0.0
  9
$DIMTOL
 70
     1
  9
$DIMLIM
 70
     0
  9
$DIMTIH
 70
     1
  9
$DIMTOH
 70
     1
  9
$DIMSE1
 70
     0
  9
$DIMSE2
 70
     0
  9
$DIMTAD
 70
     0
  9
$DIMZIN
 70
     0
  9
$DIMBLK
  1

  9
$DIMASO
 70
     1
  9
$DIMSHO
 70
     1
  9
$DIMPOST
  1
\X
  9
$DIMAPOST
  1

  9
$DIMALT
 70
     1
  9
$DIMALTD
 70
     2
  9
$DIMALTF
 40
25.3999999999999986
  9
$DIMLFAC
 40
1.0
  9
$DIMTOFL
 70
     0
  9
$DIMTVP
 40
0.0
  9
$DIMTIX
 70
     0
  9
$DIMSOXD
 70
     0
  9
$DIMSAH
 70
     0
  9
$DIMBLK1
  1

  9
$DIMBLK2
  1

  9
$DIMSTYLE
  2
STANDARD
  9
$DIMCLRD
 70
     0
  9
$DIMCLRE
 70
     0
  9
$DIMCLRT
 70
     0
  9
$DIMTFAC
 40
1.0
  9
$DIMGAP
 40
0.09
  9
$LUNITS
 70
     2
  9
$LUPREC
 70
     4
  9
$SKETCHINC
 40
0.1
  9
$FILLETRAD
 40
0.0
  9
$AUNITS
 70
     0
  9
$AUPREC
 70
     0
  9
$MENU
  1
.
  9
$ELEVATION
 40
0.0
  9
$PELEVATION
 40
0.0
  9
$THICKNESS
 40
0.0
  9
$LIMCHECK
 70
     0
  9
$BLIPMODE
 70
     0
  9
$CHAMFERA
 40
0.0
  9
$CHAMFERB
 40
0.0
  9
$SKPOLY
 70
     0
  9
$TDCREATE
 40
2458060.468368056230247
  9
$TDUPDATE
 40
2459015.3810532409697771
  9
$TDINDWG
 40
0.5169862269
  9
$TDUSRTIMER
 40
0.5169862269
  9
$USRTIMER
 70
     1
  9
$ANGBASE
 50
0.0
  9
$ANGDIR
 70
     0
  9
$PDMODE
 70
     0
  9
$PDSIZE
 40
0.3125
  9
$PLINEWID
 40
0.0
  9
$COORDS
 70
     1
  9
$SPLFRAME
 70
     0
  9
$SPLINETYPE
 70
     6
  9
$SPLINESEGS
 70
     8
  9
$ATTDIA
 70
     1
  9
$ATTREQ
 70
     1
  9
$HANDLING
 70
     1
  9
$HANDSEED
  5
9012
  9
$SURFTAB1
 70
     6
  9
$SURFTAB2
 70
     6
  9
$SURFTYPE
 70
     6
  9
$SURFU
 70
     6
  9
$SURFV
 70
     6
  9
$UCSNAME
  2

  9
$UCSORG
 10
0.0
 20
0.0
 30
0.0
  9
$UCSXDIR
 10
1.0
 20
0.0
 30
0.0
  9
$UCSYDIR
 10
0.0
 20
1.0
 30
0.0
  9
$PUCSNAME
  2

  9
$PUCSORG
 10
0.0
 20
0.0
 30
0.0
  9
$PUCSXDIR
 10
1.0
 20
0.0
 30
0.0
  9
$PUCSYDIR
 10
0.0
 20
1.0
 30
0.0
  9
$USERI1
 70
     0
  9
$USERI2
 70
     0
  9
$USERI3
 70
     0
  9
$USERI4
 70
     0
  9
$USERI5
 70
     0
  9
$USERR1
 40
0.0
  9
$USERR2
 40
0.0
  9
$USERR3
 40
0.0
  9
$USERR4
 40
0.0
  9
$USERR5
 40
0.0
  9
$WORLDVIEW
 70
     1
  9
$SHADEDGE
 70
     3
  9
$SHADEDIF
 70
    70
  9
$TILEMODE
 70
     1
  9
$MAXACTVP
 70
    64
  9
$PLIMCHECK
 70
     0
  9
$PEXTMIN
 10
1.0000000000000000E+20
 20
1.0000000000000000E+20
 30
1.0000000000000000E+20
  9
$PEXTMAX
 10
-1.0000000000000000E+20
 20
-1.0000000000000000E+20
 30
-1.0000000000000000E+20
  9
$PLIMMIN
 10
0.0
 20
0.0
  9
$PLIMMAX
 10
12.0
 20
9.0
  9
$UNITMODE
 70
     0
  9
$VISRETAIN
 70
     1
  9
$PLINEGEN
 70
     0
  9
$PSLTSCALE
 70
     1
  0
ENDSEC
  0
SECTION
  2
TABLES
  0
TABLE
  2
VPORT
 70
     1
  0
VPORT
  2
*ACTIVE
 70
     0
 10
0.0
 20
0.0
 11
1.0
 21
1.0
 12
-106.6614888719787047
 22
-85.0790930626537829
 13
0.0
 23
0.0
 14
1.0
 24
1.0
 15
0.0
 25
0.0
 16
0.0
 26
0.0
 36
96.5995694866707311
 17
3303.693115234375
 27
195.2615115758877096
 37
0.0
 40
2859.712281002826785
 41
2.6486111111111108
 42
50.0
 43
0.0
 44
0.0
 50
0.0
 51
0.0
 71
     0
 72
   100
 73
     1
 74
     1
 75
     0
 76
     0
 77
     0
 78
     0
  0
ENDTAB
  0
TABLE
  2
LTYPE
 70
     2
  0
LTYPE
  2
CONTINUOUS
 70
     0
  3
Solid line
 72
    65
 73
     0
 40
0.0
  0
LTYPE
  2
PHANTOM2
 70
     0
  3
___ _ _ ___ _ _ ___ _ _ ___ _ _
 72
    65
 73
     6
 40
1.25
 49
0.625
 49
-0.125
 49
0.125
 49
-0.125
 49
0.125
 49
-0.125
  0
ENDTAB
  0
TABLE
  2
LAYER
 70
     2
  0
LAYER
  2
0
 70
     0
 62
   255
  6
CONTINUOUS
  0
LAYER
  2
DEFPOINTS
 70
     0
 62
     7
  6
CONTINUOUS
  0
ENDTAB
  0
TABLE
  2
STYLE
 70
     1
  0
STYLE
  2
STANDARD
 70
     0
 40
0.0
 41
0.8
 50
0.0
 71
     0
 42
0.2
  3
txt
  4

  0
ENDTAB
  0
TABLE
  2
VIEW
 70
     0
  0
ENDTAB
  0
TABLE
  2
UCS
 70
     0
  0
ENDTAB
  0
TABLE
  2
APPID
 70
     9
  0
APPID
  2
ACAD
 70
     0
  0
APPID
  2
ACAD_MLEADERVER
 70
     0
  0
APPID
  2
ACAD_EXEMPT_FROM_CAD_STANDARDS
 70
     0
  0
APPID
  2
ACAD_NAV_VCDISPLAY
 70
     0
  0
APPID
  2
ACAECLAYERSTANDARD
 70
     0
  0
APPID
  2
ACCMTRANSPARENCY
 70
     0
  0
APPID
  2
ACAD_DSTYLE_DIMJAG
 70
     0
  0
APPID
  2
ACAD_DSTYLE_DIMTALN
 70
     0
  0
APPID
  2
ACDBATTR
 70
     0
  0
ENDTAB
  0
TABLE
  2
DIMSTYLE
 70
     1
  0
DIMSTYLE
  2
STANDARD
 70
     0
  3

  4

  5

  6

  7

 40
1.0
 41
0.1875
 42
0.0625
 43
0.38
 44
0.125
 45
0.0
 46
0.0
 47
0.01
 48
0.01
140
0.15625
141
0.09
142
0.0
143
25.3999999999999986
144
1.0
145
0.0
146
1.0
147
0.09
 71
     1
 72
     0
 73
     1
 74
     1
 75
     0
 76
     0
 77
     0
 78
     4
170
     0
171
     2
172
     0
173
     0
174
     0
175
     0
176
     0
177
     0
178
     0
  0
ENDTAB
  0
ENDSEC
  0
SECTION
  2
BLOCKS
  0
BLOCK
  8
0
  2
$MODEL_SPACE
 70
     0
 10
0.0
 20
0.0
 30
0.0
  3
$MODEL_SPACE
  1

  0
ENDBLK
  5
21
  8
0
  0
BLOCK
 67
     1
  8
0
  2
$PAPER_SPACE
 70
     0
 10
0.0
 20
0.0
 30
0.0
  3
$PAPER_SPACE
  1

  0
ENDBLK
  5
1D
 67
     1
  8
0
  0
BLOCK
  8
0
  2
_FILLED
 70
     0
 10
0.0
 20
0.0
 30
0.0
  3
_FILLED
  1

  0
SOLID
  5
8C44
  8
0
  6
BYBLOCK
 62
     0
 10
0.0
 20
0.0
 30
0.0
 11
-1.0
 21
0.1666666667
 31
0.0
 12
-1.0
 22
-0.1666666667
 32
0.0
 13
-1.0
 23
-0.1666666667
 33
0.0
  0
ENDBLK
  5
8C45
  8
0
  6
BYBLOCK
 62
     0
  0
ENDSEC
  0
SECTION
  2
ENTITIES
  0
ATTDEF
  5
3930
  8
DEFPOINTS
 10
3446.7014466806040218
 20
190.7427586819916883
 30
0.0
 40
0.001
  1
K-2889T
  3

  2
MODELNUMBER
 70
     0
1001
ACDBATTR
1070
     0
1070
     1
  0
ATTDEF
  5
3931
  8
DEFPOINTS
 10
3446.7014466806040218
 20
190.7410920153249947
 30
0.0
 40
0.001
  1
VERTICYL
  3

  2
TRADENAME
 70
     0
1001
ACDBATTR
1070
     0
1070
     1
  0
ATTDEF
  5
3932
  8
DEFPOINTS
 10
3446.7014466806040218
 20
190.7394253486583864
 30
0.0
 40
0.001
  1
BATHROOM SINK
  3

  2
PRODUCT
 70
     0
1001
ACDBATTR
1070
     0
1070
     1
  0
ARC
  5
8C83
  8
0
 10
3435.6402106497380373
 20
198.7705734386557026
 30
0.0
 40
0.2500068963512937
 50
90.0015839866422453
 51
179.9984194923655139
  0
LINE
  5
8C84
  8
0
 10
3435.3902037534821829
 20
198.7705803351115037
 30
0.0
 11
3435.3902037012890105
 21
182.8855803359114987
 31
0.0
  0
ARC
  5
8C85
  8
0
 10
3435.6402037014668167
 20
182.8855803350901112
 30
0.0
 40
0.250000000178586
 50
179.9999998117453117
 51
270.0000119563745216
  0
LINE
  5
8C86
  8
0
 10
3435.640203753636797
 20
182.6355803349115092
 30
0.0
 11
3444.1992827589820081
 21
182.6355821210034094
 31
0.0
  0
ARC
  5
8C87
  8
0
 10
3444.1992828111469862
 20
182.385603008051703
 30
0.0
 40
0.2499791129518042
 50
66.9724863367270586
 51
90.00001195637455
  0
LINE
  5
8C88
  8
0
 10
3444.2970679190821102
 20
182.6156630645114944
 30
0.0
 11
3444.6033349948488649
 21
182.485486798706205
 31
0.0
  0
ARC
  5
8C89
  8
0
 10
3444.7010582948269075
 20
182.7154013565154003
 30
0.0
 40
0.2498210304422349
 50
246.9724789426284133
 51
270.0152408518134166
  0
LINE
  5
8C8A
  8
0
 10
3456.4221089686739106
 20
197.9629065948471123
 30
0.0
 11
3436.9782503820888451
 21
197.972631458411513
 31
0.0
  0
ARC
  5
8C8B
  8
0
 10
3437.0424303059739941
 20
197.28415430799501
 30
0.0
 40
0.6914621097901757
 50
95.3257282938090782
 51
179.8322950287245021
  0
LINE
  5
8C8C
  8
0
 10
3436.3509711581809825
 20
197.2861782174115035
 30
0.0
 11
3436.3509743093381985
 21
184.0769326633678133
 31
0.0
  0
ARC
  5
8C8D
  8
0
 10
3437.0353807181841148
 20
184.074861159928389
 30
0.0
 40
0.6844095411313905
 50
179.8266734961385112
 51
270.9109791597491039
  0
LINE
  5
8C8E
  8
0
 10
3437.0462620878979578
 20
183.3905381252548921
 30
0.0
 11
3456.3650016267611136
 21
183.3912234651187134
 31
0.0
  0
CIRCLE
  5
8C8F
  8
0
 10
3446.7001796753820599
 20
190.6005803349115126
 30
0.0
 40
0.8860000000000001
  0
CIRCLE
  5
8C90
  8
0
 10
3446.7001796753820599
 20
190.6005803349115126
 30
0.0
 40
1.181035439000002
  0
ARC
  5
8C91
  8
0
 10
3446.6855892291418968
 20
180.8121713737243113
 30
0.0
 40
3.0564167594839708
 50
89.7264855444749259
 51
94.7863265984561281
  0
ARC
  5
8C92
  8
0
 10
3446.5191664712538113
 20
182.7997354294130901
 30
0.0
 40
1.0618974164317849
 50
94.7863265984561281
 51
100.1089791415694066
  0
ARC
  5
8C93
  8
0
 10
3446.3764230011120162
 20
183.6003659341610046
 30
0.0
 40
0.2486416735065267
 50
100.1089791415694066
 51
109.0118901241608
  0
ARC
  5
8C94
  8
0
 10
3446.3113120998568775
 20
183.789334321097698
 30
0.0
 40
0.0487705131962116
 50
109.0118901241608
 51
126.5723928038702013
  0
ARC
  5
8C95
  8
0
 10
3446.2871996439398572
 20
183.8218344746792923
 30
0.0
 40
0.0083023712427171
 50
126.572392803872205
 51
173.3129675646887051
  0
ARC
  5
8C96
  8
0
 10
3446.6855856183337892
 20
186.8333724523386081
 30
0.0
 40
3.0563579838634398
 50
265.2136490694741724
 51
270.2735874059316075
  0
ARC
  5
8C97
  8
0
 10
3446.5191664712538113
 20
184.8458670756097888
 30
0.0
 40
1.0618974164317849
 50
259.8910208584305224
 51
265.2136734015438719
  0
ARC
  5
8C98
  8
0
 10
3446.3764230011120162
 20
184.045236570861988
 30
0.0
 40
0.2486416735065267
 50
250.9881098758392
 51
259.8910208584305224
  0
ARC
  5
8C99
  8
0
 10
3446.3113120998568775
 20
183.8562681839252946
 30
0.0
 40
0.0487705131962116
 50
233.4276071961297987
 51
250.9881098758392
  0
ARC
  5
8C9A
  8
0
 10
3446.2871996439398572
 20
183.8237680303437003
 30
0.0
 40
0.0083023712427171
 50
186.6870324353112949
 51
233.4276071961278092
  0
ARC
  5
8C9B
  8
0
 10
3446.7163720724070117
 20
180.8121794408866947
 30
0.0
 40
3.05641675948499
 50
85.2437040521868425
 51
90.3035451061589498
  0
ARC
  5
8C9C
  8
0
 10
3446.8817530581209212
 20
182.7998304513455139
 30
0.0
 40
1.061897416431784
 50
79.9210515090804137
 51
85.2437040521868425
  0
ARC
  5
8C9D
  8
0
 10
3447.0240768712228601
 20
183.6005356627842957
 30
0.0
 40
0.2486416735065267
 50
71.0181405264806784
 51
79.9210515090804137
  0
ARC
  5
8C9E
  8
0
 10
3447.0890887188329543
 20
183.7895381505825867
 30
0.0
 40
0.0487705131962116
 50
53.4576378467772031
 51
71.0181405264806784
  0
ARC
  5
8C9F
  8
0
 10
3447.1131841370120128
 20
183.822050937851003
 30
0.0
 40
0.0083023712427171
 50
6.7170630859536251
 51
53.4576378467752775
  0
ARC
  5
8CA0
  8
0
 10
3446.7132128807797926
 20
186.8334906816891134
 30
0.0
 40
3.0564691576467409
 50
269.7556821654769124
 51
274.8163355579666813
  0
ARC
  5
8CA1
  8
0
 10
3446.8806806115580912
 20
184.8459618164893925
 30
0.0
 40
1.061897416431784
 50
274.8163572490918796
 51
280.1390097922068207
  0
ARC
  5
8CA2
  8
0
 10
3447.023843699525969
 20
184.0454062383786891
 30
0.0
 40
0.2486416735065267
 50
280.1390097922068207
 51
289.041920774792402
  0
ARC
  5
8CA3
  8
0
 10
3447.0890536365400294
 20
183.856472004216414
 30
0.0
 40
0.0487705131962116
 50
289.041920774792402
 51
306.6024234544971137
  0
ARC
  5
8CA4
  8
0
 10
3447.1131831235697973
 20
183.8239844932496965
 30
0.0
 40
0.0083023712427171
 50
306.6024234545199079
 51
353.3429982153286915
  0
LINE
  5
8CA5
  8
0
 10
3455.9483026581528975
 20
197.3098342615984109
 30
0.0
 11
3437.4520566926098581
 21
197.3090955078284878
 31
0.0
  0
ARC
  5
8CA6
  8
0
 10
3437.4513450501631269
 20
196.8716335077128861
 30
0.0
 40
0.4374625789483563
 50
89.9067940237468974
 51
180.0006546276098049
  0
LINE
  5
8CA7
  8
0
 10
3437.0138824712430505
 20
196.8716285095248111
 30
0.0
 11
3437.0136571251678106
 21
184.496331646083803
 31
0.0
  0
ARC
  5
8CA8
  8
0
 10
3437.4572220131549329
 20
184.5027819630577994
 30
0.0
 40
0.4436117857367162
 50
180.8331360328483015
 51
269.9654450718372232
  0
LINE
  5
8CA9
  8
0
 10
3437.4569535204791464
 20
184.0591502849090091
 30
0.0
 11
3455.943404847578222
 21
184.0591502849090091
 31
0.0
  0
ARC
  5
8CAA
  8
0
 10
3457.7596113314289141
 20
198.7700361785364009
 30
0.0
 40
0.2505448567775325
 50
0.1244403898587328
 51
89.864521981970654
  0
ARC
  5
8CAB
  8
0
 10
3457.7603148680518643
 20
182.8863054358691898
 30
0.0
 40
0.2498418336299754
 50
269.9895385802147985
 51
359.8337138940160003
  0
LINE
  5
8CAC
  8
0
 10
3457.7602692503769504
 20
182.6364636064037938
 30
0.0
 11
3449.2011902721837941
 21
182.635781851077212
 31
0.0
  0
ARC
  5
8CAD
  8
0
 10
3449.2012101837408409
 20
182.385802738918386
 30
0.0
 40
0.2499791129518042
 50
90.0045637740765869
 51
113.0320893937352054
  0
LINE
  5
8CAE
  8
0
 10
3449.1034067031628183
 20
182.615854985373204
 30
0.0
 11
3448.7971500244511844
 21
182.4856542610160091
 31
0.0
  0
ARC
  5
8CAF
  8
0
 10
3448.6982098625130675
 20
182.719416256039807
 30
0.0
 40
0.2538381885412561
 50
270.2421724756840149
 51
292.9405936002178805
  0
ARC
  5
8CB0
  8
0
 10
3456.3773915889541968
 20
197.2934273852355034
 30
0.0
 40
0.6709709801111343
 50
359.4515417500527974
 51
86.1786460502726044
  0
LINE
  5
8CB1
  8
0
 10
3457.0483318284668712
 20
197.2870046791888967
 30
0.0
 11
3457.0493835882939493
 21
184.0777591670170068
 31
0.0
  0
ARC
  5
8CB2
  8
0
 10
3456.3649773470638138
 20
184.0756330058194123
 30
0.0
 40
0.6844095411313904
 50
269.0935965706970023
 51
0.1779022343133885
  0
ARC
  5
8CB3
  8
0
 10
3455.9479915585297931
 20
196.8723723056293977
 30
0.0
 40
0.4374620665877053
 50
0.0038932893986636
 51
89.9592543027342089
  0
LINE
  5
8CB4
  8
0
 10
3456.3854536241078677
 20
196.8724020314913048
 30
0.0
 11
3456.3866672807198483
 21
184.497105225510694
 31
0.0
  0
ARC
  5
8CB5
  8
0
 10
3455.9417888014540949
 20
184.5040805089749085
 30
0.0
 40
0.4449331589041554
 50
270.2081050244449898
 51
359.1017287250367076
  0
LINE
  5
8CB7
  8
0
 10
3458.0101555972819369
 20
198.7705803351115037
 30
0.0
 11
3458.0101556494751094
 21
182.8855803359114987
 31
0.0
  0
LINE
  5
8CB8
  8
0
 10
3435.6402037534821829
 20
199.0205803349115001
 30
0.0
 11
3457.7602037534820738
 21
199.0205803349115001
 31
0.0
  0
LINE
  5
8CB9
  8
0
 10
3448.6992827589820081
 20
182.4655803349114933
 30
0.0
 11
3444.7011247479808844
 21
182.4655803349114933
 31
0.0
  0
ENDSEC
  0
EOF
