  0
SECTION
  2
HEADER
  9
$ACADVER
  1
AC1009
  9
$INSBASE
 10
3094.7462030464380405
 20
89.9164984520244133
 30
0.0
  9
$EXTMIN
 10
3087.2227403104361656
 20
85.1090335855935081
 30
-0.0000000000112498
  9
$EXTMAX
 10
3112.3943141299100716
 20
92.2832393419358255
 30
0.0000000000002956
  9
$LIMMIN
 10
0.0
 20
0.0
  9
$LIMMAX
 10
11.6929133858000007
 20
8.2677165353999982
  9
$ORTHOMODE
 70
     0
  9
$REGENMODE
 70
     1
  9
$FILLMODE
 70
     1
  9
$QTEXTMODE
 70
     0
  9
$MIRRTEXT
 70
     0
  9
$DRAGMODE
 70
     2
  9
$LTSCALE
 40
0.6431102362
  9
$OSMODE
 70
  4095
  9
$ATTMODE
 70
     1
  9
$TEXTSIZE
 40
0.2
  9
$TRACEWID
 40
0.05
  9
$TEXTSTYLE
  7
STANDARD
  9
$CLAYER
  8
0
  9
$CELTYPE
  6
BYLAYER
  9
$CECOLOR
 62
   256
  9
$DIMSCALE
 40
1.0
  9
$DIMASZ
 40
0.1875
  9
$DIMEXO
 40
0.0625
  9
$DIMDLI
 40
0.4443307087
  9
$DIMRND
 40
0.0
  9
$DIMDLE
 40
0.0
  9
$DIMEXE
 40
0.125
  9
$DIMTP
 40
0.01
  9
$DIMTM
 40
0.01
  9
$DIMTXT
 40
2.0
  9
$DIMCEN
 40
0.1052362205
  9
$DIMTSZ
 40
0.0
  9
$DIMTOL
 70
     1
  9
$DIMLIM
 70
     0
  9
$DIMTIH
 70
     1
  9
$DIMTOH
 70
     1
  9
$DIMSE1
 70
     0
  9
$DIMSE2
 70
     0
  9
$DIMTAD
 70
     0
  9
$DIMZIN
 70
     0
  9
$DIMBLK
  1

  9
$DIMASO
 70
     1
  9
$DIMSHO
 70
     1
  9
$DIMPOST
  1
\X
  9
$DIMAPOST
  1

  9
$DIMALT
 70
     1
  9
$DIMALTD
 70
     2
  9
$DIMALTF
 40
25.3999999999999986
  9
$DIMLFAC
 40
1.0
  9
$DIMTOFL
 70
     0
  9
$DIMTVP
 40
0.0
  9
$DIMTIX
 70
     0
  9
$DIMSOXD
 70
     0
  9
$DIMSAH
 70
     0
  9
$DIMBLK1
  1

  9
$DIMBLK2
  1

  9
$DIMSTYLE
  2
STANDARD
  9
$DIMCLRD
 70
     0
  9
$DIMCLRE
 70
     0
  9
$DIMCLRT
 70
     0
  9
$DIMTFAC
 40
1.0
  9
$DIMGAP
 40
0.09
  9
$LUNITS
 70
     2
  9
$LUPREC
 70
     4
  9
$SKETCHINC
 40
0.1
  9
$FILLETRAD
 40
0.0
  9
$AUNITS
 70
     0
  9
$AUPREC
 70
     0
  9
$MENU
  1
.
  9
$ELEVATION
 40
0.0
  9
$PELEVATION
 40
0.0
  9
$THICKNESS
 40
0.0
  9
$LIMCHECK
 70
     0
  9
$BLIPMODE
 70
     0
  9
$CHAMFERA
 40
0.0
  9
$CHAMFERB
 40
0.0
  9
$SKPOLY
 70
     0
  9
$TDCREATE
 40
2458060.468368056230247
  9
$TDUPDATE
 40
2460034.5720601850189269
  9
$TDINDWG
 40
0.3149028935
  9
$TDUSRTIMER
 40
0.3149028935
  9
$USRTIMER
 70
     1
  9
$ANGBASE
 50
0.0
  9
$ANGDIR
 70
     0
  9
$PDMODE
 70
     0
  9
$PDSIZE
 40
0.3125
  9
$PLINEWID
 40
0.0
  9
$COORDS
 70
     1
  9
$SPLFRAME
 70
     0
  9
$SPLINETYPE
 70
     6
  9
$SPLINESEGS
 70
     8
  9
$ATTDIA
 70
     1
  9
$ATTREQ
 70
     1
  9
$HANDLING
 70
     1
  9
$HANDSEED
  5
73D2
  9
$SURFTAB1
 70
     6
  9
$SURFTAB2
 70
     6
  9
$SURFTYPE
 70
     6
  9
$SURFU
 70
     6
  9
$SURFV
 70
     6
  9
$UCSNAME
  2

  9
$UCSORG
 10
0.0
 20
0.0
 30
0.0
  9
$UCSXDIR
 10
1.0
 20
0.0
 30
0.0
  9
$UCSYDIR
 10
0.0
 20
1.0
 30
0.0
  9
$PUCSNAME
  2

  9
$PUCSORG
 10
0.0
 20
0.0
 30
0.0
  9
$PUCSXDIR
 10
1.0
 20
0.0
 30
0.0
  9
$PUCSYDIR
 10
0.0
 20
1.0
 30
0.0
  9
$USERI1
 70
     0
  9
$USERI2
 70
     0
  9
$USERI3
 70
     0
  9
$USERI4
 70
     0
  9
$USERI5
 70
     0
  9
$USERR1
 40
0.0
  9
$USERR2
 40
0.0
  9
$USERR3
 40
0.0
  9
$USERR4
 40
0.0
  9
$USERR5
 40
0.0
  9
$WORLDVIEW
 70
     1
  9
$SHADEDGE
 70
     3
  9
$SHADEDIF
 70
    70
  9
$TILEMODE
 70
     1
  9
$MAXACTVP
 70
    64
  9
$PLIMCHECK
 70
     0
  9
$PEXTMIN
 10
1.0000000000000000E+20
 20
1.0000000000000000E+20
 30
1.0000000000000000E+20
  9
$PEXTMAX
 10
-1.0000000000000000E+20
 20
-1.0000000000000000E+20
 30
-1.0000000000000000E+20
  9
$PLIMMIN
 10
0.0
 20
0.0
  9
$PLIMMAX
 10
12.0
 20
9.0
  9
$UNITMODE
 70
     0
  9
$VISRETAIN
 70
     1
  9
$PLINEGEN
 70
     0
  9
$PSLTSCALE
 70
     1
  0
ENDSEC
  0
SECTION
  2
TABLES
  0
TABLE
  2
VPORT
 70
     1
  0
VPORT
  2
*ACTIVE
 70
     0
 10
0.0
 20
0.0
 11
1.0
 21
1.0
 12
180.0531561264224081
 22
1.4214858900342049
 13
0.0
 23
0.0
 14
1.0
 24
1.0
 15
0.0
 25
0.0
 16
0.0
 26
0.0
 36
215.6888699471975031
 17
2919.75537109375
 27
87.2746505737304688
 37
0.0
 40
8.8753174948972724
 41
2.8451127819548869
 42
50.0
 43
0.0
 44
0.0
 50
0.0
 51
0.0
 71
     0
 72
   100
 73
     1
 74
     1
 75
     0
 76
     0
 77
     0
 78
     0
  0
ENDTAB
  0
TABLE
  2
LTYPE
 70
     2
  0
LTYPE
  2
CONTINUOUS
 70
     0
  3
Solid line
 72
    65
 73
     0
 40
0.0
  0
LTYPE
  2
PHANTOM2
 70
     0
  3
___ _ _ ___ _ _ ___ _ _ ___ _ _
 72
    65
 73
     6
 40
1.25
 49
0.625
 49
-0.125
 49
0.125
 49
-0.125
 49
0.125
 49
-0.125
  0
ENDTAB
  0
TABLE
  2
LAYER
 70
     2
  0
LAYER
  2
0
 70
     0
 62
   255
  6
CONTINUOUS
  0
LAYER
  2
DEFPOINTS
 70
     0
 62
     7
  6
CONTINUOUS
  0
ENDTAB
  0
TABLE
  2
STYLE
 70
     1
  0
STYLE
  2
STANDARD
 70
     0
 40
0.0
 41
0.8
 50
0.0
 71
     0
 42
0.2
  3
txt
  4

  0
ENDTAB
  0
TABLE
  2
VIEW
 70
     0
  0
ENDTAB
  0
TABLE
  2
UCS
 70
     0
  0
ENDTAB
  0
TABLE
  2
APPID
 70
     9
  0
APPID
  2
ACAD
 70
     0
  0
APPID
  2
ACAD_MLEADERVER
 70
     0
  0
APPID
  2
ACAD_EXEMPT_FROM_CAD_STANDARDS
 70
     0
  0
APPID
  2
ACAD_NAV_VCDISPLAY
 70
     0
  0
APPID
  2
ACAECLAYERSTANDARD
 70
     0
  0
APPID
  2
ACCMTRANSPARENCY
 70
     0
  0
APPID
  2
ACAD_DSTYLE_DIMJAG
 70
     0
  0
APPID
  2
ACAD_DSTYLE_DIMTALN
 70
     0
  0
APPID
  2
ACDBATTR
 70
     0
  0
ENDTAB
  0
TABLE
  2
DIMSTYLE
 70
     1
  0
DIMSTYLE
  2
STANDARD
 70
     0
  3

  4

  5

  6

  7

 40
1.0
 41
0.1875
 42
0.0625
 43
0.38
 44
0.125
 45
0.0
 46
0.0
 47
0.01
 48
0.01
140
0.15625
141
0.09
142
0.0
143
25.3999999999999986
144
1.0
145
0.0
146
1.0
147
0.09
 71
     1
 72
     0
 73
     1
 74
     1
 75
     0
 76
     0
 77
     0
 78
     4
170
     0
171
     2
172
     0
173
     0
174
     0
175
     0
176
     0
177
     0
178
     0
  0
ENDTAB
  0
ENDSEC
  0
SECTION
  2
BLOCKS
  0
BLOCK
  8
0
  2
$MODEL_SPACE
 70
     0
 10
0.0
 20
0.0
 30
0.0
  3
$MODEL_SPACE
  1

  0
ENDBLK
  5
21
  8
0
  0
BLOCK
 67
     1
  8
0
  2
$PAPER_SPACE
 70
     0
 10
0.0
 20
0.0
 30
0.0
  3
$PAPER_SPACE
  1

  0
ENDBLK
  5
1D
 67
     1
  8
0
  0
BLOCK
  8
0
  2
_FILLED
 70
     0
 10
0.0
 20
0.0
 30
0.0
  3
_FILLED
  1

  0
SOLID
  5
5A61
  8
0
  6
BYBLOCK
 62
     0
 10
0.0
 20
0.0
 30
0.0
 11
-1.0
 21
0.1666666667
 31
0.0
 12
-1.0
 22
-0.1666666667
 32
0.0
 13
-1.0
 23
-0.1666666667
 33
0.0
  0
ENDBLK
  5
5A62
  8
0
  6
BYBLOCK
 62
     0
  0
ENDSEC
  0
SECTION
  2
ENTITIES
  0
ATTDEF
  5
3930
  8
DEFPOINTS
 10
3094.7362283361107984
 20
89.9146344535637354
 30
0.0
 40
0.001
  1
K-28912T-1
  3

  2
MODELNUMBER
 70
     0
1001
ACDBATTR
1070
     0
1070
     1
  0
ATTDEF
  5
3931
  8
DEFPOINTS
 10
3094.7362283361107984
 20
89.912967786897056
 30
0.0
 40
0.001
  1
SPACITY
  3

  2
TRADENAME
 70
     0
1001
ACDBATTR
1070
     0
1070
     1
  0
ATTDEF
  5
3932
  8
DEFPOINTS
 10
3094.7362283361107984
 20
89.9113011202304051
 30
0.0
 40
0.001
  1
BATHROOM SINK
  3

  2
PRODUCT
 70
     0
1001
ACDBATTR
1070
     0
1070
     1
  0
LINE
  5
6E7A
  8
0
 10
3087.428984178301107
 20
92.2787031764243864
 30
0.0
 11
3102.0634219145767929
 21
92.2787031764243864
 31
0.0
  0
LINE
  5
6E7B
  8
0
 10
3087.271483410737801
 20
92.1157065056913069
 30
0.0
 11
3087.4247518756737918
 21
87.7294414035683729
 31
0.0
  0
LINE
  5
6E7C
  8
0
 10
3087.483815873551066
 20
87.6724039638243937
 30
0.0
 11
3102.0085902193259244
 21
87.6724039638243937
 31
0.0
  0
LINE
  5
6E7D
  8
0
 10
3087.667088640142083
 20
87.5542937276243975
 30
0.0
 11
3101.8253174527349074
 21
87.5542937276243975
 31
0.0
  0
ARC
  5
6E7E
  8
0
 10
3087.4372001307028768
 20
92.1131708258886164
 30
0.0
 40
0.1657361184165307
 50
92.8414591642544167
 51
179.1233689991553035
  0
ARC
  5
6E7F
  8
0
 10
3087.483815873551066
 20
87.7315039638243945
 30
0.0
 40
0.0591
 50
182.0000000008884911
 51
270.0
  0
ARC
  5
6E80
  8
0
 10
3087.499316883748179
 20
87.612905877290828
 30
0.0
 40
0.0598994430465814
 50
19.63854621087658
 51
83.3635749592915545
  0
ARC
  5
6E81
  8
0
 10
3087.667088640142083
 20
87.6724039646343982
 30
0.0
 40
0.1181102370668098
 50
199.469516407945207
 51
270.0
  0
LINE
  5
6E82
  8
0
 10
3088.6966918419848298
 20
87.5542937276243975
 30
0.0
 11
3088.780314504585931
 21
86.959287566624397
 31
0.0
  0
ARC
  5
6E83
  8
0
 10
3089.3683945880961801
 20
87.0381250535945981
 30
0.0
 40
0.5933409929991234
 50
187.6354965209283137
 51
236.740334587740108
  0
ARC
  5
6E84
  8
0
 10
3089.8364377732691537
 20
87.8021668310714318
 30
0.0
 40
1.489175563614441
 50
237.8043008605646094
 51
249.4561458109054115
  0
ARC
  5
6E85
  8
0
 10
-656.9840083471467551
 20
-9659.2710869290021947
 30
0.0
 40
10440.9292021639594168
 50
68.9597739656846471
 51
68.9729382212260163
  0
ARC
  5
6E86
  8
0
 10
3091.4996804462689397
 20
85.3858737120357461
 30
0.0
 40
0.169399990888713
 50
10.7778108910950703
 51
71.6844542327119001
  0
ARC
  5
6E87
  8
0
 10
3025.8849716116710624
 20
83.2662356351408306
 30
0.0
 40
65.8162896524464003
 50
1.608198963901655
 51
1.8731424848707949
  0
LINE
  5
6E88
  8
0
 10
3094.2737621696860515
 20
85.1133488457243885
 30
0.0
 11
3091.675336836391125
 21
85.1133488457243885
 31
0.0
  0
LINE
  5
6E89
  8
0
 10
3094.3070604826498311
 20
86.2126319225472599
 30
0.0
 11
3094.2737621696860515
 21
85.1133488457243885
 31
0.0
  0
ARC
  5
6E8A
  8
0
 10
3094.54315219659793
 20
86.2054804834188388
 30
0.0
 40
0.236200001009289
 50
131.5200105862851956
 51
178.2649876963315876
  0
LINE
  5
6E8B
  8
0
 10
3094.3865795664860343
 20
86.3823291531244166
 30
0.0
 11
3094.7551406958750704
 21
86.7086586660023642
 31
0.0
  0
ARC
  5
6E8C
  8
0
 10
3094.4919625160541727
 20
87.0045743738219244
 30
0.0
 40
0.3960162376329244
 50
311.6488940420805989
 51
352.8566058152497931
  0
ARC
  5
6E8D
  8
0
 10
3095.1940285529531138
 20
86.9204563953984461
 30
0.0
 40
0.3110844033410637
 50
94.4196595848733864
 51
173.5636871596250899
  0
ARC
  5
6E8E
  8
0
 10
3082.8281971397232155
 20
238.717585375433714
 30
0.0
 40
151.9888925142529956
 50
274.6576815693663889
 51
275.9746650234503136
  0
ARC
  5
6E8F
  8
0
 10
3089.6823381474428061
 20
87.3507257420753689
 30
0.0
 40
0.2493106477213151
 50
49.364930550013348
 51
54.7382750191512102
  0
ARC
  5
6E90
  8
0
 10
3090.1321604794488849
 20
87.852151354149612
 30
0.0
 40
0.4244078848900454
 50
227.3651329810919037
 51
264.6444357042020101
  0
ARC
  5
6E91
  8
0
 10
3106.216188734204934
 20
253.0477289028368091
 30
0.0
 40
166.4011348779150978
 50
264.4395312286698072
 51
265.1982328956913193
  0
ARC
  5
6E92
  8
0
 10
3092.2254869795388004
 20
87.0716701880503052
 30
0.0
 40
0.1704285385353017
 50
14.7526572959945508
 51
68.8474423729235099
  0
ARC
  5
6E93
  8
0
 10
3091.8892874112198115
 20
86.9550551056665171
 30
0.0
 40
0.5259423296576902
 50
0.0297904237371902
 51
17.7126144087078394
  0
ARC
  5
6E94
  8
0
 10
3092.6490573421660883
 20
86.9220094174155946
 30
0.0
 40
0.2361896397845893
 50
171.8902634402720935
 51
204.7141523612691003
  0
ARC
  5
6E95
  8
0
 10
3092.6887869998090537
 20
86.9485813525218845
 30
0.0
 40
0.2834897111835001
 50
206.2356946669993079
 51
237.8134528180308109
  0
ARC
  5
6E96
  8
0
 10
3096.2974682180920354
 20
90.6354655732393866
 30
0.0
 40
5.4364582955020513
 50
226.2455069976431048
 51
231.4749473276295078
  0
ARC
  5
6E97
  8
0
 10
3093.1482814790711018
 20
86.0371464736973621
 30
0.0
 40
0.4186830558375554
 50
124.4673675296443065
 51
150.0081832792766079
  0
ARC
  5
6E98
  8
0
 10
3108.9036101398160099
 20
81.8757656891384045
 30
0.0
 40
16.7000308899315897
 50
164.8280734711343882
 51
165.9104306642485938
  0
ARC
  5
6E99
  8
0
 10
3092.11140302940521
 20
86.0805573030728937
 30
0.0
 40
0.61068828018107
 50
335.159560144679574
 51
346.8085867728349854
  0
ARC
  5
6E9A
  8
0
 10
3092.1345472101279483
 20
86.1893058821483891
 30
0.0
 40
0.6445522314190884
 50
268.3587235586006727
 51
325.4767134596970095
  0
ARC
  5
6E9B
  8
0
 10
3091.8134121939710894
 20
90.9197691268496158
 30
0.0
 40
5.3832666906132491
 50
267.3533171258453081
 51
273.223152111768627
  0
LINE
  5
6E9C
  8
0
 10
3102.2209226821391894
 20
92.1157065056913069
 30
0.0
 11
3102.0676542172031986
 21
87.7294414035683729
 31
0.0
  0
ARC
  5
6E9D
  8
0
 10
3102.0552059621741137
 20
92.1131708258886164
 30
0.0
 40
0.1657361184165307
 50
0.8766310008446794
 51
87.1585408357455833
  0
ARC
  5
6E9E
  8
0
 10
3102.0085902193259244
 20
87.7315039638243945
 30
0.0
 40
0.0591
 50
270.0
 51
357.9999999991114237
  0
ARC
  5
6E9F
  8
0
 10
3101.9930892091288115
 20
87.612905877290828
 30
0.0
 40
0.0598994430465814
 50
96.6364250407084313
 51
160.3614537891234022
  0
ARC
  5
6EA0
  8
0
 10
3101.8253174527349074
 20
87.6724039646343982
 30
0.0
 40
0.1181102370668098
 50
270.0
 51
340.5304835920546793
  0
LINE
  5
6EA1
  8
0
 10
3092.2869865366201338
 20
87.2306157486243876
 30
0.0
 11
3095.1700560351769127
 21
87.2306157486243876
 31
0.0
  0
LINE
  5
6EA2
  8
0
 10
3092.9113333432501349
 20
86.3823291531244166
 30
0.0
 11
3094.3865795664860343
 21
86.3823291531244166
 31
0.0
  0
LINE
  5
6EA4
  8
0
 10
3111.686057604168127
 20
87.7909609296244184
 30
0.0
 11
3105.8070414077078567
 21
87.7909609296244184
 31
0.0
  0
LINE
  5
6EA5
  8
0
 10
3111.8104739993250405
 20
87.8303310084243947
 30
0.0
 11
3105.6826250125518527
 21
87.8303310084243947
 31
0.0
  0
LINE
  5
6EA6
  8
0
 10
3112.2910446173741548
 20
90.1925113663800886
 30
0.0
 11
3105.2020543945031932
 21
90.1925113663800886
 31
0.0
  0
LINE
  5
6EA7
  8
0
 10
3112.3257255716071086
 20
91.516923595408187
 30
0.0
 11
3105.1673734402697846
 21
91.5169235954081728
 31
0.0
  0
LINE
  5
6EA8
  8
0
 10
3105.1082936923630768
 20
91.4562765377864224
 30
0.0
 11
3105.1906936429259076
 21
88.3095493323555445
 31
0.0
  0
ARC
  5
6EA9
  8
0
 10
3105.1673734402697846
 20
91.4578235954081862
 30
0.0
 40
0.0591
 50
90.0
 51
181.499999977468093
  0
ARC
  5
6EAA
  8
0
 10
3105.2020543945031932
 20
90.1334113663800878
 30
0.0
 40
0.0591
 50
90.0
 51
181.4999999774713899
  0
ARC
  5
6EAB
  8
0
 10
3105.6826250125518527
 20
88.322431008424374
 30
0.0
 40
0.4921
 50
181.4999999774672972
 51
270.0
  0
ARC
  5
6EAC
  8
0
 10
3105.7386688303199662
 20
87.7712758904774404
 30
0.0
 40
0.0590551179297856
 50
30.1318794008597095
 51
90.0
  0
ARC
  5
6EAD
  8
0
 10
3105.8070414077078567
 20
87.8109609296246845
 30
0.0
 40
0.02
 50
210.1318794014397895
 51
269.999999999791612
  0
LINE
  5
6EAE
  8
0
 10
3112.3848053195138164
 20
91.4562765377864224
 30
0.0
 11
3112.3024053689509856
 21
88.3095493323555445
 31
0.0
  0
ARC
  5
6EAF
  8
0
 10
3112.3257255716071086
 20
91.4578235954081862
 30
0.0
 40
0.0591
 50
358.5000000225318217
 51
90.0
  0
ARC
  5
6EB0
  8
0
 10
3112.2910446173741548
 20
90.1334113663800878
 30
0.0
 40
0.0591
 50
358.5000000225285248
 51
90.0
  0
ARC
  5
6EB1
  8
0
 10
3111.8104739993250405
 20
88.322431008424374
 30
0.0
 40
0.4921
 50
270.0
 51
358.5000000225326175
  0
ARC
  5
6EB2
  8
0
 10
3111.754430181556927
 20
87.7712758904774404
 30
0.0
 40
0.0590551179297856
 50
90.0
 51
149.8681205991402123
  0
ARC
  5
6EB3
  8
0
 10
3111.686057604168127
 20
87.8109609296246845
 30
0.0
 40
0.02
 50
270.000000000208388
 51
329.8681205985602105
  0
ARC
  5
6EB4
  8
0
 10
3104.0619826215352077
 20
90.397629544470206
 30
0.0
 40
1.254593223231228
 50
6.5369084273293439
 51
32.6532027150140394
  0
ARC
  5
6EB5
  8
0
 10
12519204.0802695099264383
 20
327835.9050679326173849
 30
0.0
 40
12520389.1908651292324066
 50
181.499999011054399
 51
181.5000006038663969
  0
ARC
  5
6EB6
  8
0
 10
3113.4311163903421402
 20
90.397629544470206
 30
0.0
 40
1.254593223231228
 50
147.3467972849853993
 51
173.4630915726706064
  0
ARC
  5
6EB7
  8
0
 10
-12512986.5871705003082752
 20
327835.9050679326173849
 30
0.0
 40
12520389.1908651292324066
 50
358.4999993961336031
 51
358.500000988945601
  0
LINE
  5
6EB8
  8
0
 10
3112.3775818044027801
 20
91.1804216208521723
 30
0.0
 11
3105.1155172074741131
 21
91.1804216208521723
 31
0.0
  0
ENDSEC
  0
EOF
