  0
SECTION
  2
HEADER
  9
$ACADVER
  1
AC1009
  9
$INSBASE
 10
3602.0063578930430594
 20
-16.0378124138696911
 30
0.0
  9
$EXTMIN
 10
3593.9296492511798533
 20
-21.9443058733788483
 30
-0.0015258207003583
  9
$EXTMAX
 10
3609.9043794390968287
 20
-10.1315701380240295
 30
0.0000000349246037
  9
$LIMMIN
 10
0.0
 20
0.0
  9
$LIMMAX
 10
11.6929133858000007
 20
8.2677165353999982
  9
$ORTHOMODE
 70
     1
  9
$REGENMODE
 70
     1
  9
$FILLMODE
 70
     1
  9
$QTEXTMODE
 70
     0
  9
$MIRRTEXT
 70
     0
  9
$DRAGMODE
 70
     2
  9
$LTSCALE
 40
0.6431102362
  9
$OSMODE
 70
  4095
  9
$ATTMODE
 70
     1
  9
$TEXTSIZE
 40
0.2
  9
$TRACEWID
 40
0.05
  9
$TEXTSTYLE
  7
STANDARD
  9
$CLAYER
  8
0
  9
$CELTYPE
  6
BYLAYER
  9
$CECOLOR
 62
   256
  9
$DIMSCALE
 40
1.0
  9
$DIMASZ
 40
0.1875
  9
$DIMEXO
 40
0.0625
  9
$DIMDLI
 40
0.4443307087
  9
$DIMRND
 40
0.0
  9
$DIMDLE
 40
0.0
  9
$DIMEXE
 40
0.125
  9
$DIMTP
 40
0.01
  9
$DIMTM
 40
0.01
  9
$DIMTXT
 40
2.0
  9
$DIMCEN
 40
0.1052362205
  9
$DIMTSZ
 40
0.0
  9
$DIMTOL
 70
     1
  9
$DIMLIM
 70
     0
  9
$DIMTIH
 70
     1
  9
$DIMTOH
 70
     1
  9
$DIMSE1
 70
     0
  9
$DIMSE2
 70
     0
  9
$DIMTAD
 70
     0
  9
$DIMZIN
 70
     0
  9
$DIMBLK
  1

  9
$DIMASO
 70
     1
  9
$DIMSHO
 70
     1
  9
$DIMPOST
  1
\X
  9
$DIMAPOST
  1

  9
$DIMALT
 70
     1
  9
$DIMALTD
 70
     2
  9
$DIMALTF
 40
25.3999999999999986
  9
$DIMLFAC
 40
1.0
  9
$DIMTOFL
 70
     0
  9
$DIMTVP
 40
0.0
  9
$DIMTIX
 70
     0
  9
$DIMSOXD
 70
     0
  9
$DIMSAH
 70
     0
  9
$DIMBLK1
  1

  9
$DIMBLK2
  1

  9
$DIMSTYLE
  2
STANDARD
  9
$DIMCLRD
 70
     0
  9
$DIMCLRE
 70
     0
  9
$DIMCLRT
 70
     0
  9
$DIMTFAC
 40
1.0
  9
$DIMGAP
 40
0.09
  9
$LUNITS
 70
     2
  9
$LUPREC
 70
     4
  9
$SKETCHINC
 40
0.1
  9
$FILLETRAD
 40
0.0
  9
$AUNITS
 70
     0
  9
$AUPREC
 70
     0
  9
$MENU
  1
.
  9
$ELEVATION
 40
0.0
  9
$PELEVATION
 40
0.0
  9
$THICKNESS
 40
0.0
  9
$LIMCHECK
 70
     0
  9
$BLIPMODE
 70
     0
  9
$CHAMFERA
 40
0.0
  9
$CHAMFERB
 40
0.0
  9
$SKPOLY
 70
     0
  9
$TDCREATE
 40
2458060.468368056230247
  9
$TDUPDATE
 40
2459872.8085532411932945
  9
$TDINDWG
 40
0.5195556713
  9
$TDUSRTIMER
 40
0.5195556713
  9
$USRTIMER
 70
     1
  9
$ANGBASE
 50
0.0
  9
$ANGDIR
 70
     0
  9
$PDMODE
 70
     0
  9
$PDSIZE
 40
0.3125
  9
$PLINEWID
 40
0.0
  9
$COORDS
 70
     1
  9
$SPLFRAME
 70
     0
  9
$SPLINETYPE
 70
     6
  9
$SPLINESEGS
 70
     8
  9
$ATTDIA
 70
     1
  9
$ATTREQ
 70
     1
  9
$HANDLING
 70
     1
  9
$HANDSEED
  5
122A5
  9
$SURFTAB1
 70
     6
  9
$SURFTAB2
 70
     6
  9
$SURFTYPE
 70
     6
  9
$SURFU
 70
     6
  9
$SURFV
 70
     6
  9
$UCSNAME
  2

  9
$UCSORG
 10
0.0
 20
0.0
 30
0.0
  9
$UCSXDIR
 10
1.0
 20
0.0
 30
0.0
  9
$UCSYDIR
 10
0.0
 20
1.0
 30
0.0
  9
$PUCSNAME
  2

  9
$PUCSORG
 10
0.0
 20
0.0
 30
0.0
  9
$PUCSXDIR
 10
1.0
 20
0.0
 30
0.0
  9
$PUCSYDIR
 10
0.0
 20
1.0
 30
0.0
  9
$USERI1
 70
     0
  9
$USERI2
 70
     0
  9
$USERI3
 70
     0
  9
$USERI4
 70
     0
  9
$USERI5
 70
     0
  9
$USERR1
 40
0.0
  9
$USERR2
 40
0.0
  9
$USERR3
 40
0.0
  9
$USERR4
 40
0.0
  9
$USERR5
 40
0.0
  9
$WORLDVIEW
 70
     1
  9
$SHADEDGE
 70
     3
  9
$SHADEDIF
 70
    70
  9
$TILEMODE
 70
     1
  9
$MAXACTVP
 70
    64
  9
$PLIMCHECK
 70
     0
  9
$PEXTMIN
 10
1.0000000000000000E+20
 20
1.0000000000000000E+20
 30
1.0000000000000000E+20
  9
$PEXTMAX
 10
-1.0000000000000000E+20
 20
-1.0000000000000000E+20
 30
-1.0000000000000000E+20
  9
$PLIMMIN
 10
0.0
 20
0.0
  9
$PLIMMAX
 10
12.0
 20
9.0
  9
$UNITMODE
 70
     0
  9
$VISRETAIN
 70
     1
  9
$PLINEGEN
 70
     0
  9
$PSLTSCALE
 70
     1
  0
ENDSEC
  0
SECTION
  2
TABLES
  0
TABLE
  2
VPORT
 70
     1
  0
VPORT
  2
*ACTIVE
 70
     0
 10
0.0
 20
0.0
 11
1.0
 21
1.0
 12
-227.4107444439241874
 22
-106.9309815237677981
 13
0.0
 23
0.0
 14
1.0
 24
1.0
 15
0.0
 25
0.0
 16
0.0
 26
0.0
 36
327.1425206445442768
 17
3829.3277587890629547
 27
90.8930435180664063
 37
0.0
 40
11.8973137955124901
 41
2.2831541218637992
 42
50.0
 43
0.0
 44
0.0
 50
0.0
 51
0.0
 71
     0
 72
   100
 73
     1
 74
     1
 75
     0
 76
     0
 77
     0
 78
     2
  0
ENDTAB
  0
TABLE
  2
LTYPE
 70
     2
  0
LTYPE
  2
CONTINUOUS
 70
     0
  3
Solid line
 72
    65
 73
     0
 40
0.0
  0
LTYPE
  2
PHANTOM2
 70
     0
  3
___ _ _ ___ _ _ ___ _ _ ___ _ _
 72
    65
 73
     6
 40
1.25
 49
0.625
 49
-0.125
 49
0.125
 49
-0.125
 49
0.125
 49
-0.125
  0
ENDTAB
  0
TABLE
  2
LAYER
 70
     2
  0
LAYER
  2
0
 70
     0
 62
   255
  6
CONTINUOUS
  0
LAYER
  2
DEFPOINTS
 70
     0
 62
     7
  6
CONTINUOUS
  0
ENDTAB
  0
TABLE
  2
STYLE
 70
     1
  0
STYLE
  2
STANDARD
 70
     0
 40
0.0
 41
0.8
 50
0.0
 71
     0
 42
0.2
  3
txt
  4

  0
ENDTAB
  0
TABLE
  2
VIEW
 70
     0
  0
ENDTAB
  0
TABLE
  2
UCS
 70
     0
  0
ENDTAB
  0
TABLE
  2
APPID
 70
    10
  0
APPID
  2
ACAD
 70
     0
  0
APPID
  2
ACAD_MLEADERVER
 70
     0
  0
APPID
  2
ACAD_EXEMPT_FROM_CAD_STANDARDS
 70
     0
  0
APPID
  2
ACAD_NAV_VCDISPLAY
 70
     0
  0
APPID
  2
ACAECLAYERSTANDARD
 70
     0
  0
APPID
  2
ACCMTRANSPARENCY
 70
     0
  0
APPID
  2
ACAD_DSTYLE_DIMJAG
 70
     0
  0
APPID
  2
ACAD_DSTYLE_DIMTALN
 70
     0
  0
APPID
  2
ACDBATTR
 70
     0
  0
APPID
  2
ACAD_DSTYLE_DIMRADIAL_EXTENSION
 70
     0
  0
ENDTAB
  0
TABLE
  2
DIMSTYLE
 70
     1
  0
DIMSTYLE
  2
STANDARD
 70
     0
  3

  4

  5

  6

  7

 40
1.0
 41
0.1875
 42
0.0625
 43
0.38
 44
0.125
 45
0.0
 46
0.0
 47
0.01
 48
0.01
140
0.15625
141
0.09
142
0.0
143
25.3999999999999986
144
1.0
145
0.0
146
1.0
147
0.09
 71
     1
 72
     0
 73
     1
 74
     1
 75
     0
 76
     0
 77
     0
 78
     4
170
     0
171
     2
172
     0
173
     0
174
     0
175
     0
176
     0
177
     0
178
     0
  0
ENDTAB
  0
ENDSEC
  0
SECTION
  2
BLOCKS
  0
BLOCK
  8
0
  2
$MODEL_SPACE
 70
     0
 10
0.0
 20
0.0
 30
0.0
  3
$MODEL_SPACE
  1

  0
ENDBLK
  5
21
  8
0
  0
BLOCK
 67
     1
  8
0
  2
$PAPER_SPACE
 70
     0
 10
0.0
 20
0.0
 30
0.0
  3
$PAPER_SPACE
  1

  0
ENDBLK
  5
1D
 67
     1
  8
0
  0
ENDSEC
  0
SECTION
  2
ENTITIES
  0
LINE
  5
11E81
  8
0
 10
3594.1323421449928901
 20
-20.7622218626697013
 30
0.0
 11
3594.1323421449928901
 21
-11.3134029650696899
 31
0.0
  0
LINE
  5
11E82
  8
0
 10
3595.1766838513199218
 20
-20.4407947115318009
 30
0.0
 11
3595.1766838513199218
 21
-11.4603143771761893
 31
0.0
  0
LINE
  5
11E85
  8
0
 10
3595.2859565159242266
 20
-10.1323006028696998
 30
0.0
 11
3608.7267592701618923
 21
-10.1323006028696998
 31
0.0
  0
LINE
  5
11E86
  8
0
 10
3595.6507319409060983
 20
-10.9832863563696908
 30
0.0
 11
3608.3619838451800206
 21
-10.9832863563696908
 31
0.0
  0
LINE
  5
11E87
  8
0
 10
3595.3134445071927985
 20
-21.9433242248696985
 30
0.0
 11
3608.6992712788928657
 21
-21.9433242248696985
 31
0.0
  0
LINE
  5
11E88
  8
0
 10
3595.6350011919889766
 20
-20.8989823432697008
 30
0.0
 11
3608.3777145940971423
 21
-20.8989823432697008
 31
0.0
  0
ARC
  5
11E98
  8
0
 10
3595.3134445071927985
 20
-20.7622218626696906
 30
0.0
 40
1.181102362200003
 50
180.0
 51
270.0000000058885234
  0
ARC
  5
11E99
  8
0
 10
3595.3138993145907989
 20
-11.3135273213680794
 30
0.0
 40
1.181557176141631
 50
91.3551216450515824
 51
179.9939697450022891
  0
ARC
  5
11E9A
  8
0
 10
3595.6714223046601546
 20
-11.4776048401826092
 30
0.0
 40
0.4947513058005617
 50
92.3967927336801296
 51
179.5870112305690043
  0
ARC
  5
11E9B
  8
0
 10
3595.654484364576092
 20
-20.4211762961375882
 30
0.0
 40
0.4782031081978241
 50
182.3512351405765912
 51
267.6649825003111118
  0
LINE
  5
11E9C
  8
0
 10
3609.8803736410941383
 20
-20.7622218626697013
 30
0.0
 11
3609.8803736410941383
 21
-11.3134029650696899
 31
0.0
  0
LINE
  5
11E9D
  8
0
 10
3608.8360319347661971
 20
-20.4407947115318009
 30
0.0
 11
3608.8360319347661971
 21
-11.4603143771761893
 31
0.0
  0
ARC
  5
11E9E
  8
0
 10
3608.6992712788928657
 20
-20.7622218626696906
 30
0.0
 40
1.181102362200003
 50
269.9999999941114766
 51
359.9999999999997726
  0
ARC
  5
11E9F
  8
0
 10
3608.6988164714948653
 20
-11.3135273213680794
 30
0.0
 40
1.181557176141631
 50
0.0060302549976522
 51
88.6448783549484318
  0
ARC
  5
11EA0
  8
0
 10
3608.3410707749299036
 20
-11.4781261389171299
 30
0.0
 40
0.4952815026819472
 50
2.0608315827144019
 51
87.5799883514188338
  0
ARC
  5
11EA1
  8
0
 10
3608.3582314215109363
 20
-20.4211762961375882
 30
0.0
 40
0.4782031081978241
 50
272.3350174996888882
 51
357.6487648594231814
  0
ARC
  5
11EBD
  8
0
 10
3597.8989539396498003
 20
-18.1758049313510384
 30
0.0
 40
0.5929594704579091
 50
190.4125171788963087
 51
259.7409682739324239
  0
ARC
  5
11EBE
  8
0
 10
3502.6056917134878859
 20
-14.5145350898556096
 30
0.0
 40
94.7850095181750731
 50
357.721448735095521
 51
1.236474535040867
  0
ARC
  5
11EBF
  8
0
 10
3597.9056059614731566
 20
-12.4979726640140196
 30
0.0
 40
0.5377468424139995
 50
101.5066012432947957
 51
176.9308479459317027
  0
ARC
  5
11EC0
  8
0
 10
3602.0063340254278046
 20
131.1904198580830041
 30
0.0
 40
143.223283744654708
 50
268.3163684384408043
 51
271.683644850631083
  0
ARC
  5
11EC1
  8
0
 10
3606.1071298772308182
 20
-12.4979574624144192
 30
0.0
 40
0.5377260049316978
 50
3.0676490146303932
 51
78.4967072410183846
  0
ARC
  5
11EC2
  8
0
 10
3701.4027548738918085
 20
-14.5145090167253805
 30
0.0
 40
94.7807407508501427
 50
178.7634855326546983
 51
182.2786685211746942
  0
ARC
  5
11EC3
  8
0
 10
3606.1184561723680417
 20
-18.1766469712632812
 30
0.0
 40
0.5881937501509288
 50
279.6148228742185893
 51
349.5857679892766896
  0
ARC
  5
11EC4
  8
0
 10
3602.0349766764729793
 20
-111.9881212328579068
 30
0.0
 40
93.3252773845533738
 50
87.4318291018610552
 51
92.6049869756771642
  0
CIRCLE
  5
11ED7
  8
0
 10
3602.0063578930930817
 20
-14.4630092642696901
 30
0.0
 40
0.9204204588999997
  0
CIRCLE
  5
11ED8
  8
0
 10
3602.0063578930930817
 20
-14.4630092642696901
 30
0.0
 40
1.4813042790999991
  0
LINE
  5
11ED9
  8
0
 10
3597.4802302498310382
 20
-18.5956518143807905
 30
0.0
 11
3595.3163232006399994
 21
-20.7592964521406493
 31
0.0
  0
LINE
  5
11EDA
  8
0
 10
3595.3155765778519708
 20
-11.1338714066855093
 30
0.0
 11
3597.4984194509597728
 21
-12.1467308496153805
 31
0.0
  0
LINE
  5
11EDB
  8
0
 10
3606.5136180677368429
 20
-12.1459395546892601
 30
0.0
 11
3608.6839249599838695
 21
-11.1194405113019794
 31
0.0
  0
LINE
  5
11EDC
  8
0
 10
3606.5318955407060457
 20
-18.5950245237503005
 30
0.0
 11
3608.696732041596988
 21
-20.759265236143829
 31
0.0
  0
ARC
  5
11F0F
  8
0
 10
3601.4708196034730463
 20
-20.0749438170553809
 30
0.0
 40
0.3663584649046788
 50
242.1359789460979073
 51
270.6321874524850841
  0
ARC
  5
11F10
  8
0
 10
3601.4726571174060155
 20
-20.6244060145885406
 30
0.0
 40
0.3012443375267188
 50
89.5806664424592185
 51
115.2222284346125036
  0
ARC
  5
11F11
  8
0
 10
3601.3824403451340004
 20
-20.4328785208495809
 30
0.0
 40
0.0895326305826902
 50
115.2222284346124042
 51
157.6587410561151046
  0
LINE
  5
11F12
  8
0
 10
3601.4748618300941416
 20
-20.3231697449697002
 30
0.0
 11
3602.5378539560929312
 21
-20.3231697449697002
 31
0.0
  0
ARC
  5
11F13
  8
0
 10
3602.5378539560929312
 20
-20.6425712116609006
 30
0.0
 40
0.3194014666911951
 50
67.9862614831521199
 51
90.0
  0
ARC
  5
11F14
  8
0
 10
3602.6181862372150135
 20
-20.4438790212852695
 30
0.0
 40
0.1050842674128216
 50
25.3868815990599686
 51
67.9862614831521199
  0
ARC
  5
11F15
  8
0
 10
3602.611863001573056
 20
-20.252966434827389
 30
0.0
 40
0.1775632375751205
 50
286.3392510459615892
 51
304.7694085956994741
  0
ARC
  5
11F16
  8
0
 10
3602.5369737605128648
 20
-19.997514958654321
 30
0.0
 40
0.4437658955362391
 50
270.1136444360607811
 51
286.3392510459615892
  0
LINE
  5
11F17
  8
0
 10
3602.5378539560929312
 20
-20.441279981269691
 30
0.0
 11
3601.4748618300941416
 21
-20.441279981269691
 31
0.0
  0
ATTDEF
  5
11F1E
  8
DEFPOINTS
 10
3602.0071867614828989
 20
-16.0394282158279715
 30
0.0
 40
0.001
  1
K-28915T
  3

  2
MODELNUMBER
 70
     0
1001
ACDBATTR
1070
     0
1070
     1
  0
ATTDEF
  5
11F1F
  8
DEFPOINTS
 10
3602.0071867614828989
 20
-16.0410948824946296
 30
0.0
 40
0.001
  1
SPACITY
  3

  2
TRADENAME
 70
     0
1001
ACDBATTR
1070
     0
1070
     1
  0
ATTDEF
  5
11F20
  8
DEFPOINTS
 10
3602.0071867614828989
 20
-16.0427615491612983
 30
0.0
 40
0.001
  1
BATHROOM SINK
  3

  2
PRODUCT
 70
     0
1001
ACDBATTR
1070
     0
1070
     1
  0
ENDSEC
  0
EOF
