  0
SECTION
  2
HEADER
  9
$ACADVER
  1
AC1009
  9
$INSBASE
 10
3610.7276610776561938
 20
113.3471982834752936
 30
0.0
  9
$EXTMIN
 10
3605.5355393275731331
 20
113.3398281312196048
 30
-0.0000000349181948
  9
$EXTMAX
 10
3611.8733152011209313
 20
119.349362873160203
 30
0.0000000814935746
  9
$LIMMIN
 10
0.0
 20
0.0
  9
$LIMMAX
 10
11.6929133858000007
 20
8.2677165353999982
  9
$ORTHOMODE
 70
     0
  9
$REGENMODE
 70
     1
  9
$FILLMODE
 70
     1
  9
$QTEXTMODE
 70
     0
  9
$MIRRTEXT
 70
     0
  9
$DRAGMODE
 70
     2
  9
$LTSCALE
 40
0.6431102362
  9
$OSMODE
 70
  4095
  9
$ATTMODE
 70
     1
  9
$TEXTSIZE
 40
0.2
  9
$TRACEWID
 40
0.05
  9
$TEXTSTYLE
  7
STANDARD
  9
$CLAYER
  8
0
  9
$CELTYPE
  6
BYLAYER
  9
$CECOLOR
 62
   256
  9
$DIMSCALE
 40
1.0
  9
$DIMASZ
 40
0.1875
  9
$DIMEXO
 40
0.0625
  9
$DIMDLI
 40
0.4443307087
  9
$DIMRND
 40
0.0
  9
$DIMDLE
 40
0.0
  9
$DIMEXE
 40
0.125
  9
$DIMTP
 40
0.01
  9
$DIMTM
 40
0.01
  9
$DIMTXT
 40
2.0
  9
$DIMCEN
 40
0.1052362205
  9
$DIMTSZ
 40
0.0
  9
$DIMTOL
 70
     1
  9
$DIMLIM
 70
     0
  9
$DIMTIH
 70
     1
  9
$DIMTOH
 70
     1
  9
$DIMSE1
 70
     0
  9
$DIMSE2
 70
     0
  9
$DIMTAD
 70
     0
  9
$DIMZIN
 70
     0
  9
$DIMBLK
  1

  9
$DIMASO
 70
     1
  9
$DIMSHO
 70
     1
  9
$DIMPOST
  1
\X
  9
$DIMAPOST
  1

  9
$DIMALT
 70
     1
  9
$DIMALTD
 70
     2
  9
$DIMALTF
 40
25.3999999999999986
  9
$DIMLFAC
 40
1.0
  9
$DIMTOFL
 70
     0
  9
$DIMTVP
 40
0.0
  9
$DIMTIX
 70
     0
  9
$DIMSOXD
 70
     0
  9
$DIMSAH
 70
     0
  9
$DIMBLK1
  1

  9
$DIMBLK2
  1

  9
$DIMSTYLE
  2
STANDARD
  9
$DIMCLRD
 70
     0
  9
$DIMCLRE
 70
     0
  9
$DIMCLRT
 70
     0
  9
$DIMTFAC
 40
1.0
  9
$DIMGAP
 40
0.09
  9
$LUNITS
 70
     2
  9
$LUPREC
 70
     4
  9
$SKETCHINC
 40
0.1
  9
$FILLETRAD
 40
0.0
  9
$AUNITS
 70
     0
  9
$AUPREC
 70
     0
  9
$MENU
  1
.
  9
$ELEVATION
 40
0.0
  9
$PELEVATION
 40
0.0
  9
$THICKNESS
 40
0.0
  9
$LIMCHECK
 70
     0
  9
$BLIPMODE
 70
     0
  9
$CHAMFERA
 40
0.0
  9
$CHAMFERB
 40
0.0
  9
$SKPOLY
 70
     0
  9
$TDCREATE
 40
2458060.468368056230247
  9
$TDUPDATE
 40
2460026.9577314821071923
  9
$TDINDWG
 40
0.3603427083
  9
$TDUSRTIMER
 40
0.3603427083
  9
$USRTIMER
 70
     1
  9
$ANGBASE
 50
0.0
  9
$ANGDIR
 70
     0
  9
$PDMODE
 70
     0
  9
$PDSIZE
 40
0.3125
  9
$PLINEWID
 40
0.0
  9
$COORDS
 70
     1
  9
$SPLFRAME
 70
     0
  9
$SPLINETYPE
 70
     6
  9
$SPLINESEGS
 70
     8
  9
$ATTDIA
 70
     1
  9
$ATTREQ
 70
     1
  9
$HANDLING
 70
     1
  9
$HANDSEED
  5
A075
  9
$SURFTAB1
 70
     6
  9
$SURFTAB2
 70
     6
  9
$SURFTYPE
 70
     6
  9
$SURFU
 70
     6
  9
$SURFV
 70
     6
  9
$UCSNAME
  2

  9
$UCSORG
 10
0.0
 20
0.0
 30
0.0
  9
$UCSXDIR
 10
1.0
 20
0.0
 30
0.0
  9
$UCSYDIR
 10
0.0
 20
1.0
 30
0.0
  9
$PUCSNAME
  2

  9
$PUCSORG
 10
0.0
 20
0.0
 30
0.0
  9
$PUCSXDIR
 10
1.0
 20
0.0
 30
0.0
  9
$PUCSYDIR
 10
0.0
 20
1.0
 30
0.0
  9
$USERI1
 70
     0
  9
$USERI2
 70
     0
  9
$USERI3
 70
     0
  9
$USERI4
 70
     0
  9
$USERI5
 70
     0
  9
$USERR1
 40
0.0
  9
$USERR2
 40
0.0
  9
$USERR3
 40
0.0
  9
$USERR4
 40
0.0
  9
$USERR5
 40
0.0
  9
$WORLDVIEW
 70
     1
  9
$SHADEDGE
 70
     3
  9
$SHADEDIF
 70
    70
  9
$TILEMODE
 70
     1
  9
$MAXACTVP
 70
    64
  9
$PLIMCHECK
 70
     0
  9
$PEXTMIN
 10
1.0000000000000000E+20
 20
1.0000000000000000E+20
 30
1.0000000000000000E+20
  9
$PEXTMAX
 10
-1.0000000000000000E+20
 20
-1.0000000000000000E+20
 30
-1.0000000000000000E+20
  9
$PLIMMIN
 10
0.0
 20
0.0
  9
$PLIMMAX
 10
12.0
 20
9.0
  9
$UNITMODE
 70
     0
  9
$VISRETAIN
 70
     1
  9
$PLINEGEN
 70
     0
  9
$PSLTSCALE
 70
     1
  0
ENDSEC
  0
SECTION
  2
TABLES
  0
TABLE
  2
VPORT
 70
     1
  0
VPORT
  2
*ACTIVE
 70
     0
 10
0.0
 20
0.0
 11
1.0
 21
1.0
 12
567.1674399596595322
 22
26.9856706364672405
 13
0.0
 23
0.0
 14
1.0
 24
1.0
 15
0.0
 25
0.0
 16
0.0
 26
0.0
 36
135.8369934122270024
 17
3041.5369873046879547
 27
89.3589248657226563
 37
0.0
 40
6.0615653457669501
 41
2.7341040462427739
 42
50.0
 43
0.0
 44
0.0
 50
0.0
 51
0.0
 71
     0
 72
   100
 73
     1
 74
     1
 75
     0
 76
     0
 77
     0
 78
     0
  0
ENDTAB
  0
TABLE
  2
LTYPE
 70
     2
  0
LTYPE
  2
CONTINUOUS
 70
     0
  3
Solid line
 72
    65
 73
     0
 40
0.0
  0
LTYPE
  2
PHANTOM2
 70
     0
  3
___ _ _ ___ _ _ ___ _ _ ___ _ _
 72
    65
 73
     6
 40
1.25
 49
0.625
 49
-0.125
 49
0.125
 49
-0.125
 49
0.125
 49
-0.125
  0
ENDTAB
  0
TABLE
  2
LAYER
 70
     2
  0
LAYER
  2
0
 70
     0
 62
   255
  6
CONTINUOUS
  0
LAYER
  2
DEFPOINTS
 70
     0
 62
     7
  6
CONTINUOUS
  0
ENDTAB
  0
TABLE
  2
STYLE
 70
     1
  0
STYLE
  2
STANDARD
 70
     0
 40
0.0
 41
0.8
 50
0.0
 71
     0
 42
0.2
  3
txt
  4

  0
ENDTAB
  0
TABLE
  2
VIEW
 70
     0
  0
ENDTAB
  0
TABLE
  2
UCS
 70
     0
  0
ENDTAB
  0
TABLE
  2
APPID
 70
     9
  0
APPID
  2
ACAD
 70
     0
  0
APPID
  2
ACAD_MLEADERVER
 70
     0
  0
APPID
  2
ACAD_EXEMPT_FROM_CAD_STANDARDS
 70
     0
  0
APPID
  2
ACAD_NAV_VCDISPLAY
 70
     0
  0
APPID
  2
ACAECLAYERSTANDARD
 70
     0
  0
APPID
  2
ACCMTRANSPARENCY
 70
     0
  0
APPID
  2
ACAD_DSTYLE_DIMJAG
 70
     0
  0
APPID
  2
ACAD_DSTYLE_DIMTALN
 70
     0
  0
APPID
  2
ACDBATTR
 70
     0
  0
ENDTAB
  0
TABLE
  2
DIMSTYLE
 70
     1
  0
DIMSTYLE
  2
STANDARD
 70
     0
  3

  4

  5

  6

  7

 40
1.0
 41
0.1875
 42
0.0625
 43
0.38
 44
0.125
 45
0.0
 46
0.0
 47
0.01
 48
0.01
140
0.15625
141
0.09
142
0.0
143
25.3999999999999986
144
1.0
145
0.0
146
1.0
147
0.09
 71
     1
 72
     0
 73
     1
 74
     1
 75
     0
 76
     0
 77
     0
 78
     4
170
     0
171
     2
172
     0
173
     0
174
     0
175
     0
176
     0
177
     0
178
     0
  0
ENDTAB
  0
ENDSEC
  0
SECTION
  2
BLOCKS
  0
BLOCK
  8
0
  2
$MODEL_SPACE
 70
     0
 10
0.0
 20
0.0
 30
0.0
  3
$MODEL_SPACE
  1

  0
ENDBLK
  5
21
  8
0
  0
BLOCK
 67
     1
  8
0
  2
$PAPER_SPACE
 70
     0
 10
0.0
 20
0.0
 30
0.0
  3
$PAPER_SPACE
  1

  0
ENDBLK
  5
1D
 67
     1
  8
0
  0
BLOCK
  8
0
  2
_FILLED
 70
     0
 10
0.0
 20
0.0
 30
0.0
  3
_FILLED
  1

  0
SOLID
  5
5AF7
  8
0
  6
BYBLOCK
 62
     0
 10
0.0
 20
0.0
 30
0.0
 11
-1.0
 21
0.1666666667
 31
0.0
 12
-1.0
 22
-0.1666666667
 32
0.0
 13
-1.0
 23
-0.1666666667
 33
0.0
  0
ENDBLK
  5
5AF8
  8
0
  6
BYBLOCK
 62
     0
  0
ENDSEC
  0
SECTION
  2
ENTITIES
  0
ATTDEF
  5
3930
  8
DEFPOINTS
 10
3610.7277731991807741
 20
113.3458336578864021
 30
0.0
 40
0.001
  1
K-28997T-B4
  3

  2
MODELNUMBER
 70
     0
1001
ACDBATTR
1070
     0
1070
     1
  0
ATTDEF
  5
3931
  8
DEFPOINTS
 10
3610.7277731991807741
 20
113.3441669912196943
 30
0.0
 40
0.001
  1
BEAM
  3

  2
TRADENAME
 70
     0
1001
ACDBATTR
1070
     0
1070
     1
  0
ATTDEF
  5
3932
  8
DEFPOINTS
 10
3610.7277731991807741
 20
113.3425003245531002
 30
0.0
 40
0.001
  1
BATHROOM SINK FAUCET
  3

  2
PRODUCT
 70
     0
1001
ACDBATTR
1070
     0
1070
     1
  0
LINE
  5
9957
  8
0
 10
3609.8124649331061846
 20
113.3471982834752936
 30
0.0
 11
3611.642857222206203
 21
113.3471982834752936
 31
0.0
  0
LINE
  5
9958
  8
0
 10
3611.5345290466730148
 20
119.3420781438722003
 30
0.0
 11
3607.3955862344578236
 21
119.3420781438722003
 31
0.0
  0
LINE
  5
9959
  8
0
 10
3607.3766135819701049
 20
119.328405738802104
 30
0.0
 11
3607.2229296176819844
 21
118.8675999382441972
 31
0.0
  0
ARC
  5
995A
  8
0
 10
3607.3955862344578236
 20
119.3220781438722042
 30
0.0
 40
0.02
 50
90.0
 51
161.5558720625413116
  0
ARC
  5
995B
  8
0
 10
3607.2374674656198295
 20
118.8656973000270938
 30
0.0
 40
0.0146618230400824
 50
172.5438029691505051
 51
231.927578251611493
  0
ARC
  5
995C
  8
0
 10
3607.2758433958761088
 20
118.9234153350927983
 30
0.0
 40
0.083936780232352
 50
235.6035280928500981
 51
260.8534346930072729
  0
ARC
  5
995D
  8
0
 10
3607.3944135702531639
 20
119.6662144560336003
 30
0.0
 40
0.8361397563454167
 50
260.9228616605611819
 51
271.2424439210814171
  0
ARC
  5
995E
  8
0
 10
3607.5662400587239063
 20
45.9091943362448731
 30
0.0
 40
72.9212389173638655
 50
89.2567077844676646
 51
90.120762673622437
  0
ARC
  5
995F
  8
0
 10
3608.4704222564510019
 20
111.7238911294910935
 30
0.0
 40
7.1005290159058374
 50
83.268598980860034
 51
89.6627773929640171
  0
ARC
  5
9960
  8
0
 10
3609.2318373194498236
 20
117.7635391007876962
 30
0.0
 40
1.014412847094543
 50
57.0990091817417067
 51
85.9936710041352086
  0
ARC
  5
9961
  8
0
 10
3609.5873788674848583
 20
118.3709009987363032
 30
0.0
 40
0.3129181885280108
 50
357.6061610782109028
 51
51.340689246517627
  0
LINE
  5
9962
  8
0
 10
3609.900023980838796
 20
118.3578309640252968
 30
0.0
 11
3610.5726816843371125
 21
118.3578309640252968
 31
0.0
  0
LINE
  5
9963
  8
0
 10
3611.5545290466729966
 20
118.685466273442799
 30
0.0
 11
3611.1051543238640988
 21
118.4758915330886992
 31
0.0
  0
LINE
  5
9964
  8
0
 10
3611.530929046673009
 20
118.2790880472752946
 30
0.0
 11
3609.9243931086380144
 21
118.2790880472752946
 31
0.0
  0
ARC
  5
9965
  8
0
 10
3610.5726816843371125
 20
119.6176309640252953
 30
0.0
 40
1.2598
 50
270.0
 51
295.0029182700641854
  0
ARC
  5
9966
  8
0
 10
3609.3375652720210383
 20
118.3024222151618972
 30
0.0
 40
0.5651017291841401
 50
313.5988469687968063
 51
355.4272486565351983
  0
ARC
  5
9967
  8
0
 10
3609.1631166205997943
 20
118.4856187277438977
 30
0.0
 40
0.8180706881592984
 50
280.2360248971905889
 51
313.5988469687968063
  0
ARC
  5
9968
  8
0
 10
3608.7430627596490922
 20
120.5907861536585983
 30
0.0
 40
2.9646376031486299
 50
271.5333530581941091
 51
280.9950461182414188
  0
ARC
  5
9969
  8
0
 10
3603.1347673506002138
 20
290.1905065282800251
 30
0.0
 40
172.6570020259358955
 50
271.1444277736072763
 51
271.887765418088577
  0
ARC
  5
996A
  8
0
 10
3610.8336339368738663
 20
118.1594867490751994
 30
0.0
 40
0.8661417323006378
 50
166.7619476159227929
 51
172.0629436104142087
  0
ARC
  5
996B
  8
0
 10
3610.6218821269721957
 20
118.1594867490751994
 30
0.0
 40
0.8661417323006378
 50
7.9370563895857869
 51
30.4680520938797095
  0
ARC
  5
996C
  8
0
 10
3609.9243931086380144
 20
118.2554880472753069
 30
0.0
 40
0.0236
 50
90.0
 51
175.4272486565652969
  0
LINE
  5
996D
  8
0
 10
3605.9471501925859229
 20
117.530633034118793
 30
0.0
 11
3605.7866582418218968
 21
117.0404433075880064
 31
0.0
  0
ARC
  5
996E
  8
0
 10
3605.6865653446539
 20
140.6061206917242998
 30
0.0
 40
23.0556170276412509
 50
270.7210114516748263
 51
272.2287858579774138
  0
ARC
  5
996F
  8
0
 10
3605.9770865064078862
 20
117.5208316508095976
 30
0.0
 40
0.0315
 50
90.7210114517008748
 51
161.8711485131846928
  0
ARC
  5
9970
  8
0
 10
3606.3727499655979045
 20
118.5213588087986949
 30
0.0
 40
1.6256562559738641
 50
249.6556506005767062
 51
253.3476178562171128
  0
ARC
  5
9971
  8
0
 10
3605.8196357049828293
 20
117.0296462281966967
 30
0.0
 40
0.0347
 50
161.8711485132066912
 51
249.6556506005765073
  0
ARC
  5
9972
  8
0
 10
3607.4660662713099555
 20
183.1568041336217902
 30
0.0
 40
66.2112837230369706
 50
268.6506498677646846
 51
269.0758778804499798
  0
ARC
  5
9973
  8
0
 10
3606.3402693141629243
 20
115.2645420933176013
 30
0.0
 40
1.690582939379619
 50
75.4139794417079941
 51
88.0365323431997524
  0
ARC
  5
9974
  8
0
 10
3606.1979816825719354
 20
114.8577863248082025
 30
0.0
 40
2.1203553006056359
 50
71.0059573041325223
 51
74.4609537335943799
  0
ARC
  5
9975
  8
0
 10
3596.4643120883529264
 20
-181.5936946704215131
 30
0.0
 40
298.6383612407962005
 50
87.6295351774699753
 51
87.9997211011450844
  0
ARC
  5
9976
  8
0
 10
3608.8493355518889985
 20
115.0344464904831057
 30
0.0
 40
1.7549836109917569
 50
69.2590293673692798
 51
91.0825697066779441
  0
ARC
  5
9977
  8
0
 10
3609.2214782804931019
 20
116.0625226034234032
 30
0.0
 40
0.6619389650330894
 50
13.7351765919074893
 51
67.8685978364588891
  0
ARC
  5
9978
  8
0
 10
3607.9056210004941931
 20
115.8169719348617974
 30
0.0
 40
1.999835519935707
 50
3.831343041573303
 51
11.61740582152024
  0
LINE
  5
9979
  8
0
 10
3609.9009870171730654
 20
115.9506003984413951
 30
0.0
 11
3609.9009870171730654
 21
113.9152075244923026
 31
0.0
  0
ARC
  5
997A
  8
0
 10
3607.9351854177912173
 20
114.0094172476714931
 30
0.0
 40
1.9680577735609339
 50
341.7580725823833063
 51
357.2562374813006159
  0
ARC
  5
997B
  8
0
 10
3613.5304236897441115
 20
114.0105882577105945
 30
0.0
 40
1.9781954212835491
 50
182.763646644057701
 51
198.1808730026280898
  0
LINE
  5
997C
  8
0
 10
3611.5545290466729966
 20
119.3220781438722042
 30
0.0
 11
3611.5545290466729966
 21
119.1932125195388039
 31
0.0
  0
LINE
  5
997D
  8
0
 10
3611.5545290466729966
 20
118.9398472247756047
 30
0.0
 11
3611.5545290466729966
 21
118.685466273442799
 31
0.0
  0
ARC
  5
997E
  8
0
 10
3611.5345290466730148
 20
119.3220781438722042
 30
0.0
 40
0.02
 50
0.0
 51
90.0
  0
LINE
  5
997F
  8
0
 10
3611.5545290466729966
 20
118.2554880472753069
 30
0.0
 11
3611.5545290466729966
 21
113.9152075244923026
 31
0.0
  0
ARC
  5
9980
  8
0
 10
3611.530929046673009
 20
118.2554880472753069
 30
0.0
 40
0.0236
 50
0.0
 51
90.0
  0
ARC
  5
9981
  8
0
 10
3612.3756171034410727
 20
119.0665298721572043
 30
0.0
 40
0.8308032800341109
 50
171.229203316388606
 51
188.7707966836113087
  0
ARC
  5
9982
  8
0
 10
3610.0924847054120619
 20
118.2758930321090958
 30
0.0
 40
0.5631434761698902
 50
317.5735705614965241
 51
0.3250714504543548
  0
ARC
  5
9983
  8
0
 10
3610.0719906653148428
 20
118.2946240054429978
 30
0.0
 40
0.5909077525251618
 50
280.8739184596121845
 51
317.5735705614965241
  0
ARC
  5
9984
  8
0
 10
3609.5286303607322225
 20
120.6032929509169946
 30
0.0
 40
2.96225196432232
 50
274.1173565037765911
 51
282.7712738007087978
  0
ARC
  5
9985
  8
0
 10
3609.009876862389774
 20
126.7022691534668013
 30
0.0
 40
9.0830814920245189
 50
268.166122464978173
 51
274.618913297240681
  0
LINE
  5
9986
  8
0
 10
3609.8043349829949875
 20
113.3933561281622957
 30
0.0
 11
3611.6509871723169454
 21
113.3933561281622957
 31
0.0
  0
LINE
  5
9987
  8
0
 10
3606.3412273618628205
 20
116.9055426624889975
 30
0.0
 11
3606.3572339262891546
 21
116.9548058021278933
 31
0.0
  0
ARC
  5
9988
  8
0
 10
3606.5990767954272087
 20
117.4994841835005985
 30
0.0
 40
0.6474973828295461
 50
236.9486422424874945
 51
246.532758965141511
  0
LINE
  5
9989
  8
0
 10
3606.4385858056889447
 20
116.8739300894029043
 30
0.0
 11
3606.4561533497821983
 21
116.9279974305043055
 31
0.0
  0
ARC
  5
998A
  8
0
 10
3606.5721204695419146
 20
117.4617210995133973
 30
0.0
 40
0.6027684281852486
 50
257.2007579608879269
 51
277.6349539764993892
  0
LINE
  5
998B
  8
0
 10
3606.7257441732731422
 20
116.8404020620752988
 30
0.0
 11
3606.374530318475081
 21
116.954518361028093
 31
0.0
  0
LINE
  5
998C
  8
0
 10
3606.7257441732731422
 20
116.8404020620752988
 30
0.0
 11
3606.7360075304941347
 21
116.8456315036946052
 31
0.0
  0
ARC
  5
998D
  8
0
 10
3606.7181203050267868
 20
116.8807371608611021
 30
0.0
 40
0.0394
 50
296.9999996365494894
 51
342.0000000570216798
  0
LINE
  5
998E
  8
0
 10
3606.7660142966728927
 20
116.9006386322753031
 30
0.0
 11
3606.7555919317810549
 21
116.8685618913199988
 31
0.0
  0
LINE
  5
998F
  8
0
 10
3606.4896972872620609
 20
116.8919498494140043
 30
0.0
 11
3606.4879171298812253
 21
116.8863374117435967
 31
0.0
  0
LINE
  5
9990
  8
0
 10
3606.4879171298812253
 20
116.8863374117435967
 30
0.0
 11
3606.5044113063668192
 21
116.8815860921970966
 31
0.0
  0
LINE
  5
9991
  8
0
 10
3606.5044113063668192
 20
116.8815860921970966
 30
0.0
 11
3606.5224740824041874
 21
116.8825138707644982
 31
0.0
  0
LINE
  5
9992
  8
0
 10
3606.5224740824041874
 20
116.8825138707644982
 30
0.0
 11
3606.5242722859620699
 21
116.8881831958143067
 31
0.0
  0
LINE
  5
9993
  8
0
 10
3606.5242722859620699
 20
116.8881831958143067
 30
0.0
 11
3606.5078867466299926
 21
116.892908855887697
 31
0.0
  0
LINE
  5
9994
  8
0
 10
3606.5078867466299926
 20
116.892908855887697
 30
0.0
 11
3606.4896972872620609
 21
116.8919498494140043
 31
0.0
  0
LINE
  5
9995
  8
0
 10
3606.5044113063668192
 20
116.8815860921970966
 30
0.0
 11
3606.5078867466299926
 21
116.892908855887697
 31
0.0
  0
LINE
  5
9996
  8
0
 10
3606.485240120139224
 20
116.8778971821038937
 30
0.0
 11
3606.4840818597122052
 21
116.8742452118513029
 31
0.0
  0
LINE
  5
9997
  8
0
 10
3606.4840818597122052
 20
116.8742452118513029
 30
0.0
 11
3606.5007548242920166
 21
116.8704242924660974
 31
0.0
  0
LINE
  5
9998
  8
0
 10
3606.5007548242920166
 20
116.8704242924660974
 30
0.0
 11
3606.5186388122351673
 21
116.8704216708722043
 31
0.0
  0
LINE
  5
9999
  8
0
 10
3606.5186388122351673
 20
116.8704216708722043
 30
0.0
 11
3606.5197648169410058
 21
116.8739717064982955
 31
0.0
  0
LINE
  5
999A
  8
0
 10
3606.5197648169410058
 20
116.8739717064982955
 30
0.0
 11
3606.5030849396348458
 21
116.8777710868319986
 31
0.0
  0
LINE
  5
999B
  8
0
 10
3606.5030849396348458
 20
116.8777710868319986
 30
0.0
 11
3606.485240120139224
 21
116.8778971821038937
 31
0.0
  0
LINE
  5
999C
  8
0
 10
3606.5007548242920166
 20
116.8704242924660974
 30
0.0
 11
3606.5030849396348458
 21
116.8777710868319986
 31
0.0
  0
LINE
  5
999D
  8
0
 10
3606.4825061959791128
 20
116.8692764090856002
 30
0.0
 11
3606.4819350765978925
 21
116.8674757975407061
 31
0.0
  0
LINE
  5
999E
  8
0
 10
3606.4819350765978925
 20
116.8674757975407061
 30
0.0
 11
3606.4989841852370773
 21
116.8645324117103996
 31
0.0
  0
LINE
  5
999F
  8
0
 10
3606.4989841852370773
 20
116.8645324117103996
 30
0.0
 11
3606.5164920291208546
 21
116.8636522565615934
 31
0.0
  0
LINE
  5
99A0
  8
0
 10
3606.5164920291208546
 20
116.8636522565615934
 30
0.0
 11
3606.516998839378175
 21
116.865250113531701
 31
0.0
  0
LINE
  5
99A1
  8
0
 10
3606.516998839378175
 20
116.865250113531701
 30
0.0
 11
3606.5000948612319007
 21
116.8681509235750013
 31
0.0
  0
LINE
  5
99A2
  8
0
 10
3606.5000948612319007
 20
116.8681509235750013
 30
0.0
 11
3606.4825061959791128
 21
116.8692764090856002
 31
0.0
  0
LINE
  5
99A3
  8
0
 10
3606.4989841852370773
 20
116.8645324117103996
 30
0.0
 11
3606.5000948612319007
 21
116.8681509235750013
 31
0.0
  0
LINE
  5
99A4
  8
0
 10
3606.4960200514469761
 20
116.9118836241482029
 30
0.0
 11
3606.4935592468591494
 21
116.9041255147461982
 31
0.0
  0
LINE
  5
99A5
  8
0
 10
3606.4935592468591494
 20
116.9041255147461982
 30
0.0
 11
3606.5096455528801016
 21
116.8984552119984954
 31
0.0
  0
LINE
  5
99A6
  8
0
 10
3606.5096455528801016
 20
116.8984552119984954
 30
0.0
 11
3606.528116199381202
 21
116.9003019737670002
 31
0.0
  0
LINE
  5
99A7
  8
0
 10
3606.528116199381202
 20
116.9003019737670002
 30
0.0
 11
3606.5293564789781158
 21
116.9042122920155009
 31
0.0
  0
LINE
  5
99A8
  8
0
 10
3606.5034764933120641
 20
116.912621209091995
 30
0.0
 11
3606.4960200514469761
 21
116.9118836241482029
 31
0.0
  0
LINE
  5
99A9
  8
0
 10
3606.5096455528801016
 20
116.8984552119984954
 30
0.0
 11
3606.5134565775470037
 21
116.9093784831559049
 31
0.0
  0
LINE
  5
99AA
  8
0
 10
3606.5208268020169271
 20
116.8980146068396948
 30
0.0
 11
3606.5186941179531459
 21
116.891290864338103
 31
0.0
  0
LINE
  5
99AB
  8
0
 10
3606.5186941179531459
 20
116.891290864338103
 30
0.0
 11
3606.5351954584129999
 21
116.8869289172595956
 31
0.0
  0
LINE
  5
99AC
  8
0
 10
3606.5351954584129999
 20
116.8869289172595956
 30
0.0
 11
3606.5538363867431144
 21
116.8893126918479055
 31
0.0
  0
LINE
  5
99AD
  8
0
 10
3606.5538363867431144
 20
116.8893126918479055
 30
0.0
 11
3606.5558336669050732
 21
116.8956093321616976
 31
0.0
  0
LINE
  5
99AE
  8
0
 10
3606.5468460852939643
 20
116.898529574447295
 30
0.0
 11
3606.5394961393021731
 21
116.9004863800486049
 31
0.0
  0
LINE
  5
99AF
  8
0
 10
3606.5394961393021731
 20
116.9004863800486049
 30
0.0
 11
3606.5208268020169271
 21
116.8980146068396948
 31
0.0
  0
LINE
  5
99B0
  8
0
 10
3606.5351954584129999
 20
116.8869289172595956
 30
0.0
 11
3606.5394961393021731
 21
116.9004863800486049
 31
0.0
  0
LINE
  5
99B1
  8
0
 10
3606.5154060465902148
 20
116.8809241284168934
 30
0.0
 11
3606.5139350967679093
 21
116.8762866352756049
 31
0.0
  0
LINE
  5
99B2
  8
0
 10
3606.5139350967679093
 20
116.8762866352756049
 30
0.0
 11
3606.5307828588911434
 21
116.8728144510539977
 31
0.0
  0
LINE
  5
99B3
  8
0
 10
3606.5307828588911434
 20
116.8728144510539977
 30
0.0
 11
3606.5489956790370343
 21
116.8740507333886995
 31
0.0
  0
LINE
  5
99B4
  8
0
 10
3606.5489956790370343
 20
116.8740507333886995
 30
0.0
 11
3606.5505418050129265
 21
116.8789251590928018
 31
0.0
  0
LINE
  5
99B5
  8
0
 10
3606.5505418050129265
 20
116.8789251590928018
 30
0.0
 11
3606.5336953822520627
 21
116.8821995214703975
 31
0.0
  0
LINE
  5
99B6
  8
0
 10
3606.5336953822520627
 20
116.8821995214703975
 30
0.0
 11
3606.5154060465902148
 21
116.8809241284168934
 31
0.0
  0
LINE
  5
99B7
  8
0
 10
3606.5307828588911434
 20
116.8728144510539977
 30
0.0
 11
3606.5336953822520627
 21
116.8821995214703975
 31
0.0
  0
LINE
  5
99B8
  8
0
 10
3606.5117903047698746
 20
116.8695235738337033
 30
0.0
 11
3606.5109206724050637
 21
116.8667820660091934
 31
0.0
  0
LINE
  5
99B9
  8
0
 10
3606.5109206724050637
 20
116.8667820660091934
 30
0.0
 11
3606.5279907872941294
 21
116.8642131220270954
 31
0.0
  0
LINE
  5
99BA
  8
0
 10
3606.5279907872941294
 20
116.8642131220270954
 30
0.0
 11
3606.5459426424708909
 21
116.8644244461241044
 31
0.0
  0
LINE
  5
99BB
  8
0
 10
3606.5459426424708909
 20
116.8644244461241044
 30
0.0
 11
3606.5468250005060327
 21
116.867206661716196
 31
0.0
  0
LINE
  5
99BC
  8
0
 10
3606.5468250005060327
 20
116.867206661716196
 30
0.0
 11
3606.5297785575221496
 21
116.8697303651130994
 31
0.0
  0
LINE
  5
99BD
  8
0
 10
3606.5297785575221496
 20
116.8697303651130994
 30
0.0
 11
3606.5117903047698746
 21
116.8695235738337033
 31
0.0
  0
LINE
  5
99BE
  8
0
 10
3606.5279907872941294
 20
116.8642131220270954
 30
0.0
 11
3606.5297785575221496
 21
116.8697303651130994
 31
0.0
  0
LINE
  5
99BF
  8
0
 10
3606.5464722081760556
 20
116.8867893672367018
 30
0.0
 11
3606.54469205079522
 21
116.8811769295663936
 31
0.0
  0
LINE
  5
99C0
  8
0
 10
3606.54469205079522
 20
116.8811769295663936
 30
0.0
 11
3606.5617051413009904
 21
116.8781278719461056
 31
0.0
  0
LINE
  5
99C1
  8
0
 10
3606.5617051413009904
 20
116.8781278719461056
 30
0.0
 11
3606.5803574910460156
 21
116.8808481971828996
 31
0.0
  0
LINE
  5
99C2
  8
0
 10
3606.5803574910460156
 20
116.8808481971828996
 30
0.0
 11
3606.582213723465884
 21
116.8867000409563985
 31
0.0
  0
LINE
  5
99C3
  8
0
 10
3606.582213723465884
 20
116.8867000409563985
 30
0.0
 11
3606.5652912972709601
 21
116.8897332176059933
 31
0.0
  0
LINE
  5
99C4
  8
0
 10
3606.5652912972709601
 20
116.8897332176059933
 30
0.0
 11
3606.5464722081760556
 21
116.8867893672367018
 31
0.0
  0
LINE
  5
99C5
  8
0
 10
3606.5617051413009904
 20
116.8781278719461056
 30
0.0
 11
3606.5652912972709601
 21
116.8897332176059933
 31
0.0
  0
LINE
  5
99C6
  8
0
 10
3606.5420273902082045
 20
116.8725563311337936
 30
0.0
 11
3606.540817098862135
 21
116.8688147224437017
 31
0.0
  0
LINE
  5
99C7
  8
0
 10
3606.540817098862135
 20
116.8688147224437017
 30
0.0
 11
3606.5579678495178086
 21
116.866644889869093
 31
0.0
  0
LINE
  5
99C8
  8
0
 10
3606.5579678495178086
 20
116.866644889869093
 30
0.0
 11
3606.5763212245319664
 21
116.868253352828404
 31
0.0
  0
LINE
  5
99C9
  8
0
 10
3606.5763212245319664
 20
116.868253352828404
 30
0.0
 11
3606.5774725864221182
 21
116.8720496023644984
 31
0.0
  0
LINE
  5
99CA
  8
0
 10
3606.5774725864221182
 20
116.8720496023644984
 30
0.0
 11
3606.5603562662049626
 21
116.8741741321557015
 31
0.0
  0
LINE
  5
99CB
  8
0
 10
3606.5603562662049626
 20
116.8741741321557015
 30
0.0
 11
3606.5420273902082045
 21
116.8725563311337936
 31
0.0
  0
LINE
  5
99CC
  8
0
 10
3606.5579678495178086
 20
116.866644889869093
 30
0.0
 11
3606.5603562662049626
 21
116.8741741321557015
 31
0.0
  0
LINE
  5
99CD
  8
0
 10
3606.539164115848962
 20
116.8637475480078933
 30
0.0
 11
3606.5386712144841113
 21
116.861900980040204
 31
0.0
  0
LINE
  5
99CE
  8
0
 10
3606.5386712144841113
 20
116.861900980040204
 30
0.0
 11
3606.5559477999099727
 21
116.8606241376813983
 31
0.0
  0
LINE
  5
99CF
  8
0
 10
3606.5559477999099727
 20
116.8606241376813983
 30
0.0
 11
3606.5741322164280973
 21
116.8612198373045032
 31
0.0
  0
LINE
  5
99D0
  8
0
 10
3606.5741322164280973
 20
116.8612198373045032
 30
0.0
 11
3606.5747257820307823
 21
116.8630912659443055
 31
0.0
  0
LINE
  5
99D1
  8
0
 10
3606.5747257820307823
 20
116.8630912659443055
 30
0.0
 11
3606.5572332503638791
 21
116.8643272424319974
 31
0.0
  0
LINE
  5
99D2
  8
0
 10
3606.5572332503638791
 20
116.8643272424319974
 30
0.0
 11
3606.539164115848962
 21
116.8637475480078933
 31
0.0
  0
LINE
  5
99D3
  8
0
 10
3606.5559477999099727
 20
116.8606241376813983
 30
0.0
 11
3606.5572332503638791
 21
116.8643272424319974
 31
0.0
  0
LINE
  5
99D4
  8
0
 10
3606.5730630826938068
 20
116.8785445227090065
 30
0.0
 11
3606.5715446389240242
 21
116.8737572094608055
 31
0.0
  0
LINE
  5
99D5
  8
0
 10
3606.5715446389240242
 20
116.8737572094608055
 30
0.0
 11
3606.5888749494829426
 21
116.8720085071181956
 31
0.0
  0
LINE
  5
99D6
  8
0
 10
3606.5888749494829426
 20
116.8720085071181956
 30
0.0
 11
3606.6077511294151918
 21
116.8751336707985047
 31
0.0
  0
LINE
  5
99D7
  8
0
 10
3606.6077511294151918
 20
116.8751336707985047
 30
0.0
 11
3606.6087881934818142
 21
116.8784033634811976
 31
0.0
  0
LINE
  5
99D8
  8
0
 10
3606.6013384675488851
 20
116.8808239261673947
 30
0.0
 11
3606.5919463519471719
 21
116.8816921333518053
 31
0.0
  0
LINE
  5
99D9
  8
0
 10
3606.5919463519471719
 20
116.8816921333518053
 30
0.0
 11
3606.5730630826938068
 21
116.8785445227090065
 31
0.0
  0
LINE
  5
99DA
  8
0
 10
3606.5888749494829426
 20
116.8720085071181956
 30
0.0
 11
3606.5919463519471719
 21
116.8816921333518053
 31
0.0
  0
LINE
  5
99DB
  8
0
 10
3606.5693483982990983
 20
116.8668325557211034
 30
0.0
 11
3606.568455743146842
 21
116.8640181850397965
 31
0.0
  0
LINE
  5
99DC
  8
0
 10
3606.568455743146842
 20
116.8640181850397965
 30
0.0
 11
3606.5860651875691474
 21
116.8631491182512008
 31
0.0
  0
LINE
  5
99DD
  8
0
 10
3606.5860651875691474
 20
116.8631491182512008
 30
0.0
 11
3606.6045928218418339
 21
116.8651760091020009
 31
0.0
  0
LINE
  5
99DE
  8
0
 10
3606.6045928218418339
 20
116.8651760091020009
 30
0.0
 11
3606.6055053103118553
 21
116.8680527260696067
 31
0.0
  0
LINE
  5
99DF
  8
0
 10
3606.6055053103118553
 20
116.8680527260696067
 30
0.0
 11
3606.587870158907208
 21
116.8688391081630016
 31
0.0
  0
LINE
  5
99E0
  8
0
 10
3606.587870158907208
 20
116.8688391081630016
 30
0.0
 11
3606.5693483982990983
 21
116.8668325557211034
 31
0.0
  0
LINE
  5
99E1
  8
0
 10
3606.5860651875691474
 20
116.8631491182512008
 30
0.0
 11
3606.587870158907208
 21
116.8688391081630016
 31
0.0
  0
LINE
  5
99E2
  8
0
 10
3606.5673743075290076
 20
116.8606075364980939
 30
0.0
 11
3606.5668567049870035
 21
116.8589756550679937
 31
0.0
  0
LINE
  5
99E3
  8
0
 10
3606.6028681790330666
 20
116.8597374150351982
 30
0.0
 11
3606.6034877816819062
 21
116.861690773347803
 31
0.0
  0
LINE
  5
99E4
  8
0
 10
3606.6034877816819062
 20
116.861690773347803
 30
0.0
 11
3606.5855707210621404
 21
116.8615884652745933
 31
0.0
  0
LINE
  5
99E5
  8
0
 10
3606.5855707210621404
 20
116.8615884652745933
 30
0.0
 11
3606.5673743075290076
 21
116.8606075364980939
 31
0.0
  0
LINE
  5
99E6
  8
0
 10
3606.5848023125331565
 20
116.8590860948254999
 30
0.0
 11
3606.5855707210621404
 21
116.8615884652745933
 31
0.0
  0
LINE
  5
99E7
  8
0
 10
3606.6004791262062099
 20
116.8729011374544058
 30
0.0
 11
3606.5992568154129003
 21
116.8690472550426023
 31
0.0
  0
LINE
  5
99E8
  8
0
 10
3606.5992568154129003
 20
116.8690472550426023
 30
0.0
 11
3606.617014146891961
 21
116.8686446920505944
 31
0.0
  0
LINE
  5
99E9
  8
0
 10
3606.617014146891961
 20
116.8686446920505944
 30
0.0
 11
3606.6312379170140048
 21
116.8711090061348017
 31
0.0
  0
LINE
  5
99EA
  8
0
 10
3606.6165613777370709
 20
116.8758777028157994
 30
0.0
 11
3606.6004791262062099
 21
116.8729011374544058
 31
0.0
  0
LINE
  5
99EB
  8
0
 10
3606.617014146891961
 20
116.8686446920505944
 30
0.0
 11
3606.6191213142710694
 21
116.8750459290151014
 31
0.0
  0
LINE
  5
99EC
  8
0
 10
3606.5975953395659417
 20
116.8638083935405945
 30
0.0
 11
3606.59699372579189
 21
116.8619111961105972
 31
0.0
  0
LINE
  5
99ED
  8
0
 10
3606.59699372579189
 20
116.8619111961105972
 30
0.0
 11
3606.6150337524259157
 21
116.8623998001095998
 31
0.0
  0
LINE
  5
99EE
  8
0
 10
3606.6150337524259157
 20
116.8623998001095998
 30
0.0
 11
3606.6337083500920926
 21
116.8648894984489033
 31
0.0
  0
LINE
  5
99EF
  8
0
 10
3606.6337083500920926
 20
116.8648894984489033
 30
0.0
 11
3606.6343256235059016
 21
116.8668360612486055
 31
0.0
  0
LINE
  5
99F0
  8
0
 10
3606.6343256235059016
 20
116.8668360612486055
 30
0.0
 11
3606.616252343656015
 21
116.8662426293082035
 31
0.0
  0
LINE
  5
99F1
  8
0
 10
3606.616252343656015
 20
116.8662426293082035
 30
0.0
 11
3606.5975953395659417
 21
116.8638083935405945
 31
0.0
  0
LINE
  5
99F2
  8
0
 10
3606.6150337524259157
 20
116.8623998001095998
 30
0.0
 11
3606.616252343656015
 21
116.8662426293082035
 31
0.0
  0
LINE
  5
99F3
  8
0
 10
3606.5098668405271383
 20
116.8634587413672961
 30
0.0
 11
3606.5095230177289523
 21
116.8622118526759976
 31
0.0
  0
LINE
  5
99F4
  8
0
 10
3606.5444584802298778
 20
116.8595877319242931
 30
0.0
 11
3606.5448733342032028
 21
116.8610523335701998
 31
0.0
  0
LINE
  5
99F5
  8
0
 10
3606.5448733342032028
 20
116.8610523335701998
 30
0.0
 11
3606.5275102535510996
 21
116.8626977324114051
 31
0.0
  0
LINE
  5
99F6
  8
0
 10
3606.5275102535510996
 20
116.8626977324114051
 30
0.0
 11
3606.5098668405271383
 21
116.8634587413672961
 31
0.0
  0
LINE
  5
99F7
  8
0
 10
3606.526946778034926
 20
116.860647796485793
 30
0.0
 11
3606.5275102535510996
 21
116.8626977324114051
 31
0.0
  0
LINE
  5
99F8
  8
0
 10
3606.6323897238607969
 20
116.8707347614039946
 30
0.0
 11
3606.6287747228939224
 21
116.8700303564990008
 31
0.0
  0
LINE
  5
99F9
  8
0
 10
3606.6287747228939224
 20
116.8700303564990008
 30
0.0
 11
3606.6278472450539994
 21
116.867105905332906
 31
0.0
  0
LINE
  5
99FA
  8
0
 10
3606.6278472450539994
 20
116.867105905332906
 30
0.0
 11
3606.6413455218498711
 21
116.8678248462435931
 31
0.0
  0
LINE
  5
99FB
  8
0
 10
3606.4698137301220413
 20
116.8677277924207942
 30
0.0
 11
3606.4706420095508292
 21
116.8675626822188036
 31
0.0
  0
LINE
  5
99FC
  8
0
 10
3606.4706420095508292
 20
116.8675626822188036
 30
0.0
 11
3606.4877540748079809
 21
116.8651266528748067
 31
0.0
  0
LINE
  5
99FD
  8
0
 10
3606.4877540748079809
 20
116.8651266528748067
 30
0.0
 11
3606.4880390031598836
 21
116.8660255315190994
 31
0.0
  0
LINE
  5
99FE
  8
0
 10
3606.4880390031598836
 20
116.8660255315190994
 30
0.0
 11
3606.4711915003408649
 21
116.8692962376745044
 31
0.0
  0
LINE
  5
99FF
  8
0
 10
3606.4711915003408649
 20
116.8692962376745044
 30
0.0
 11
3606.4703433330228108
 21
116.8693984747950054
 31
0.0
  0
LINE
  5
9A00
  8
0
 10
3606.4703433330228108
 20
116.8693984747950054
 30
0.0
 11
3606.4698137301220413
 21
116.8677277924207942
 31
0.0
  0
LINE
  5
9A01
  8
0
 10
3606.4708429185388923
 20
116.8709739563438035
 30
0.0
 11
3606.4716631504129509
 21
116.8707836225034953
 31
0.0
  0
LINE
  5
9A02
  8
0
 10
3606.4716631504129509
 20
116.8707836225034953
 30
0.0
 11
3606.4890852496941989
 21
116.8693249444356042
 31
0.0
  0
LINE
  5
9A03
  8
0
 10
3606.4890852496941989
 20
116.8693249444356042
 30
0.0
 11
3606.4899483684739607
 21
116.8720465101682038
 31
0.0
  0
LINE
  5
9A04
  8
0
 10
3606.4899483684739607
 20
116.8720465101682038
 30
0.0
 11
3606.4733672576639947
 21
116.8761569904717987
 31
0.0
  0
LINE
  5
9A05
  8
0
 10
3606.4733672576639947
 20
116.8761569904717987
 30
0.0
 11
3606.4725190903459406
 21
116.8762592275922998
 31
0.0
  0
LINE
  5
9A06
  8
0
 10
3606.4725190903459406
 20
116.8762592275922998
 30
0.0
 11
3606.4708429185388923
 21
116.8709739563438035
 31
0.0
  0
LINE
  5
9A07
  8
0
 10
3606.4735338121281529
 20
116.8794586249234015
 30
0.0
 11
3606.4743401156310938
 21
116.8792243828101931
 31
0.0
  0
LINE
  5
9A08
  8
0
 10
3606.4743401156310938
 20
116.8792243828101931
 30
0.0
 11
3606.49207088599087
 21
116.8787387591493001
 31
0.0
  0
LINE
  5
9A09
  8
0
 10
3606.49207088599087
 20
116.8787387591493001
 30
0.0
 11
3606.493537234211999
 21
116.8833619448494971
 31
0.0
  0
LINE
  5
9A0A
  8
0
 10
3606.493537234211999
 20
116.8833619448494971
 30
0.0
 11
3606.4772591417558942
 21
116.8884254383763022
 31
0.0
  0
LINE
  5
9A0B
  8
0
 10
3606.4772591417558942
 20
116.8884254383763022
 30
0.0
 11
3606.4763796291181279
 21
116.8884310842273067
 31
0.0
  0
LINE
  5
9A0C
  8
0
 10
3606.4763796291181279
 20
116.8884310842273067
 30
0.0
 11
3606.4735338121281529
 21
116.8794586249234015
 31
0.0
  0
LINE
  5
9A0D
  8
0
 10
3606.4779368180520578
 20
116.8933405542260999
 30
0.0
 11
3606.47872863895509
 21
116.8930606574319029
 31
0.0
  0
LINE
  5
9A0E
  8
0
 10
3606.47872863895509
 20
116.8930606574319029
 30
0.0
 11
3606.4967998043230182
 21
116.8936480949406018
 31
0.0
  0
LINE
  5
9A0F
  8
0
 10
3606.4967998043230182
 20
116.8936480949406018
 30
0.0
 11
3606.4989153640581208
 21
116.9003178546136041
 31
0.0
  0
LINE
  5
9A10
  8
0
 10
3606.4989153640581208
 20
116.9003178546136041
 30
0.0
 11
3606.4828916842980107
 21
116.906185580220793
 31
0.0
  0
LINE
  5
9A11
  8
0
 10
3606.4828916842980107
 20
116.906185580220793
 30
0.0
 11
3606.4820435169790471
 21
116.9062878173413935
 31
0.0
  0
LINE
  5
9A12
  8
0
 10
3606.4820435169790471
 20
116.9062878173413935
 30
0.0
 11
3606.4779368180520578
 21
116.8933405542260999
 31
0.0
  0
LINE
  5
9A13
  8
0
 10
3606.4858672603518244
 20
116.9183427957131016
 30
0.0
 11
3606.4841955599308676
 21
116.9130725047499055
 31
0.0
  0
LINE
  5
9A14
  8
0
 10
3606.4841955599308676
 20
116.9130725047499055
 30
0.0
 11
3606.4849718708151158
 21
116.9127437145275934
 31
0.0
  0
LINE
  5
9A15
  8
0
 10
3606.4849718708151158
 20
116.9127437145275934
 30
0.0
 11
3606.4990756129482179
 21
116.9140511418023038
 31
0.0
  0
LINE
  5
9A16
  8
0
 10
3606.3102631915398888
 20
116.9500796534136953
 30
0.0
 11
3606.3084831605001455
 21
116.9444671756718037
 31
0.0
  0
LINE
  5
9A17
  8
0
 10
3606.3084831605001455
 20
116.9444671756718037
 30
0.0
 11
3606.2922657002091
 21
116.9500909535027944
 31
0.0
  0
LINE
  5
9A18
  8
0
 10
3606.2922657002091
 20
116.9500909535027944
 30
0.0
 11
3606.2846612601369998
 21
116.9560611283346958
 31
0.0
  0
LINE
  5
9A19
  8
0
 10
3606.3030798306031102
 20
116.9557349973062941
 30
0.0
 11
3606.3102631915398888
 21
116.9500796534136953
 31
0.0
  0
LINE
  5
9A1A
  8
0
 10
3606.2922657002091
 20
116.9500909535027944
 30
0.0
 11
3606.2941653463358307
 21
116.9558922027840993
 31
0.0
  0
LINE
  5
9A1B
  8
0
 10
3606.3058062155291736
 20
116.9360269254890028
 30
0.0
 11
3606.3046479021818413
 21
116.9323749720208951
 31
0.0
  0
LINE
  5
9A1C
  8
0
 10
3606.3046479021818413
 20
116.9323749720208951
 30
0.0
 11
3606.288820579935873
 21
116.9388621164882949
 31
0.0
  0
LINE
  5
9A1D
  8
0
 10
3606.288820579935873
 20
116.9388621164882949
 30
0.0
 11
3606.2742043174412174
 21
116.9491675472048939
 31
0.0
  0
LINE
  5
9A1E
  8
0
 10
3606.2742043174412174
 20
116.9491675472048939
 30
0.0
 11
3606.2753302392820842
 21
116.9527176091134066
 31
0.0
  0
LINE
  5
9A1F
  8
0
 10
3606.2753302392820842
 20
116.9527176091134066
 30
0.0
 11
3606.2911507963949589
 21
116.9462088787830965
 31
0.0
  0
LINE
  5
9A20
  8
0
 10
3606.2911507963949589
 20
116.9462088787830965
 30
0.0
 11
3606.3058062155291736
 21
116.9360269254890028
 31
0.0
  0
LINE
  5
9A21
  8
0
 10
3606.288820579935873
 20
116.9388621164882949
 30
0.0
 11
3606.2911507963949589
 21
116.9462088787830965
 31
0.0
  0
LINE
  5
9A22
  8
0
 10
3606.3030717233250471
 20
116.9274063326365933
 30
0.0
 11
3606.3025006444768223
 21
116.9256057082356932
 31
0.0
  0
LINE
  5
9A23
  8
0
 10
3606.3025006444768223
 20
116.9256057082356932
 30
0.0
 11
3606.2868717113860839
 21
116.9330267644952954
 31
0.0
  0
LINE
  5
9A24
  8
0
 10
3606.2868717113860839
 20
116.9330267644952954
 30
0.0
 11
3606.2720570597339247
 21
116.9423982834200046
 31
0.0
  0
LINE
  5
9A25
  8
0
 10
3606.2720570597339247
 20
116.9423982834200046
 30
0.0
 11
3606.2725638326951412
 21
116.9439961522195972
 31
0.0
  0
LINE
  5
9A26
  8
0
 10
3606.2725638326951412
 20
116.9439961522195972
 30
0.0
 11
3606.2880496266179762
 21
116.9366239501987934
 31
0.0
  0
LINE
  5
9A27
  8
0
 10
3606.2880496266179762
 20
116.9366239501987934
 30
0.0
 11
3606.3030717233250471
 21
116.9274063326365933
 31
0.0
  0
LINE
  5
9A28
  8
0
 10
3606.2868717113860839
 20
116.9330267644952954
 30
0.0
 11
3606.2880496266179762
 21
116.9366239501987934
 31
0.0
  0
LINE
  5
9A29
  8
0
 10
3606.282899297314998
 20
116.9558869008320983
 30
0.0
 11
3606.2814284993369256
 21
116.9512493595304932
 31
0.0
  0
LINE
  5
9A2A
  8
0
 10
3606.2814284993369256
 20
116.9512493595304932
 30
0.0
 11
3606.2697749785738779
 21
116.9563284601388062
 31
0.0
  0
LINE
  5
9A2B
  8
0
 10
3606.2826412871941102
 20
116.956097207188904
 30
0.0
 11
3606.282899297314998
 21
116.9558869008320983
 31
0.0
  0
LINE
  5
9A2C
  8
0
 10
3606.2792832760210331
 20
116.9444864348891997
 30
0.0
 11
3606.2784138484998948
 21
116.9417448620950069
 31
0.0
  0
LINE
  5
9A2D
  8
0
 10
3606.2784138484998948
 20
116.9417448620950069
 30
0.0
 11
3606.2629835615730372
 21
116.9494840184358964
 31
0.0
  0
LINE
  5
9A2E
  8
0
 10
3606.2629835615730372
 20
116.9494840184358964
 30
0.0
 11
3606.2530979290331743
 21
116.9566319280064022
 31
0.0
  0
LINE
  5
9A2F
  8
0
 10
3606.2618298232710004
 20
116.9564725118714961
 30
0.0
 11
3606.2647025052851859
 21
116.9550230911175959
 31
0.0
  0
LINE
  5
9A30
  8
0
 10
3606.2647025052851859
 20
116.9550230911175959
 30
0.0
 11
3606.2792832760210331
 21
116.9444864348891997
 31
0.0
  0
LINE
  5
9A31
  8
0
 10
3606.2629835615730372
 20
116.9494840184358964
 30
0.0
 11
3606.2647025052851859
 21
116.9550230911175959
 31
0.0
  0
LINE
  5
9A32
  8
0
 10
3606.2535844074668603
 20
116.9555433857506017
 30
0.0
 11
3606.2529229217111606
 21
116.9537502874238015
 31
0.0
  0
LINE
  5
9A33
  8
0
 10
3606.2529229217111606
 20
116.9537502874238015
 30
0.0
 11
3606.2479638956351664
 21
116.956726196697403
 31
0.0
  0
LINE
  5
9A34
  8
0
 10
3606.2521177410380915
 20
116.9566498949921964
 30
0.0
 11
3606.2535844074668603
 21
116.9555433857506017
 31
0.0
  0
LINE
  5
9A35
  8
0
 10
3606.277359613804947
 20
116.9384216652134967
 30
0.0
 11
3606.2771047698429356
 21
116.9377129885180011
 31
0.0
  0
LINE
  5
9A36
  8
0
 10
3606.24713789400721
 20
116.9559845326834022
 30
0.0
 11
3606.2473654406608148
 21
116.9566314146710937
 31
0.0
  0
LINE
  5
9A37
  8
0
 10
3606.2473654406608148
 20
116.9566314146710937
 30
0.0
 11
3606.2625028461989132
 21
116.9479686864279984
 31
0.0
  0
LINE
  5
9A38
  8
0
 10
3606.2625028461989132
 20
116.9479686864279984
 30
0.0
 11
3606.277359613804947
 21
116.9384216652134967
 31
0.0
  0
LINE
  5
9A39
  8
0
 10
3606.2620207643408321
 20
116.9466314972632972
 30
0.0
 11
3606.2625028461989132
 21
116.9479686864279984
 31
0.0
  0
LINE
  5
9A3A
  8
0
 10
3606.2964052229631307
 20
116.9270832925218997
 30
0.0
 11
3606.2966766586118865
 21
116.9279385990698046
 31
0.0
  0
LINE
  5
9A3B
  8
0
 10
3606.2966766586118865
 20
116.9279385990698046
 30
0.0
 11
3606.3123294934848673
 21
116.9209012252400015
 31
0.0
  0
LINE
  5
9A3C
  8
0
 10
3606.3123294934848673
 20
116.9209012252400015
 30
0.0
 11
3606.3130815389022246
 21
116.9204959254533946
 31
0.0
  0
LINE
  5
9A3D
  8
0
 10
3606.3130815389022246
 20
116.9204959254533946
 30
0.0
 11
3606.3125534374958079
 21
116.9188317692878059
 31
0.0
  0
LINE
  5
9A3E
  8
0
 10
3606.3135813196581694
 20
116.9220713450781943
 30
0.0
 11
3606.3128013278001163
 21
116.9223885516325936
 31
0.0
  0
LINE
  5
9A3F
  8
0
 10
3606.3128013278001163
 20
116.9223885516325936
 30
0.0
 11
3606.297723310325182
 21
116.9312378834764985
 31
0.0
  0
LINE
  5
9A40
  8
0
 10
3606.297723310325182
 20
116.9312378834764985
 30
0.0
 11
3606.298586566954782
 21
116.9339594054873999
 31
0.0
  0
LINE
  5
9A41
  8
0
 10
3606.298586566954782
 20
116.9339594054873999
 30
0.0
 11
3606.3145057171709595
 21
116.9277618301214972
 31
0.0
  0
LINE
  5
9A42
  8
0
 10
3606.3145057171709595
 20
116.9277618301214972
 30
0.0
 11
3606.3152577625878621
 21
116.9273565303349045
 31
0.0
  0
LINE
  5
9A43
  8
0
 10
3606.3152577625878621
 20
116.9273565303349045
 30
0.0
 11
3606.3135813196581694
 21
116.9220713450781943
 31
0.0
  0
LINE
  5
9A44
  8
0
 10
3606.316272531506911
 20
116.9305559127159029
 30
0.0
 11
3606.3154786150112159
 21
116.9308292098134956
 31
0.0
  0
LINE
  5
9A45
  8
0
 10
3606.3154786150112159
 20
116.9308292098134956
 30
0.0
 11
3606.300709179621208
 21
116.9406516242898988
 31
0.0
  0
LINE
  5
9A46
  8
0
 10
3606.300709179621208
 20
116.9406516242898988
 30
0.0
 11
3606.3021754918117949
 21
116.9452748214176978
 31
0.0
  0
LINE
  5
9A47
  8
0
 10
3606.3021754918117949
 20
116.9452748214176978
 30
0.0
 11
3606.3183962926182176
 21
116.940030693086797
 31
0.0
  0
LINE
  5
9A48
  8
0
 10
3606.3183962926182176
 20
116.940030693086797
 30
0.0
 11
3606.3191182822388328
 21
116.9395283930347063
 31
0.0
  0
LINE
  5
9A49
  8
0
 10
3606.3191182822388328
 20
116.9395283930347063
 30
0.0
 11
3606.316272531506911
 21
116.9305559127159029
 31
0.0
  0
LINE
  5
9A4A
  8
0
 10
3606.320675361764188
 20
116.944437897734602
 30
0.0
 11
3606.3198669669891387
 21
116.9446655387807965
 31
0.0
  0
LINE
  5
9A4B
  8
0
 10
3606.3198669669891387
 20
116.9446655387807965
 30
0.0
 11
3606.3054378286278734
 21
116.955561045502705
 31
0.0
  0
LINE
  5
9A4C
  8
0
 10
3606.3054378286278734
 20
116.955561045502705
 30
0.0
 11
3606.3054796406308924
 21
116.9556928821844934
 31
0.0
  0
LINE
  5
9A4D
  8
0
 10
3606.3241419532409964
 20
116.9553683402472046
 30
0.0
 11
3606.320675361764188
 21
116.944437897734602
 31
0.0
  0
LINE
  5
9A4E
  8
0
 10
3611.6528572222059665
 20
113.3571982834752987
 30
0.0
 11
3611.6528572222059665
 21
113.3813419052308973
 31
0.0
  0
ARC
  5
9A4F
  8
0
 10
3611.642857222206203
 20
113.3571982834752987
 30
0.0
 40
0.01
 50
270.0
 51
359.9999999999935199
  0
ARC
  5
9A50
  8
0
 10
3611.6133000388490473
 20
113.3813373617212932
 30
0.0
 40
0.0395571836171675
 50
0.0065809520242665
 51
17.6879509448189403
  0
LINE
  5
9A51
  8
0
 10
3609.8024649331059663
 20
113.3571982834752987
 30
0.0
 11
3609.8024649331059663
 21
113.3813419052308973
 31
0.0
  0
ARC
  5
9A52
  8
0
 10
3609.8124649331061846
 20
113.3571982834752987
 30
0.0
 40
0.01
 50
180.0000000000065086
 51
270.0
  0
ARC
  5
9A53
  8
0
 10
3609.8420221164619761
 20
113.3813373617212932
 30
0.0
 40
0.0395571836171675
 50
162.3120490551810065
 51
179.9934190479756921
  0
ENDSEC
  0
EOF
