  0
SECTION
  2
HEADER
  9
$ACADVER
  1
AC1009
  9
$INSBASE
 10
897.9271565768621031
 20
149.5956907203058108
 30
0.0
  9
$EXTMIN
 10
863.5394694591039979
 20
130.2231506217117101
 30
-0.0000000000000058
  9
$EXTMAX
 10
932.3190290906553628
 20
150.9986114692432011
 30
0.0000000000000104
  9
$LIMMIN
 10
0.0
 20
0.0
  9
$LIMMAX
 10
11.6929133858000007
 20
8.2677165353999982
  9
$ORTHOMODE
 70
     0
  9
$REGENMODE
 70
     1
  9
$FILLMODE
 70
     1
  9
$QTEXTMODE
 70
     0
  9
$MIRRTEXT
 70
     0
  9
$DRAGMODE
 70
     2
  9
$LTSCALE
 40
0.6431102362
  9
$OSMODE
 70
  4095
  9
$ATTMODE
 70
     1
  9
$TEXTSIZE
 40
0.2
  9
$TRACEWID
 40
0.05
  9
$TEXTSTYLE
  7
STANDARD
  9
$CLAYER
  8
0
  9
$CELTYPE
  6
BYLAYER
  9
$CECOLOR
 62
   256
  9
$DIMSCALE
 40
1.0
  9
$DIMASZ
 40
0.1875
  9
$DIMEXO
 40
0.0625
  9
$DIMDLI
 40
0.4443307087
  9
$DIMRND
 40
0.0
  9
$DIMDLE
 40
0.0
  9
$DIMEXE
 40
0.125
  9
$DIMTP
 40
0.01
  9
$DIMTM
 40
0.01
  9
$DIMTXT
 40
1.0
  9
$DIMCEN
 40
0.1052362205
  9
$DIMTSZ
 40
0.0
  9
$DIMTOL
 70
     1
  9
$DIMLIM
 70
     0
  9
$DIMTIH
 70
     0
  9
$DIMTOH
 70
     1
  9
$DIMSE1
 70
     0
  9
$DIMSE2
 70
     0
  9
$DIMTAD
 70
     0
  9
$DIMZIN
 70
     0
  9
$DIMBLK
  1

  9
$DIMASO
 70
     1
  9
$DIMSHO
 70
     1
  9
$DIMPOST
  1
\X
  9
$DIMAPOST
  1

  9
$DIMALT
 70
     1
  9
$DIMALTD
 70
     2
  9
$DIMALTF
 40
25.3999999999999986
  9
$DIMLFAC
 40
1.0
  9
$DIMTOFL
 70
     0
  9
$DIMTVP
 40
0.0
  9
$DIMTIX
 70
     0
  9
$DIMSOXD
 70
     0
  9
$DIMSAH
 70
     0
  9
$DIMBLK1
  1

  9
$DIMBLK2
  1

  9
$DIMSTYLE
  2
STANDARD
  9
$DIMCLRD
 70
     0
  9
$DIMCLRE
 70
     0
  9
$DIMCLRT
 70
     0
  9
$DIMTFAC
 40
1.0
  9
$DIMGAP
 40
0.09
  9
$LUNITS
 70
     2
  9
$LUPREC
 70
     4
  9
$SKETCHINC
 40
0.1
  9
$FILLETRAD
 40
0.0
  9
$AUNITS
 70
     0
  9
$AUPREC
 70
     0
  9
$MENU
  1
.
  9
$ELEVATION
 40
0.0
  9
$PELEVATION
 40
0.0
  9
$THICKNESS
 40
0.0
  9
$LIMCHECK
 70
     0
  9
$BLIPMODE
 70
     0
  9
$CHAMFERA
 40
0.0
  9
$CHAMFERB
 40
0.0
  9
$SKPOLY
 70
     0
  9
$TDCREATE
 40
2458172.5207638889551163
  9
$TDUPDATE
 40
2459122.8040625001303852
  9
$TDINDWG
 40
0.4278016435
  9
$TDUSRTIMER
 40
0.4278016435
  9
$USRTIMER
 70
     1
  9
$ANGBASE
 50
0.0
  9
$ANGDIR
 70
     0
  9
$PDMODE
 70
     0
  9
$PDSIZE
 40
0.3125
  9
$PLINEWID
 40
0.0
  9
$COORDS
 70
     1
  9
$SPLFRAME
 70
     0
  9
$SPLINETYPE
 70
     6
  9
$SPLINESEGS
 70
     8
  9
$ATTDIA
 70
     1
  9
$ATTREQ
 70
     1
  9
$HANDLING
 70
     1
  9
$HANDSEED
  5
AF31
  9
$SURFTAB1
 70
     6
  9
$SURFTAB2
 70
     6
  9
$SURFTYPE
 70
     6
  9
$SURFU
 70
     6
  9
$SURFV
 70
     6
  9
$UCSNAME
  2

  9
$UCSORG
 10
0.0
 20
0.0
 30
0.0
  9
$UCSXDIR
 10
1.0
 20
0.0
 30
0.0
  9
$UCSYDIR
 10
0.0
 20
1.0
 30
0.0
  9
$PUCSNAME
  2

  9
$PUCSORG
 10
0.0
 20
0.0
 30
0.0
  9
$PUCSXDIR
 10
1.0
 20
0.0
 30
0.0
  9
$PUCSYDIR
 10
0.0
 20
1.0
 30
0.0
  9
$USERI1
 70
     0
  9
$USERI2
 70
     0
  9
$USERI3
 70
     0
  9
$USERI4
 70
     0
  9
$USERI5
 70
     0
  9
$USERR1
 40
0.0
  9
$USERR2
 40
0.0
  9
$USERR3
 40
0.0
  9
$USERR4
 40
0.0
  9
$USERR5
 40
0.0
  9
$WORLDVIEW
 70
     1
  9
$SHADEDGE
 70
     3
  9
$SHADEDIF
 70
    70
  9
$TILEMODE
 70
     1
  9
$MAXACTVP
 70
    64
  9
$PLIMCHECK
 70
     0
  9
$PEXTMIN
 10
1.0000000000000000E+20
 20
1.0000000000000000E+20
 30
1.0000000000000000E+20
  9
$PEXTMAX
 10
-1.0000000000000000E+20
 20
-1.0000000000000000E+20
 30
-1.0000000000000000E+20
  9
$PLIMMIN
 10
0.0
 20
0.0
  9
$PLIMMAX
 10
12.0
 20
9.0
  9
$UNITMODE
 70
     0
  9
$VISRETAIN
 70
     1
  9
$PLINEGEN
 70
     0
  9
$PSLTSCALE
 70
     1
  0
ENDSEC
  0
SECTION
  2
TABLES
  0
TABLE
  2
VPORT
 70
     1
  0
VPORT
  2
*ACTIVE
 70
     0
 10
0.0
 20
0.0
 11
1.0
 21
1.0
 12
431.1870475670497171
 22
51.4777339255476818
 13
0.0
 23
0.0
 14
1.0
 24
1.0
 15
0.0
 25
0.0
 16
0.0
 26
0.0
 36
24.1179433675886514
 17
466.74220170783002
 27
89.133147119929788
 37
0.0
 40
25.0660584994289195
 41
2.7561475409836058
 42
50.0
 43
0.0
 44
0.0
 50
0.0
 51
0.0
 71
     0
 72
   100
 73
     1
 74
     1
 75
     0
 76
     0
 77
     0
 78
     0
  0
ENDTAB
  0
TABLE
  2
LTYPE
 70
     2
  0
LTYPE
  2
CONTINUOUS
 70
     0
  3
Solid line
 72
    65
 73
     0
 40
0.0
  0
LTYPE
  2
PHANTOM2
 70
     0
  3
___ _ _ ___ _ _ ___ _ _ ___ _ _
 72
    65
 73
     6
 40
1.25
 49
0.625
 49
-0.125
 49
0.125
 49
-0.125
 49
0.125
 49
-0.125
  0
ENDTAB
  0
TABLE
  2
LAYER
 70
     2
  0
LAYER
  2
0
 70
     0
 62
   255
  6
CONTINUOUS
  0
LAYER
  2
DEFPOINTS
 70
     0
 62
     7
  6
CONTINUOUS
  0
ENDTAB
  0
TABLE
  2
STYLE
 70
     1
  0
STYLE
  2
STANDARD
 70
     0
 40
0.0
 41
0.8
 50
0.0
 71
     0
 42
0.2
  3
txt
  4

  0
ENDTAB
  0
TABLE
  2
VIEW
 70
     0
  0
ENDTAB
  0
TABLE
  2
UCS
 70
     0
  0
ENDTAB
  0
TABLE
  2
APPID
 70
    11
  0
APPID
  2
ACAD
 70
     0
  0
APPID
  2
ACAD_MLEADERVER
 70
     0
  0
APPID
  2
ACAD_EXEMPT_FROM_CAD_STANDARDS
 70
     0
  0
APPID
  2
ACAD_DSTYLE_DIMJAG
 70
     0
  0
APPID
  2
ACAD_DSTYLE_DIMTALN
 70
     0
  0
APPID
  2
ACAD_NAV_VCDISPLAY
 70
     0
  0
APPID
  2
ACAECLAYERSTANDARD
 70
     0
  0
APPID
  2
ACCMTRANSPARENCY
 70
     0
  0
APPID
  2
DCO15
 70
     0
  0
APPID
  2
ACDBATTR
 70
     0
  0
APPID
  2
ACADANNOTATIVE
 70
     0
  0
ENDTAB
  0
TABLE
  2
DIMSTYLE
 70
     1
  0
DIMSTYLE
  2
STANDARD
 70
     0
  3

  4

  5

  6

  7

 40
1.0
 41
0.1875
 42
0.0625
 43
0.38
 44
0.125
 45
0.0
 46
0.0
 47
0.01
 48
0.01
140
0.15625
141
0.09
142
0.0
143
25.3999999999999986
144
1.0
145
0.0
146
1.0
147
0.09
 71
     1
 72
     0
 73
     1
 74
     1
 75
     0
 76
     0
 77
     0
 78
     4
170
     0
171
     2
172
     0
173
     0
174
     0
175
     0
176
     0
177
     0
178
     0
  0
ENDTAB
  0
ENDSEC
  0
SECTION
  2
BLOCKS
  0
BLOCK
  8
0
  2
$MODEL_SPACE
 70
     0
 10
0.0
 20
0.0
 30
0.0
  3
$MODEL_SPACE
  1

  0
ENDBLK
  5
21
  8
0
  0
BLOCK
 67
     1
  8
0
  2
$PAPER_SPACE
 70
     0
 10
0.0
 20
0.0
 30
0.0
  3
$PAPER_SPACE
  1

  0
ENDBLK
  5
1D
 67
     1
  8
0
  0
ENDSEC
  0
SECTION
  2
ENTITIES
  0
ATTDEF
  5
829
  8
DEFPOINTS
 10
897.92076470586494
 20
149.5927624393395945
 30
0.0
 40
0.001
  1
K-2901T
  3

  2
MODELNUMBER
 70
     0
1001
ACDBATTR
1070
     0
1070
     1
  0
ATTDEF
  5
82A
  8
DEFPOINTS
 10
897.92076470586494
 20
149.5910957726729862
 30
0.0
 40
0.001
  1
CLEO
  3

  2
TRADENAME
 70
     0
1001
ACDBATTR
1070
     0
1070
     1
  0
ATTDEF
  5
82B
  8
DEFPOINTS
 10
897.92076470586494
 20
149.5894291060062926
 30
0.0
 40
0.001
  1
BATH
  3

  2
PRODUCT
 70
     0
1001
ACDBATTR
1070
     0
1070
     1
  0
LINE
  5
ADC1
  8
0
 10
932.2508076064190163
 20
149.5956907203058108
 30
0.0
 11
863.6035055473050761
 21
149.5956907203058108
 31
0.0
  0
ARC
  5
ADC2
  8
0
 10
930.8344770597502702
 20
149.5091720540455071
 30
0.0
 40
1.4847461659698951
 50
5.8662347241791393
 51
89.4747837202547061
  0
ARC
  5
ADC3
  8
0
 10
932.2529889444026594
 20
149.6544648407528939
 30
0.0
 40
0.0588145855189856
 50
267.8745046010349142
 51
6.3036117732061632
  0
LINE
  5
ADC4
  8
0
 10
930.8480871710588644
 20
150.9938558393116921
 30
0.0
 11
865.0062259826687523
 21
150.9938558393116921
 31
0.0
  0
ARC
  5
ADC5
  8
0
 10
865.0198360939738222
 20
149.5091720540455071
 30
0.0
 40
1.4847461659698951
 50
90.5252162797322484
 51
174.1337652758523973
  0
ARC
  5
ADC6
  8
0
 10
863.601324209321433
 20
149.6544648407528939
 30
0.0
 40
0.0588145855189856
 50
173.6963882267938004
 51
272.1254953989650858
  0
LINE
  5
ADC7
  8
0
 10
896.4507913129837107
 20
130.2256069243888987
 30
0.0
 11
899.4035218407403818
 21
130.2256069243888987
 31
0.0
  0
LINE
  5
ADC8
  8
0
 10
866.8221585437725025
 20
147.7531755365901915
 30
0.0
 11
869.6642572171430174
 21
137.1463236349779891
 31
0.0
  0
ARC
  5
ADC9
  8
0
 10
842.1418470465198425
 20
141.3270548340150015
 30
0.0
 40
25.5031920136576318
 50
14.5943063079764208
 51
18.9183041880382099
  0
ARC
  5
ADCA
  8
0
 10
877.515658588083852
 20
139.2491397859620008
 30
0.0
 40
8.128120277927243
 50
194.9934600220051095
 51
218.0684524331921068
  0
ARC
  5
ADCB
  8
0
 10
877.5596509206998235
 20
139.2835950828745979
 30
0.0
 40
8.1839995479146754
 50
218.0684524331921068
 51
247.9260396725200906
  0
ARC
  5
ADCC
  8
0
 10
877.5241618551873444
 20
139.1960819763237112
 30
0.0
 40
8.0895642918439457
 50
247.9260396725200906
 51
268.9055989196677956
  0
ARC
  5
ADCD
  8
0
 10
830.7747370079962366
 20
-2308.0045173932380749
 30
0.0
 40
2439.5575267485060067
 50
88.726944270420546
 51
88.9055989196677245
  0
ARC
  5
ADCE
  8
0
 10
960.4616423828988445
 20
3527.7883287030849715
 30
0.0
 40
3397.6761362098950485
 50
268.7269442704140943
 51
268.9072409981899909
  0
ARC
  5
ADCF
  8
0
 10
892.0761869800609247
 20
116.9285983775309035
 30
0.0
 40
14.2603124427465495
 50
74.0295097305181997
 51
75.4270154480874027
  0
ARC
  5
ADD0
  8
0
 10
895.842392871732045
 20
130.0138400069330942
 30
0.0
 40
0.6442001945405488
 50
19.1916144323445117
 51
75.8567644742627323
  0
ARC
  5
ADD1
  8
0
 10
932.2529889444026594
 20
149.6544648407528939
 30
0.0
 40
0.0588145855189856
 50
267.8745046010349142
 51
6.303611773980899
  0
LINE
  5
ADD2
  8
0
 10
929.0321546099515899
 20
147.7531755365901915
 30
0.0
 11
926.190055936581075
 21
137.1463236349779891
 31
0.0
  0
ARC
  5
ADD3
  8
0
 10
953.7124661072041363
 20
141.3270548340150015
 30
0.0
 40
25.5031920136576318
 50
161.0816958119617937
 51
165.4056936920235046
  0
ARC
  5
ADD4
  8
0
 10
918.3386545656402404
 20
139.2491397859620008
 30
0.0
 40
8.128120277927243
 50
321.9315475668079216
 51
345.006539977994521
  0
ARC
  5
ADD5
  8
0
 10
918.294662233024269
 20
139.2835950828745979
 30
0.0
 40
8.1839995479146754
 50
292.073960327479881
 51
321.9315475668079216
  0
ARC
  5
ADD6
  8
0
 10
918.3301512985367481
 20
139.1960819763237112
 30
0.0
 40
8.0895642918439457
 50
271.0944010803323181
 51
292.073960327479881
  0
ARC
  5
ADD7
  8
0
 10
965.0795761457280832
 20
-2308.0045173932380749
 30
0.0
 40
2439.5575267485060067
 50
91.0944010803322612
 51
91.273055729585991
  0
ARC
  5
ADD8
  8
0
 10
835.3926707708252479
 20
3527.7883287030849715
 30
0.0
 40
3397.6761362098950485
 50
271.0927590018100091
 51
271.2730557295794824
  0
ARC
  5
ADD9
  8
0
 10
903.7781261736632814
 20
116.9285983775309035
 30
0.0
 40
14.2603124427465495
 50
104.5729845519125973
 51
105.9704902694818003
  0
ARC
  5
ADDA
  8
0
 10
900.01192028199182
 20
130.0138400069330942
 30
0.0
 40
0.6442001945405488
 50
104.1432355257371967
 51
160.8083855676555061
  0
LINE
  5
ADDB
  8
0
 10
921.2529050427559696
 20
134.030216594499791
 30
0.0
 11
920.798016965976899
 21
131.9340424794411035
 31
0.0
  0
LINE
  5
ADDC
  8
0
 10
920.7787650639867252
 20
131.9185203101889101
 30
0.0
 11
919.0330663426623232
 21
131.9185203101889101
 31
0.0
  0
LINE
  5
ADDD
  8
0
 10
919.0137008518703396
 20
131.9346053736219915
 30
0.0
 11
918.9852099419319984
 21
132.0872333503102141
 31
0.0
  0
LINE
  5
ADDE
  8
0
 10
919.4518795013074168
 20
133.2837543020496014
 30
0.0
 11
919.5029174777874914
 21
131.9374740121043885
 31
0.0
  0
ARC
  5
ADDF
  8
0
 10
920.7787650639867252
 20
131.9382203101889104
 30
0.0
 40
0.0197
 50
270.0000000000130171
 51
347.7561588151513092
  0
ARC
  5
ADE0
  8
0
 10
919.5226033366504907
 20
131.9382203101889104
 30
0.0
 40
0.0197
 50
182.1710642012488961
 51
270.0000000000130171
  0
ARC
  5
ADE1
  8
0
 10
919.0330663426623232
 20
131.9382203101889104
 30
0.0
 40
0.0197
 50
190.5736519388842964
 51
270.0000000000130171
  0
LINE
  5
ADE2
  8
0
 10
921.3419852894634232
 20
133.4178762886079141
 30
0.0
 11
920.8403905855443554
 21
132.1293047626996895
 31
0.0
  0
LINE
  5
ADE3
  8
0
 10
919.0751742207022517
 20
131.9578903888888988
 30
0.0
 11
919.270674088069768
 21
131.9578903888888988
 31
0.0
  0
LINE
  5
ADE4
  8
0
 10
919.3296365708451958
 20
132.0210197343635912
 30
0.0
 11
919.2772522763857523
 21
132.7875730317065859
 31
0.0
  0
LINE
  5
ADE5
  8
0
 10
919.0199383185877196
 20
131.995971228163512
 30
0.0
 11
918.8329905508799129
 21
132.4872481508014062
 31
0.0
  0
ARC
  5
ADE6
  8
0
 10
919.0751742207022517
 20
132.0169903888888996
 30
0.0
 40
0.0591
 50
200.8335415200160128
 51
270.0000000000064801
  0
ARC
  5
ADE7
  8
0
 10
919.270674088069768
 20
132.0169903888888996
 30
0.0
 40
0.0591
 50
270.0
 51
3.9093691976617682
  0
LINE
  5
ADE8
  8
0
 10
919.4889608052801577
 20
131.7216699164889064
 30
0.0
 11
920.190102908171184
 21
131.7216699164889064
 31
0.0
  0
LINE
  5
ADE9
  8
0
 10
919.4445607798076026
 20
131.8998901538703876
 30
0.0
 11
919.469491343887853
 21
131.738364908487199
 31
0.0
  0
LINE
  5
ADEA
  8
0
 10
920.2399279823929419
 20
131.902265932912087
 30
0.0
 11
920.2094736781227766
 21
131.7377833761667887
 31
0.0
  0
ARC
  5
ADEB
  8
0
 10
920.2595627775298226
 20
131.8987067822058066
 30
0.0
 40
0.019954767195753
 50
96.8210060501572087
 51
169.7256972242583117
  0
ARC
  5
ADEC
  8
0
 10
919.4227384050368528
 20
131.8973707953065002
 30
0.0
 40
0.0219673213705989
 50
6.5855520110538803
 51
74.3169335129102535
  0
ARC
  5
ADED
  8
0
 10
919.4889608052801577
 20
131.7413699164889067
 30
0.0
 40
0.0197
 50
188.7740638011663918
 51
270.0
  0
ARC
  5
ADEE
  8
0
 10
920.190102908171184
 20
131.7413699164889067
 30
0.0
 40
0.0197
 50
270.0000000000130171
 51
349.5103512487975763
  0
ARC
  5
ADEF
  8
0
 10
919.5382214176994466
 20
134.6054642677825086
 30
0.0
 40
1.8758789401183269
 50
331.1552130580101903
 51
338.0502762947032807
  0
ARC
  5
ADF0
  8
0
 10
921.1416064093733667
 20
133.959290717176998
 30
0.0
 40
0.1471847251030428
 50
338.0502762947032807
 51
20.6723251846121485
  0
ARC
  5
ADF1
  8
0
 10
921.2439125533167044
 20
133.9898249334326863
 30
0.0
 40
0.0413805648834609
 50
31.1823929050583715
 51
81.6311644132566556
  0
ARC
  5
ADF2
  8
0
 10
921.2394497226832755
 20
133.927180828989691
 30
0.0
 40
0.104113395758108
 50
84.2197763043702565
 51
115.9463449629619021
  0
ARC
  5
ADF3
  8
0
 10
918.9747063615650404
 20
139.396169471707907
 30
0.0
 40
5.8154452991622563
 50
275.4696919862626032
 51
292.4330044281991832
  0
ARC
  5
ADF4
  8
0
 10
919.58077337099121
 20
133.3100473537907078
 30
0.0
 40
0.3016273118420143
 50
99.8778072808374731
 51
169.2343997134549909
  0
ARC
  5
ADF5
  8
0
 10
913.3335240702801912
 20
135.3640978586657013
 30
0.0
 40
6.2772938791928796
 50
337.6437590555494239
 51
341.4432569495510847
  0
ARC
  5
ADF6
  8
0
 10
918.6590047315628453
 20
140.9902278181745885
 30
0.0
 40
8.0281493891856552
 50
272.041840999599799
 51
273.4276781235976728
  0
ARC
  5
ADF7
  8
0
 10
918.9513446693086962
 20
132.7365748697581864
 30
0.0
 40
0.230686945578576
 50
91.5655606425522564
 51
162.2843256102017904
  0
ARC
  5
ADF8
  8
0
 10
914.8257235138403303
 20
133.764051373477912
 30
0.0
 40
4.0214717295567199
 50
343.0180367581285168
 51
346.2289825686722224
  0
ARC
  5
ADF9
  8
0
 10
918.7916518153581364
 20
132.6002047232547056
 30
0.0
 40
0.1202833251741216
 50
185.1070247857649917
 51
290.1011183165381908
  0
ARC
  5
ADFA
  8
0
 10
919.0938167440202733
 20
132.7902634155487078
 30
0.0
 40
0.1834552607571327
 50
359.159723386528924
 51
44.6848541434025321
  0
ARC
  5
ADFB
  8
0
 10
919.0407713548041784
 20
132.7378101944755997
 30
0.0
 40
0.2580552183162863
 50
44.6829882745700502
 51
67.6269143567334794
  0
ARC
  5
ADFC
  8
0
 10
919.3008429836735331
 20
133.1886668672468943
 30
0.0
 40
0.1784759085039339
 50
32.1931173013710108
 51
95.2684795082011675
  0
ARC
  5
ADFD
  8
0
 10
920.6889005304261673
 20
133.7169006953785129
 30
0.0
 40
0.763156202934793
 50
318.7238365201862962
 51
331.065543977061111
  0
ARC
  5
ADFE
  8
0
 10
921.3156283826411936
 20
133.375654965257695
 30
0.0
 40
0.0497727504030553
 50
325.8006934413057252
 51
89.5512100151573236
  0
ARC
  5
ADFF
  8
0
 10
922.1409985714108188
 20
130.6107655875073021
 30
0.0
 40
2.933071230761322
 50
106.3359229479841019
 51
110.6537270289018977
  0
LINE
  5
AE00
  8
0
 10
874.6014081109683502
 20
134.030216594499791
 30
0.0
 11
875.0562961877474208
 21
131.9340424794411035
 31
0.0
  0
LINE
  5
AE01
  8
0
 10
875.075548089737481
 20
131.9185203101889101
 30
0.0
 11
876.8212468110616555
 21
131.9185203101889101
 31
0.0
  0
LINE
  5
AE02
  8
0
 10
876.8406123018537528
 20
131.9346053736219915
 30
0.0
 11
876.869103211792094
 21
132.0872333503102141
 31
0.0
  0
LINE
  5
AE03
  8
0
 10
876.413558516589319
 20
133.5772060882879941
 30
0.0
 11
876.3513956759363737
 21
131.9374740121043885
 31
0.0
  0
ARC
  5
AE04
  8
0
 10
875.075548089737481
 20
131.9382203101889104
 30
0.0
 40
0.0197
 50
192.2438411848486908
 51
269.9999999999869829
  0
ARC
  5
AE05
  8
0
 10
876.3317098170736017
 20
131.9382203101889104
 30
0.0
 40
0.0197
 50
269.9999999999869829
 51
357.8289357987511039
  0
ARC
  5
AE06
  8
0
 10
876.8212468110616555
 20
131.9382203101889104
 30
0.0
 40
0.0197
 50
269.9999999999869829
 51
349.4263480611156751
  0
LINE
  5
AE07
  8
0
 10
874.5123278642605555
 20
133.4178762886079141
 30
0.0
 11
875.0139225681795097
 21
132.1293047626996895
 31
0.0
  0
LINE
  5
AE08
  8
0
 10
876.7791389330219545
 20
131.9578903888888988
 30
0.0
 11
876.5836390656543244
 21
131.9578903888888988
 31
0.0
  0
LINE
  5
AE09
  8
0
 10
876.5246765828790103
 20
132.0210197343635912
 30
0.0
 11
876.5770608773383401
 21
132.7875730317065859
 31
0.0
  0
LINE
  5
AE0A
  8
0
 10
876.8343748351363729
 20
131.995971228163512
 30
0.0
 11
877.0213226028439522
 21
132.4872481508014062
 31
0.0
  0
ARC
  5
AE0B
  8
0
 10
876.7791389330219545
 20
132.0169903888888996
 30
0.0
 40
0.0591
 50
269.9999999999935199
 51
339.1664584799841009
  0
ARC
  5
AE0C
  8
0
 10
876.5836390656543244
 20
132.0169903888888996
 30
0.0
 40
0.0591
 50
176.090630802338211
 51
270.0
  0
LINE
  5
AE0D
  8
0
 10
876.3653523484440484
 20
131.7216699164889064
 30
0.0
 11
875.6642102455529084
 21
131.7216699164889064
 31
0.0
  0
LINE
  5
AE0E
  8
0
 10
876.4097523739164899
 20
131.8998901538703876
 30
0.0
 11
876.3848218098363532
 21
131.738364908487199
 31
0.0
  0
LINE
  5
AE0F
  8
0
 10
875.6143851713313779
 20
131.902265932912087
 30
0.0
 11
875.6448394756013158
 21
131.7377833761667887
 31
0.0
  0
ARC
  5
AE10
  8
0
 10
875.5947503761942698
 20
131.8987067822058066
 30
0.0
 40
0.019954767195753
 50
10.2743027757416403
 51
83.1789939498427771
  0
ARC
  5
AE11
  8
0
 10
876.4315747486873533
 20
131.8973707953065002
 30
0.0
 40
0.0219673213705989
 50
105.6830664870897039
 51
173.4144479889461081
  0
ARC
  5
AE12
  8
0
 10
876.3653523484440484
 20
131.7413699164889067
 30
0.0
 40
0.0197
 50
270.0
 51
351.2259361988334945
  0
ARC
  5
AE13
  8
0
 10
875.6642102455529084
 20
131.7413699164889067
 30
0.0
 40
0.0197
 50
190.4896487512021963
 51
269.9999999999869829
  0
ARC
  5
AE14
  8
0
 10
876.3160917360246458
 20
134.6054642677825086
 30
0.0
 40
1.8758789401183269
 50
201.9497237052966909
 51
208.8447869419898097
  0
ARC
  5
AE15
  8
0
 10
874.7127067443507258
 20
133.959290717176998
 30
0.0
 40
0.1471847251030428
 50
159.3276748153878088
 51
201.9497237052966909
  0
ARC
  5
AE16
  8
0
 10
874.6104006004073881
 20
133.9898249334326863
 30
0.0
 40
0.0413805648834609
 50
98.3688355867433728
 51
148.817607094941593
  0
ARC
  5
AE17
  8
0
 10
874.614863431040817
 20
133.927180828989691
 30
0.0
 40
0.104113395758108
 50
64.0536550370380695
 51
95.7802236956297435
  0
ARC
  5
AE18
  8
0
 10
876.8796067921592794
 20
139.396169471707907
 30
0.0
 40
5.8154452991622563
 50
247.5669955718005895
 51
264.5303080137372831
  0
ARC
  5
AE19
  8
0
 10
876.2735397827326551
 20
133.3100473537907078
 30
0.0
 40
0.3016273118420143
 50
10.7656002865449896
 51
80.1221927191625412
  0
ARC
  5
AE1A
  8
0
 10
882.5207890834439013
 20
135.3640978586657013
 30
0.0
 40
6.2772938791928796
 50
198.5567430504488868
 51
202.3562409444506045
  0
ARC
  5
AE1B
  8
0
 10
877.1953084221612471
 20
140.9902278181745885
 30
0.0
 40
8.0281493891856552
 50
266.5723218763957902
 51
267.958159000400201
  0
ARC
  5
AE1C
  8
0
 10
876.9029684844151689
 20
132.7365748697581864
 30
0.0
 40
0.230686945578576
 50
17.7156743897981599
 51
88.4344393574477436
  0
ARC
  5
AE1D
  8
0
 10
881.0285896398836485
 20
133.764051373477912
 30
0.0
 40
4.0214717295567199
 50
193.771017431327806
 51
196.9819632418715116
  0
ARC
  5
AE1E
  8
0
 10
877.062661338365956
 20
132.6002047232547056
 30
0.0
 40
0.1202833251741216
 50
249.8988816834618092
 51
354.8929752142349798
  0
ARC
  5
AE1F
  8
0
 10
876.7604964097039328
 20
132.7902634155487078
 30
0.0
 40
0.1834552607571327
 50
135.3151458565974963
 51
180.8402766134711044
  0
ARC
  5
AE20
  8
0
 10
876.8135417989199141
 20
132.7378101944755997
 30
0.0
 40
0.2580552183162863
 50
112.3730856432665064
 51
135.317011725429893
  0
ARC
  5
AE21
  8
0
 10
875.1654126232979252
 20
133.7169006953785129
 30
0.0
 40
0.763156202934793
 50
208.934456022938889
 51
221.2761634798137038
  0
ARC
  5
AE22
  8
0
 10
874.5386847710826714
 20
133.375654965257695
 30
0.0
 40
0.0497727504030553
 50
90.4487899848427048
 51
214.1993065586941043
  0
ARC
  5
AE23
  8
0
 10
873.7133145823133873
 20
130.6107655875073021
 30
0.0
 40
2.933071230761322
 50
69.3462729710981307
 51
73.6640770520159265
  0
LINE
  5
AE25
  8
0
 10
876.0283811231486197
 20
131.7412506552767866
 30
0.0
 11
876.0293341822490447
 21
131.8986775327958014
 31
0.0
  0
ARC
  5
AE26
  8
0
 10
876.0086814841478144
 20
131.7413699164889067
 30
0.0
 40
0.0197
 50
270.0000000000130171
 51
359.6531367588327726
  0
ARC
  5
AE27
  8
0
 10
876.0483627444116337
 20
131.8996700437982952
 30
0.0
 40
0.0190544287782249
 50
98.3949105479205173
 51
182.9857855415779966
  0
LINE
  5
AE28
  8
0
 10
919.8259709050167885
 20
131.7412506552767866
 30
0.0
 11
919.8250178459162498
 21
131.8986775327958014
 31
0.0
  0
ARC
  5
AE29
  8
0
 10
919.8456705440177075
 20
131.7413699164889067
 30
0.0
 40
0.0197
 50
180.3468632411671138
 51
269.9999999999869829
  0
ARC
  5
AE2A
  8
0
 10
919.8059892837538882
 20
131.8996700437982952
 30
0.0
 40
0.0190544287782249
 50
357.014214458421975
 51
81.6050894520794969
  0
ENDSEC
  0
EOF
