  0
SECTION
  2
HEADER
  9
$ACADVER
  1
AC1009
  9
$INSBASE
 10
4860.9370129738126707
 20
181.8033456177871017
 30
0.0
  9
$EXTMIN
 10
4856.2122553542831156
 20
181.7858803246766115
 30
-0.0015258207003583
  9
$EXTMAX
 10
4863.2445525462717342
 20
188.446009546158507
 30
0.0000000349246037
  9
$LIMMIN
 10
0.0
 20
0.0
  9
$LIMMAX
 10
11.6929133858000007
 20
8.2677165353999982
  9
$ORTHOMODE
 70
     0
  9
$REGENMODE
 70
     1
  9
$FILLMODE
 70
     1
  9
$QTEXTMODE
 70
     0
  9
$MIRRTEXT
 70
     0
  9
$DRAGMODE
 70
     2
  9
$LTSCALE
 40
0.6431102362
  9
$OSMODE
 70
  4095
  9
$ATTMODE
 70
     1
  9
$TEXTSIZE
 40
0.2
  9
$TRACEWID
 40
0.05
  9
$TEXTSTYLE
  7
STANDARD
  9
$CLAYER
  8
0
  9
$CELTYPE
  6
BYLAYER
  9
$CECOLOR
 62
   256
  9
$DIMSCALE
 40
1.0
  9
$DIMASZ
 40
0.1875
  9
$DIMEXO
 40
0.0625
  9
$DIMDLI
 40
0.4443307087
  9
$DIMRND
 40
0.0
  9
$DIMDLE
 40
0.0
  9
$DIMEXE
 40
0.125
  9
$DIMTP
 40
0.01
  9
$DIMTM
 40
0.01
  9
$DIMTXT
 40
2.0
  9
$DIMCEN
 40
0.1052362205
  9
$DIMTSZ
 40
0.0
  9
$DIMTOL
 70
     1
  9
$DIMLIM
 70
     0
  9
$DIMTIH
 70
     1
  9
$DIMTOH
 70
     1
  9
$DIMSE1
 70
     0
  9
$DIMSE2
 70
     0
  9
$DIMTAD
 70
     0
  9
$DIMZIN
 70
     0
  9
$DIMBLK
  1

  9
$DIMASO
 70
     1
  9
$DIMSHO
 70
     1
  9
$DIMPOST
  1
\X
  9
$DIMAPOST
  1

  9
$DIMALT
 70
     1
  9
$DIMALTD
 70
     2
  9
$DIMALTF
 40
25.3999999999999986
  9
$DIMLFAC
 40
1.0
  9
$DIMTOFL
 70
     0
  9
$DIMTVP
 40
0.0
  9
$DIMTIX
 70
     0
  9
$DIMSOXD
 70
     0
  9
$DIMSAH
 70
     0
  9
$DIMBLK1
  1

  9
$DIMBLK2
  1

  9
$DIMSTYLE
  2
STANDARD
  9
$DIMCLRD
 70
     0
  9
$DIMCLRE
 70
     0
  9
$DIMCLRT
 70
     0
  9
$DIMTFAC
 40
1.0
  9
$DIMGAP
 40
0.09
  9
$LUNITS
 70
     2
  9
$LUPREC
 70
     4
  9
$SKETCHINC
 40
0.1
  9
$FILLETRAD
 40
0.0
  9
$AUNITS
 70
     0
  9
$AUPREC
 70
     0
  9
$MENU
  1
.
  9
$ELEVATION
 40
0.0
  9
$PELEVATION
 40
0.0
  9
$THICKNESS
 40
0.0
  9
$LIMCHECK
 70
     0
  9
$BLIPMODE
 70
     0
  9
$CHAMFERA
 40
0.0
  9
$CHAMFERB
 40
0.0
  9
$SKPOLY
 70
     0
  9
$TDCREATE
 40
2458060.468368056230247
  9
$TDUPDATE
 40
2460229.6808449081145227
  9
$TDINDWG
 40
0.444034838
  9
$TDUSRTIMER
 40
0.444034838
  9
$USRTIMER
 70
     1
  9
$ANGBASE
 50
0.0
  9
$ANGDIR
 70
     0
  9
$PDMODE
 70
     0
  9
$PDSIZE
 40
0.3125
  9
$PLINEWID
 40
0.0
  9
$COORDS
 70
     1
  9
$SPLFRAME
 70
     0
  9
$SPLINETYPE
 70
     6
  9
$SPLINESEGS
 70
     8
  9
$ATTDIA
 70
     1
  9
$ATTREQ
 70
     1
  9
$HANDLING
 70
     1
  9
$HANDSEED
  5
15005
  9
$SURFTAB1
 70
     6
  9
$SURFTAB2
 70
     6
  9
$SURFTYPE
 70
     6
  9
$SURFU
 70
     6
  9
$SURFV
 70
     6
  9
$UCSNAME
  2

  9
$UCSORG
 10
0.0
 20
0.0
 30
0.0
  9
$UCSXDIR
 10
1.0
 20
0.0
 30
0.0
  9
$UCSYDIR
 10
0.0
 20
1.0
 30
0.0
  9
$PUCSNAME
  2

  9
$PUCSORG
 10
0.0
 20
0.0
 30
0.0
  9
$PUCSXDIR
 10
1.0
 20
0.0
 30
0.0
  9
$PUCSYDIR
 10
0.0
 20
1.0
 30
0.0
  9
$USERI1
 70
     0
  9
$USERI2
 70
     0
  9
$USERI3
 70
     0
  9
$USERI4
 70
     0
  9
$USERI5
 70
     0
  9
$USERR1
 40
0.0
  9
$USERR2
 40
0.0
  9
$USERR3
 40
0.0
  9
$USERR4
 40
0.0
  9
$USERR5
 40
0.0
  9
$WORLDVIEW
 70
     1
  9
$SHADEDGE
 70
     3
  9
$SHADEDIF
 70
    70
  9
$TILEMODE
 70
     1
  9
$MAXACTVP
 70
    64
  9
$PLIMCHECK
 70
     0
  9
$PEXTMIN
 10
1.0000000000000000E+20
 20
1.0000000000000000E+20
 30
1.0000000000000000E+20
  9
$PEXTMAX
 10
-1.0000000000000000E+20
 20
-1.0000000000000000E+20
 30
-1.0000000000000000E+20
  9
$PLIMMIN
 10
0.0
 20
0.0
  9
$PLIMMAX
 10
12.0
 20
9.0
  9
$UNITMODE
 70
     0
  9
$VISRETAIN
 70
     1
  9
$PLINEGEN
 70
     0
  9
$PSLTSCALE
 70
     1
  0
ENDSEC
  0
SECTION
  2
TABLES
  0
TABLE
  2
VPORT
 70
     1
  0
VPORT
  2
*ACTIVE
 70
     0
 10
0.0
 20
0.0
 11
1.0
 21
1.0
 12
459.4408062940273112
 22
78.6718035474781345
 13
0.0
 23
0.0
 14
1.0
 24
1.0
 15
0.0
 25
0.0
 16
0.0
 26
0.0
 36
75.4143529876733965
 17
4400.28759765625
 27
106.4441413879393963
 37
0.0
 40
6.7143381960637178
 41
2.5251322751322749
 42
50.0
 43
0.0
 44
0.0
 50
0.0
 51
0.0
 71
     0
 72
   100
 73
     1
 74
     1
 75
     0
 76
     0
 77
     0
 78
     0
  0
ENDTAB
  0
TABLE
  2
LTYPE
 70
     2
  0
LTYPE
  2
CONTINUOUS
 70
     0
  3
Solid line
 72
    65
 73
     0
 40
0.0
  0
LTYPE
  2
PHANTOM2
 70
     0
  3
___ _ _ ___ _ _ ___ _ _ ___ _ _
 72
    65
 73
     6
 40
1.25
 49
0.625
 49
-0.125
 49
0.125
 49
-0.125
 49
0.125
 49
-0.125
  0
ENDTAB
  0
TABLE
  2
LAYER
 70
     2
  0
LAYER
  2
0
 70
     0
 62
   255
  6
CONTINUOUS
  0
LAYER
  2
DEFPOINTS
 70
     0
 62
     7
  6
CONTINUOUS
  0
ENDTAB
  0
TABLE
  2
STYLE
 70
     1
  0
STYLE
  2
STANDARD
 70
     0
 40
0.0
 41
0.8
 50
0.0
 71
     0
 42
0.2
  3
txt
  4

  0
ENDTAB
  0
TABLE
  2
VIEW
 70
     0
  0
ENDTAB
  0
TABLE
  2
UCS
 70
     0
  0
ENDTAB
  0
TABLE
  2
APPID
 70
    10
  0
APPID
  2
ACAD
 70
     0
  0
APPID
  2
ACAD_MLEADERVER
 70
     0
  0
APPID
  2
ACAD_EXEMPT_FROM_CAD_STANDARDS
 70
     0
  0
APPID
  2
ACAD_NAV_VCDISPLAY
 70
     0
  0
APPID
  2
ACAECLAYERSTANDARD
 70
     0
  0
APPID
  2
ACCMTRANSPARENCY
 70
     0
  0
APPID
  2
ACAD_DSTYLE_DIMJAG
 70
     0
  0
APPID
  2
ACAD_DSTYLE_DIMTALN
 70
     0
  0
APPID
  2
ACDBATTR
 70
     0
  0
APPID
  2
DCO15
 70
     0
  0
ENDTAB
  0
TABLE
  2
DIMSTYLE
 70
     1
  0
DIMSTYLE
  2
STANDARD
 70
     0
  3

  4

  5

  6

  7

 40
1.0
 41
0.1875
 42
0.0625
 43
0.38
 44
0.125
 45
0.0
 46
0.0
 47
0.01
 48
0.01
140
0.15625
141
0.09
142
0.0
143
25.3999999999999986
144
1.0
145
0.0
146
1.0
147
0.09
 71
     1
 72
     0
 73
     1
 74
     1
 75
     0
 76
     0
 77
     0
 78
     4
170
     0
171
     2
172
     0
173
     0
174
     0
175
     0
176
     0
177
     0
178
     0
  0
ENDTAB
  0
ENDSEC
  0
SECTION
  2
BLOCKS
  0
BLOCK
  8
0
  2
$MODEL_SPACE
 70
     0
 10
0.0
 20
0.0
 30
0.0
  3
$MODEL_SPACE
  1

  0
ENDBLK
  5
21
  8
0
  0
BLOCK
 67
     1
  8
0
  2
$PAPER_SPACE
 70
     0
 10
0.0
 20
0.0
 30
0.0
  3
$PAPER_SPACE
  1

  0
ENDBLK
  5
1D
 67
     1
  8
0
  0
BLOCK
  8
0
  2
_FILLED
 70
     0
 10
0.0
 20
0.0
 30
0.0
  3
_FILLED
  1

  0
SOLID
  5
CE96
  8
0
  6
BYBLOCK
 62
     0
 10
0.0
 20
0.0
 30
0.0
 11
-1.0
 21
0.1666666667
 31
0.0
 12
-1.0
 22
-0.1666666667
 32
0.0
 13
-1.0
 23
-0.1666666667
 33
0.0
  0
ENDBLK
  5
CE97
  8
0
  6
BYBLOCK
 62
     0
  0
ENDSEC
  0
SECTION
  2
ENTITIES
  0
ATTDEF
  5
9852
  8
DEFPOINTS
 10
4860.9289180505256809
 20
181.8008354248675005
 30
0.0
 40
0.001
  1
K-29036T-4
  3

  2
MODELNUMBER
 70
     0
1001
ACDBATTR
1070
     0
1070
     1
  0
ATTDEF
  5
9853
  8
DEFPOINTS
 10
4860.9289180505256809
 20
181.7991687582008922
 30
0.0
 40
0.001
  1
ATOM
  3

  2
TRADENAME
 70
     0
1001
ACDBATTR
1070
     0
1070
     1
  0
ATTDEF
  5
9854
  8
DEFPOINTS
 10
4860.9289180505256809
 20
181.7975020915341986
 30
0.0
 40
0.001
  1
BATHROOM SINK FAUCET
  3

  2
PRODUCT
 70
     0
1001
ACDBATTR
1070
     0
1070
     1
  0
LINE
  5
14E93
  8
0
 10
4859.9527610053128228
 20
181.8033456177871017
 30
0.0
 11
4861.9212649423143375
 21
181.8033456177871017
 31
0.0
  0
LINE
  5
14E94
  8
0
 10
4859.9727610053132594
 20
182.0001960114871054
 30
0.0
 11
4861.901264942313901
 21
182.0001960114871054
 31
0.0
  0
LINE
  5
14E95
  8
0
 10
4860.1102413203134347
 20
187.3424007358871108
 30
0.0
 11
4861.7637846274128606
 21
187.3424007358871108
 31
0.0
  0
LINE
  5
14E96
  8
0
 10
4860.1102413203134347
 20
187.4486999484871035
 30
0.0
 11
4861.0551232100142443
 21
187.4486999484871035
 31
0.0
  0
LINE
  5
14E97
  8
0
 10
4857.9437947137903393
 20
188.4329519169870935
 30
0.0
 11
4861.7243846273131567
 21
188.4329519169870935
 31
0.0
  0
LINE
  5
14E98
  8
0
 10
4857.7155562399475457
 20
186.7124794760370889
 30
0.0
 11
4860.0708413203137752
 21
186.7124794760370889
 31
0.0
  0
LINE
  5
14E99
  8
0
 10
4859.9527610053128228
 20
181.8033456177871017
 30
0.0
 11
4859.9527610053128228
 21
181.9801960114870951
 31
0.0
  0
ARC
  5
14E9A
  8
0
 10
4859.9727610053132594
 20
181.9801960114870951
 30
0.0
 40
0.02
 50
90.0
 51
180.0000000000015916
  0
LINE
  5
14E9B
  8
0
 10
4860.1102413203134347
 20
182.0001960114871054
 30
0.0
 11
4860.1102413203134347
 21
185.7281975862871093
 31
0.0
  0
LINE
  5
14E9C
  8
0
 10
4860.1102413203134347
 20
186.7518794760370895
 30
0.0
 11
4860.1102413203134347
 21
187.3424007358871108
 31
0.0
  0
LINE
  5
14E9D
  8
0
 10
4860.1102413203134347
 20
187.4486999484871035
 30
0.0
 11
4860.1102413203134347
 21
188.0392613658871142
 31
0.0
  0
LINE
  5
14E9E
  8
0
 10
4861.9212649423143375
 20
181.8033456177871017
 30
0.0
 11
4861.9212649423143375
 21
181.9801960114870951
 31
0.0
  0
ARC
  5
14E9F
  8
0
 10
4861.901264942313901
 20
181.9801960114870951
 30
0.0
 40
0.02
 50
359.9999999999984084
 51
90.0
  0
LINE
  5
14EA0
  8
0
 10
4861.7637846273137257
 20
182.0001960114871054
 30
0.0
 11
4861.7637846273137257
 21
183.0386631851681898
 31
0.0
  0
LINE
  5
14EA1
  8
0
 10
4861.7637846273137257
 20
183.7946367579654918
 30
0.0
 11
4861.7637846273137257
 21
187.3424007358871108
 31
0.0
  0
LINE
  5
14EA2
  8
0
 10
4861.7637846273137257
 20
187.706631610487193
 30
0.0
 11
4861.7637846273137257
 21
188.3935519169870929
 31
0.0
  0
ARC
  5
14EA3
  8
0
 10
4861.7243846273131567
 20
188.3935519169870929
 30
0.0
 40
0.0394
 50
0.0
 51
90.0
  0
ARC
  5
14EA4
  8
0
 10
4860.902795100712865
 20
187.2169425693871005
 30
0.0
 40
0.7480314961001615
 50
161.9514346635477864
 51
170.3448488072068869
  0
ARC
  5
14EA5
  8
0
 10
4860.9712308469142954
 20
187.2169425693871005
 30
0.0
 40
0.7480314961001615
 50
9.6551511927931042
 51
34.6421126444567591
  0
ARC
  5
14EA6
  8
0
 10
4860.0708413203137752
 20
186.7518794760370895
 30
0.0
 40
0.0394
 50
270.0
 51
359.9999999999968168
  0
LINE
  5
14EA7
  8
0
 10
4857.7154947556282423
 20
185.7675975862871098
 30
0.0
 11
4860.0708413203137752
 21
185.7675975862871098
 31
0.0
  0
ARC
  5
14EA8
  8
0
 10
4860.0708413203137752
 20
185.7281975862871093
 30
0.0
 40
0.0394
 50
0.0000000000032569
 51
90.0
  0
LINE
  5
14EA9
  8
0
 10
4856.5544082171327318
 20
186.1080240745141055
 30
0.0
 11
4856.2193033466128327
 21
185.629444721587106
 31
0.0
  0
LINE
  5
14EAA
  8
0
 10
4857.3284454146833014
 20
185.5661124524361014
 30
0.0
 11
4856.9933052782125742
 21
185.0874827344871107
 31
0.0
  0
ARC
  5
14EAB
  8
0
 10
4857.7155562399475457
 20
185.2949794760370992
 30
0.0
 40
1.4174999999999991
 50
90.0
 51
145.0000000025075053
  0
ARC
  5
14EAC
  8
0
 10
4857.7154947556282423
 20
185.2950975862871132
 30
0.0
 40
0.4725
 50
90.0
 51
145.0000000039781014
  0
LINE
  5
14EAD
  8
0
 10
4856.2193033466128327
 20
185.629444721587106
 30
0.0
 11
4856.9933052782125742
 21
185.0874827344871107
 31
0.0
  0
ARC
  5
14EAE
  8
0
 10
4856.8833529425737652
 20
185.7747533710630137
 30
0.0
 40
0.5130090327026581
 50
222.0260583981678053
 51
230.6006082778667121
  0
LINE
  5
14EAF
  8
0
 10
4856.5577346645550278
 20
185.378330611053201
 30
0.0
 11
4856.5643792078280967
 21
185.3878200023081888
 31
0.0
  0
LINE
  5
14EB0
  8
0
 10
4856.5062477539204338
 20
185.4285240845418912
 30
0.0
 11
4856.505671770484696
 21
185.4277014949065006
 31
0.0
  0
LINE
  5
14EB1
  8
0
 10
4856.505671770484696
 20
185.4277014949065006
 30
0.0
 11
4856.5034331191718593
 21
185.4300227582349976
 31
0.0
  0
LINE
  5
14EB2
  8
0
 10
4856.507032982378405
 20
185.427974261656999
 30
0.0
 11
4856.5137434067273716
 21
185.4204152679074866
 31
0.0
  0
LINE
  5
14EB3
  8
0
 10
4856.5137434067273716
 20
185.4204152679074866
 30
0.0
 11
4856.5263727153605942
 21
185.4087299549547083
 31
0.0
  0
LINE
  5
14EB4
  8
0
 10
4856.5263727153605942
 20
185.4087299549547083
 30
0.0
 11
4856.5274561775386246
 21
185.4102772993076087
 31
0.0
  0
LINE
  5
14EB5
  8
0
 10
4856.5274561775386246
 20
185.4102772993076087
 30
0.0
 11
4856.519576414392759
 21
185.4191912560048934
 31
0.0
  0
LINE
  5
14EB6
  8
0
 10
4856.5280134343447571
 20
185.404737018012014
 30
0.0
 11
4856.5209724569904211
 21
185.411925703252308
 31
0.0
  0
LINE
  5
14EB7
  8
0
 10
4856.5209724569904211
 20
185.411925703252308
 30
0.0
 11
4856.5215133001138383
 21
185.412698107287099
 31
0.0
  0
LINE
  5
14EB8
  8
0
 10
4856.5215133001138383
 20
185.412698107287099
 30
0.0
 11
4856.5343442728162699
 21
185.4013008003153118
 31
0.0
  0
LINE
  5
14EB9
  8
0
 10
4856.5343442728162699
 20
185.4013008003153118
 30
0.0
 11
4856.5466418801142936
 21
185.3891417688871002
 31
0.0
  0
LINE
  5
14EBA
  8
0
 10
4856.5466418801142936
 20
185.3891417688871002
 30
0.0
 11
4856.5461055397026939
 21
185.3883757955053966
 31
0.0
  0
LINE
  5
14EBB
  8
0
 10
4856.5461055397026939
 20
185.3883757955053966
 30
0.0
 11
4856.5396452304248669
 21
185.3939078955181117
 31
0.0
  0
LINE
  5
14EBC
  8
0
 10
4856.5150873100328681
 20
185.4223345607165925
 30
0.0
 11
4856.5137434067273716
 21
185.4204152679074866
 31
0.0
  0
LINE
  5
14EBD
  8
0
 10
4856.5332671164551357
 20
185.3997624618602913
 30
0.0
 11
4856.5343442728162699
 21
185.4013008003153118
 31
0.0
  0
LINE
  5
14EBE
  8
0
 10
4856.5239268661271126
 20
185.4161450369061015
 30
0.0
 11
4856.5234986068126091
 21
185.4155334191871134
 31
0.0
  0
LINE
  5
14EBF
  8
0
 10
4856.5234986068126091
 20
185.4155334191871134
 30
0.0
 11
4856.5352392545419207
 21
185.4025789668961011
 31
0.0
  0
LINE
  5
14EC0
  8
0
 10
4856.5352392545419207
 20
185.4025789668961011
 30
0.0
 11
4856.5486105339132337
 21
185.3919532978871985
 31
0.0
  0
LINE
  5
14EC1
  8
0
 10
4856.5486105339132337
 20
185.3919532978871985
 30
0.0
 11
4856.5502342815925658
 21
185.3942722499120066
 31
0.0
  0
LINE
  5
14EC2
  8
0
 10
4856.5502342815925658
 20
185.3942722499120066
 30
0.0
 11
4856.5413394225197408
 21
185.4039526336599977
 31
0.0
  0
LINE
  5
14EC3
  8
0
 10
4856.5352392545419207
 20
185.4025789668961011
 30
0.0
 11
4856.5378915606443115
 21
185.4063668525365927
 31
0.0
  0
LINE
  5
14EC4
  8
0
 10
4856.5433553289130941
 20
185.3953562039870917
 30
0.0
 11
4856.5422776214127225
 21
185.3938170781871122
 31
0.0
  0
LINE
  5
14EC5
  8
0
 10
4856.5422776214127225
 20
185.3938170781871122
 30
0.0
 11
4856.5545941703630888
 21
185.3821104671370961
 31
0.0
  0
LINE
  5
14EC6
  8
0
 10
4856.5545941703630888
 20
185.3821104671370961
 30
0.0
 11
4856.5583209656124382
 21
185.379167935740611
 31
0.0
  0
LINE
  5
14EC7
  8
0
 10
4856.5433553289130941
 20
185.3953562039870917
 30
0.0
 11
4856.556925152113763
 21
185.3850140850871071
 31
0.0
  0
LINE
  5
14EC8
  8
0
 10
4856.556925152113763
 20
185.3850140850871071
 30
0.0
 11
4856.5601796438668316
 21
185.3818224033921922
 31
0.0
  0
LINE
  5
14EC9
  8
0
 10
4856.5467311167121807
 20
185.4001773287430979
 30
0.0
 11
4856.5463290982961553
 21
185.3996031867820022
 31
0.0
  0
LINE
  5
14ECA
  8
0
 10
4856.5463290982961553
 20
185.3996031867820022
 30
0.0
 11
4856.5582700124923576
 21
185.3869296553893093
 31
0.0
  0
LINE
  5
14ECB
  8
0
 10
4856.5582700124923576
 20
185.3869296553893093
 30
0.0
 11
4856.561948985361596
 21
185.3843492849279073
 31
0.0
  0
LINE
  5
14ECC
  8
0
 10
4856.5545941703630888
 20
185.3821104671370961
 30
0.0
 11
4856.556925152113763
 21
185.3850140850871071
 31
0.0
  0
LINE
  5
14ECD
  8
0
 10
4856.5582700124923576
 20
185.3869296553893093
 30
0.0
 11
4856.5607013545068185
 21
185.3903952629275977
 31
0.0
  0
ARC
  5
14ECE
  8
0
 10
4856.9027324058333761
 20
185.7611837248047948
 30
0.0
 40
0.5130090327026581
 50
239.3993917285814064
 51
247.9739416083108097
  0
LINE
  5
14ECF
  8
0
 10
4856.6415848737078704
 20
185.3196180625307932
 30
0.0
 11
4856.6482294170027671
 21
185.329107453771087
 31
0.0
  0
LINE
  5
14ED0
  8
0
 10
4856.7063608709149776
 20
185.28840337154449
 30
0.0
 11
4856.7057848874410411
 21
185.2875807819359864
 31
0.0
  0
LINE
  5
14ED1
  8
0
 10
4856.7057848874410411
 20
185.2875807819359864
 30
0.0
 11
4856.7087318253052217
 21
185.2862710566336091
 31
0.0
  0
LINE
  5
14ED2
  8
0
 10
4856.7055756424570063
 20
185.2889531944292969
 30
0.0
 11
4856.6961774115134176
 21
185.2926736025468131
 31
0.0
  0
LINE
  5
14ED3
  8
0
 10
4856.6961774115134176
 20
185.2926736025468131
 30
0.0
 11
4856.6808773312095582
 21
185.3005446582623108
 31
0.0
  0
LINE
  5
14ED4
  8
0
 10
4856.6808773312095582
 20
185.3005446582623108
 30
0.0
 11
4856.6819607933903171
 21
185.3020920026127953
 31
0.0
  0
LINE
  5
14ED5
  8
0
 10
4856.6819607933903171
 20
185.3020920026127953
 30
0.0
 11
4856.6930322104417428
 21
185.2977362000798962
 31
0.0
  0
LINE
  5
14ED6
  8
0
 10
4856.6765640388875909
 20
185.3007207649181112
 30
0.0
 11
4856.6857273494460969
 21
185.2965630856114103
 31
0.0
  0
LINE
  5
14ED7
  8
0
 10
4856.6857273494460969
 20
185.2965630856114103
 30
0.0
 11
4856.6862681925740617
 21
185.2973354896431886
 31
0.0
  0
LINE
  5
14ED8
  8
0
 10
4856.6862681925740617
 20
185.2973354896431886
 30
0.0
 11
4856.6711697761920732
 21
185.3054945514440135
 31
0.0
  0
LINE
  5
14ED9
  8
0
 10
4856.6711697761920732
 20
185.3054945514440135
 30
0.0
 11
4856.6555379946721587
 21
185.3128918886006886
 31
0.0
  0
LINE
  5
14EDA
  8
0
 10
4856.6555379946721587
 20
185.3128918886006886
 30
0.0
 11
4856.6550016543606034
 21
185.3121259151481866
 31
0.0
  0
LINE
  5
14EDB
  8
0
 10
4856.6550016543606034
 20
185.3121259151481866
 30
0.0
 11
4856.6624096838268088
 21
185.307947299832108
 31
0.0
  0
LINE
  5
14EDC
  8
0
 10
4856.6975213147998147
 20
185.2945928953687087
 30
0.0
 11
4856.6961774115134176
 21
185.2926736025468131
 31
0.0
  0
LINE
  5
14EDD
  8
0
 10
4856.670092620070136
 20
185.3039562128207933
 30
0.0
 11
4856.6711697761920732
 21
185.3054945514440135
 31
0.0
  0
LINE
  5
14EDE
  8
0
 10
4856.6886817587082987
 20
185.3007824191782049
 30
0.0
 11
4856.6882534993619629
 21
185.3001708014818121
 31
0.0
  0
LINE
  5
14EDF
  8
0
 10
4856.6882534993619629
 20
185.3001708014818121
 30
0.0
 11
4856.6720647581178127
 21
185.3067727178842858
 31
0.0
  0
LINE
  5
14EE0
  8
0
 10
4856.6720647581178127
 20
185.3067727178842858
 30
0.0
 11
4856.6575066484701892
 21
185.3157034176012132
 31
0.0
  0
LINE
  5
14EE1
  8
0
 10
4856.6575066484701892
 20
185.3157034176012132
 30
0.0
 11
4856.6591303961622543
 21
185.3180223696178075
 31
0.0
  0
LINE
  5
14EE2
  8
0
 10
4856.6591303961622543
 20
185.3180223696178075
 30
0.0
 11
4856.6712692023129421
 21
185.3129748224222055
 31
0.0
  0
LINE
  5
14EE3
  8
0
 10
4856.6720647581178127
 20
185.3067727178842858
 30
0.0
 11
4856.6747170641901903
 21
185.3105606035460085
 31
0.0
  0
LINE
  5
14EE4
  8
0
 10
4856.6625017201904484
 20
185.3119290026745887
 30
0.0
 11
4856.6614240127073572
 21
185.3103898768627005
 31
0.0
  0
LINE
  5
14EE5
  8
0
 10
4856.6614240127073572
 20
185.3103898768627005
 30
0.0
 11
4856.6462108888508737
 21
185.317959750233598
 31
0.0
  0
LINE
  5
14EE6
  8
0
 10
4856.6462108888508737
 20
185.317959750233598
 30
0.0
 11
4856.6421711747661902
 21
185.3204553872168958
 31
0.0
  0
LINE
  5
14EE7
  8
0
 10
4856.6625017201904484
 20
185.3119290026745887
 30
0.0
 11
4856.6481421545013291
 21
185.3211432524109057
 31
0.0
  0
LINE
  5
14EE8
  8
0
 10
4856.6481421545013291
 20
185.3211432524109057
 30
0.0
 11
4856.6440298530260407
 21
185.3231098548644979
 31
0.0
  0
LINE
  5
14EE9
  8
0
 10
4856.6658775081195927
 20
185.3167501273383948
 30
0.0
 11
4856.6654754895525912
 21
185.3161759854841932
 31
0.0
  0
LINE
  5
14EEA
  8
0
 10
4856.6654754895525912
 20
185.3161759854841932
 30
0.0
 11
4856.6494822324375491
 21
185.3230621714133122
 31
0.0
  0
LINE
  5
14EEB
  8
0
 10
4856.6494822324375491
 20
185.3230621714133122
 30
0.0
 11
4856.645799194528081
 21
185.3256367363962056
 31
0.0
  0
LINE
  5
14EEC
  8
0
 10
4856.6462108888508737
 20
185.317959750233598
 30
0.0
 11
4856.6481421545013291
 21
185.3211432524109057
 31
0.0
  0
LINE
  5
14EED
  8
0
 10
4856.6494822324375491
 20
185.3230621714133122
 30
0.0
 11
4856.6519072703231359
 21
185.3265321931521896
 31
0.0
  0
LINE
  5
14EEF
  8
0
 10
4861.0551232100142443
 20
187.4486999484871035
 30
0.0
 11
4861.7637846273137257
 21
187.706631610487193
 31
0.0
  0
LINE
  5
14EF0
  8
0
 10
4858.2442989385817782
 20
188.1573613658871125
 30
0.0
 11
4859.992141320313749
 21
188.1573613658871125
 31
0.0
  0
ARC
  5
14EF1
  8
0
 10
4858.2606277364229754
 20
188.5495979885195084
 30
0.0
 40
0.3925763591620682
 50
206.2210914966800885
 51
267.6161550376721721
  0
ARC
  5
14EF2
  8
0
 10
4857.9437947137903393
 20
188.3935519169870929
 30
0.0
 40
0.0394
 50
90.0
 51
206.2210914966800885
  0
ARC
  5
14EF3
  8
0
 10
4859.992141320313749
 20
188.0392613658871142
 30
0.0
 40
0.1181
 50
0.0
 51
90.0
  0
ARC
  5
14EF4
  8
0
 10
4879.5082889521863763
 20
174.0685473028592867
 30
0.0
 40
20.0845000926139292
 50
148.9934128065899017
 51
152.1173376056040922
  0
ARC
  5
14EF5
  8
0
 10
4862.6121172516077422
 20
184.2234355111303046
 30
0.0
 40
0.3714999998362651
 50
74.9999999853870634
 51
148.9934128065899017
  0
ARC
  5
14EF6
  8
0
 10
4879.5082889298691953
 20
174.0685473157278977
 30
0.0
 40
19.9155000668575894
 50
148.9934128053899087
 51
153.0150948639270894
  0
ARC
  5
14EF7
  8
0
 10
4862.6121172516986917
 20
184.223435511011786
 30
0.0
 40
0.2024999999745894
 50
74.9999999741651351
 51
148.9934128053899087
  0
LINE
  5
14EF8
  8
0
 10
4862.6645281084138333
 20
184.4190354907871949
 30
0.0
 11
4863.156184353964818
 21
184.287296596600811
 31
0.0
  0
LINE
  5
14EF9
  8
0
 10
4862.7082685270133879
 20
184.5822769553871012
 30
0.0
 11
4863.1999247726125759
 21
184.4505380614870944
 31
0.0
  0
LINE
  5
14EFA
  8
0
 10
4863.1999247726125759
 20
184.4505380614870944
 30
0.0
 11
4863.2084100540141662
 21
184.4358411229871137
 31
0.0
  0
LINE
  5
14EFB
  8
0
 10
4863.2084100540141662
 20
184.4358411229871137
 30
0.0
 11
4863.1708812924143785
 21
184.295781878187114
 31
0.0
  0
LINE
  5
14EFC
  8
0
 10
4863.1708812924143785
 20
184.295781878187114
 30
0.0
 11
4863.156184353964818
 21
184.287296596600811
 31
0.0
  0
LINE
  5
14EFD
  8
0
 10
4863.156184353964818
 20
184.287296596600811
 30
0.0
 11
4863.1999247726125759
 21
184.4505380614870944
 31
0.0
  0
ARC
  5
14EFE
  8
0
 10
4870.2161644177413109
 20
183.4166499715668976
 30
0.0
 40
8.4608272723372462
 50
177.4394633782276003
 51
182.5605366217723997
  0
ENDSEC
  0
EOF
