  0
SECTION
  2
HEADER
  9
$ACADVER
  1
AC1009
  9
$INSBASE
 10
3194.8771236499351289
 20
236.4886474568417043
 30
0.0
  9
$EXTMIN
 10
3178.1448401853340329
 20
236.4886474568417043
 30
0.0
  9
$EXTMAX
 10
3211.6094071145348607
 20
266.2721104461962227
 30
0.0
  9
$LIMMIN
 10
0.0
 20
0.0
  9
$LIMMAX
 10
11.6929133858000007
 20
8.2677165353999982
  9
$ORTHOMODE
 70
     0
  9
$REGENMODE
 70
     1
  9
$FILLMODE
 70
     1
  9
$QTEXTMODE
 70
     0
  9
$MIRRTEXT
 70
     0
  9
$DRAGMODE
 70
     2
  9
$LTSCALE
 40
0.6431102362
  9
$OSMODE
 70
  4095
  9
$ATTMODE
 70
     1
  9
$TEXTSIZE
 40
0.2
  9
$TRACEWID
 40
0.05
  9
$TEXTSTYLE
  7
STANDARD
  9
$CLAYER
  8
0
  9
$CELTYPE
  6
BYLAYER
  9
$CECOLOR
 62
   256
  9
$DIMSCALE
 40
1.0
  9
$DIMASZ
 40
0.1875
  9
$DIMEXO
 40
0.0625
  9
$DIMDLI
 40
0.4443307087
  9
$DIMRND
 40
0.0
  9
$DIMDLE
 40
0.0
  9
$DIMEXE
 40
0.125
  9
$DIMTP
 40
0.01
  9
$DIMTM
 40
0.01
  9
$DIMTXT
 40
2.0
  9
$DIMCEN
 40
0.1052362205
  9
$DIMTSZ
 40
0.0
  9
$DIMTOL
 70
     1
  9
$DIMLIM
 70
     0
  9
$DIMTIH
 70
     1
  9
$DIMTOH
 70
     1
  9
$DIMSE1
 70
     0
  9
$DIMSE2
 70
     0
  9
$DIMTAD
 70
     0
  9
$DIMZIN
 70
     0
  9
$DIMBLK
  1

  9
$DIMASO
 70
     1
  9
$DIMSHO
 70
     1
  9
$DIMPOST
  1
\X
  9
$DIMAPOST
  1

  9
$DIMALT
 70
     1
  9
$DIMALTD
 70
     2
  9
$DIMALTF
 40
25.3999999999999986
  9
$DIMLFAC
 40
1.0
  9
$DIMTOFL
 70
     0
  9
$DIMTVP
 40
0.0
  9
$DIMTIX
 70
     0
  9
$DIMSOXD
 70
     0
  9
$DIMSAH
 70
     0
  9
$DIMBLK1
  1

  9
$DIMBLK2
  1

  9
$DIMSTYLE
  2
STANDARD
  9
$DIMCLRD
 70
     0
  9
$DIMCLRE
 70
     0
  9
$DIMCLRT
 70
     0
  9
$DIMTFAC
 40
1.0
  9
$DIMGAP
 40
0.09
  9
$LUNITS
 70
     2
  9
$LUPREC
 70
     4
  9
$SKETCHINC
 40
0.1
  9
$FILLETRAD
 40
0.0
  9
$AUNITS
 70
     0
  9
$AUPREC
 70
     0
  9
$MENU
  1
.
  9
$ELEVATION
 40
0.0
  9
$PELEVATION
 40
0.0
  9
$THICKNESS
 40
0.0
  9
$LIMCHECK
 70
     0
  9
$BLIPMODE
 70
     0
  9
$CHAMFERA
 40
0.0
  9
$CHAMFERB
 40
0.0
  9
$SKPOLY
 70
     0
  9
$TDCREATE
 40
2458060.468368056230247
  9
$TDUPDATE
 40
2459415.83703703712672
  9
$TDINDWG
 40
0.7085950231
  9
$TDUSRTIMER
 40
0.7085950231
  9
$USRTIMER
 70
     1
  9
$ANGBASE
 50
0.0
  9
$ANGDIR
 70
     0
  9
$PDMODE
 70
     0
  9
$PDSIZE
 40
0.3125
  9
$PLINEWID
 40
0.0
  9
$COORDS
 70
     1
  9
$SPLFRAME
 70
     0
  9
$SPLINETYPE
 70
     6
  9
$SPLINESEGS
 70
     8
  9
$ATTDIA
 70
     1
  9
$ATTREQ
 70
     1
  9
$HANDLING
 70
     1
  9
$HANDSEED
  5
3B8F0
  9
$SURFTAB1
 70
     6
  9
$SURFTAB2
 70
     6
  9
$SURFTYPE
 70
     6
  9
$SURFU
 70
     6
  9
$SURFV
 70
     6
  9
$UCSNAME
  2

  9
$UCSORG
 10
0.0
 20
0.0
 30
0.0
  9
$UCSXDIR
 10
1.0
 20
0.0
 30
0.0
  9
$UCSYDIR
 10
0.0
 20
1.0
 30
0.0
  9
$PUCSNAME
  2

  9
$PUCSORG
 10
0.0
 20
0.0
 30
0.0
  9
$PUCSXDIR
 10
1.0
 20
0.0
 30
0.0
  9
$PUCSYDIR
 10
0.0
 20
1.0
 30
0.0
  9
$USERI1
 70
     0
  9
$USERI2
 70
     0
  9
$USERI3
 70
     0
  9
$USERI4
 70
     0
  9
$USERI5
 70
     0
  9
$USERR1
 40
0.0
  9
$USERR2
 40
0.0
  9
$USERR3
 40
0.0
  9
$USERR4
 40
0.0
  9
$USERR5
 40
0.0
  9
$WORLDVIEW
 70
     1
  9
$SHADEDGE
 70
     3
  9
$SHADEDIF
 70
    70
  9
$TILEMODE
 70
     1
  9
$MAXACTVP
 70
    64
  9
$PLIMCHECK
 70
     0
  9
$PEXTMIN
 10
1.0000000000000000E+20
 20
1.0000000000000000E+20
 30
1.0000000000000000E+20
  9
$PEXTMAX
 10
-1.0000000000000000E+20
 20
-1.0000000000000000E+20
 30
-1.0000000000000000E+20
  9
$PLIMMIN
 10
0.0
 20
0.0
  9
$PLIMMAX
 10
12.0
 20
9.0
  9
$UNITMODE
 70
     0
  9
$VISRETAIN
 70
     1
  9
$PLINEGEN
 70
     0
  9
$PSLTSCALE
 70
     1
  0
ENDSEC
  0
SECTION
  2
TABLES
  0
TABLE
  2
VPORT
 70
     1
  0
VPORT
  2
*ACTIVE
 70
     0
 10
0.0
 20
0.0
 11
1.0
 21
1.0
 12
-108.8722561506128983
 22
56.7570148093270319
 13
0.0
 23
0.0
 14
1.0
 24
1.0
 15
0.0
 25
0.0
 16
0.0
 26
0.0
 36
96.5995694866707311
 17
3303.693115234375
 27
195.2615115758877096
 37
0.0
 40
30.0801252506270913
 41
2.8440779610194902
 42
50.0
 43
0.0
 44
0.0
 50
0.0
 51
0.0
 71
     0
 72
   100
 73
     1
 74
     1
 75
     0
 76
     0
 77
     0
 78
     0
  0
ENDTAB
  0
TABLE
  2
LTYPE
 70
     2
  0
LTYPE
  2
CONTINUOUS
 70
     0
  3
Solid line
 72
    65
 73
     0
 40
0.0
  0
LTYPE
  2
PHANTOM2
 70
     0
  3
___ _ _ ___ _ _ ___ _ _ ___ _ _
 72
    65
 73
     6
 40
1.25
 49
0.625
 49
-0.125
 49
0.125
 49
-0.125
 49
0.125
 49
-0.125
  0
ENDTAB
  0
TABLE
  2
LAYER
 70
     2
  0
LAYER
  2
0
 70
     0
 62
   255
  6
CONTINUOUS
  0
LAYER
  2
DEFPOINTS
 70
     0
 62
     7
  6
CONTINUOUS
  0
ENDTAB
  0
TABLE
  2
STYLE
 70
     1
  0
STYLE
  2
STANDARD
 70
     0
 40
0.0
 41
0.8
 50
0.0
 71
     0
 42
0.2
  3
txt
  4

  0
ENDTAB
  0
TABLE
  2
VIEW
 70
     0
  0
ENDTAB
  0
TABLE
  2
UCS
 70
     0
  0
ENDTAB
  0
TABLE
  2
APPID
 70
     9
  0
APPID
  2
ACAD
 70
     0
  0
APPID
  2
ACAD_MLEADERVER
 70
     0
  0
APPID
  2
ACAD_EXEMPT_FROM_CAD_STANDARDS
 70
     0
  0
APPID
  2
ACAD_NAV_VCDISPLAY
 70
     0
  0
APPID
  2
ACAECLAYERSTANDARD
 70
     0
  0
APPID
  2
ACCMTRANSPARENCY
 70
     0
  0
APPID
  2
ACAD_DSTYLE_DIMJAG
 70
     0
  0
APPID
  2
ACAD_DSTYLE_DIMTALN
 70
     0
  0
APPID
  2
ACDBATTR
 70
     0
  0
ENDTAB
  0
TABLE
  2
DIMSTYLE
 70
     1
  0
DIMSTYLE
  2
STANDARD
 70
     0
  3

  4

  5

  6

  7

 40
1.0
 41
0.1875
 42
0.0625
 43
0.38
 44
0.125
 45
0.0
 46
0.0
 47
0.01
 48
0.01
140
0.15625
141
0.09
142
0.0
143
25.3999999999999986
144
1.0
145
0.0
146
1.0
147
0.09
 71
     1
 72
     0
 73
     1
 74
     1
 75
     0
 76
     0
 77
     0
 78
     4
170
     0
171
     2
172
     0
173
     0
174
     0
175
     0
176
     0
177
     0
178
     0
  0
ENDTAB
  0
ENDSEC
  0
SECTION
  2
BLOCKS
  0
BLOCK
  8
0
  2
$MODEL_SPACE
 70
     0
 10
0.0
 20
0.0
 30
0.0
  3
$MODEL_SPACE
  1

  0
ENDBLK
  5
21
  8
0
  0
BLOCK
 67
     1
  8
0
  2
$PAPER_SPACE
 70
     0
 10
0.0
 20
0.0
 30
0.0
  3
$PAPER_SPACE
  1

  0
ENDBLK
  5
1D
 67
     1
  8
0
  0
ENDSEC
  0
SECTION
  2
ENTITIES
  0
ATTDEF
  5
340AC
  8
DEFPOINTS
 10
3194.8739946560581302
 20
236.4939438584169125
 30
0.0
 40
0.001
  1
K-29058T-L
  3

  2
MODELNUMBER
 70
     0
1001
ACDBATTR
1070
     0
1070
     1
  0
ATTDEF
  5
340AD
  8
DEFPOINTS
 10
3194.8739946560581302
 20
236.4922771917501905
 30
0.0
 40
0.001
  1
FLEXISPACE 
  3

  2
TRADENAME
 70
     0
1001
ACDBATTR
1070
     0
1070
     1
  0
ATTDEF
  5
340AE
  8
DEFPOINTS
 10
3194.8739946560581302
 20
236.4906105250834969
 30
0.0
 40
0.001
  1
BATH 
  3

  2
PRODUCT
 70
     0
1001
ACDBATTR
1070
     0
1070
     1
  0
LINE
  5
3B674
  8
0
 10
3178.341740185333947
 20
236.744552968641699
 30
0.0
 11
3211.4125071145340371
 21
236.744552968641699
 31
0.0
  0
LINE
  5
3B675
  8
0
 10
3178.1448401853340329
 20
264.8941096615416768
 30
0.0
 11
3178.1448401853340329
 21
236.9414529686416984
 31
0.0
  0
LINE
  5
3B676
  8
0
 10
3178.4910460551491269
 20
266.2721104461962227
 30
0.0
 11
3211.2632012447188572
 21
266.2721104461962227
 31
0.0
  0
LINE
  5
3B677
  8
0
 10
3178.2217054182351603
 20
265.0910096615417046
 30
0.0
 11
3211.532541881634188
 21
265.0910096615417046
 31
0.0
  0
LINE
  5
3B678
  8
0
 10
3178.2217054182351603
 20
265.0910096615417046
 30
0.0
 11
3178.254989941806798
 21
266.0441537073315885
 31
0.0
  0
ARC
  5
3B679
  8
0
 10
3178.4910460551491269
 20
266.0359104461962261
 30
0.0
 40
0.2362
 50
90.0
 51
177.9999999965340862
  0
ARC
  5
3B67A
  8
0
 10
3178.341740185333947
 20
264.8941096615416768
 30
0.0
 40
0.1969
 50
90.0
 51
180.0
  0
LINE
  5
3B67B
  8
0
 10
3185.1569102641337849
 20
246.2327419450417096
 30
0.0
 11
3204.5973370357351087
 21
246.2327419450417096
 31
0.0
  0
LINE
  5
3B67C
  8
0
 10
3184.6842102641339807
 20
257.4145057245416979
 30
0.0
 11
3184.6842102641339807
 21
246.7054419450417129
 31
0.0
  0
LINE
  5
3B67D
  8
0
 10
3185.3922102641340643
 20
258.1225057245417247
 30
0.0
 11
3191.4678866605909207
 21
258.1225057245417247
 31
0.0
  0
ARC
  5
3B67E
  8
0
 10
3185.1569102641337849
 20
246.7054419450417129
 30
0.0
 40
0.4727000000000001
 50
180.0
 51
270.0
  0
ARC
  5
3B67F
  8
0
 10
3185.3922102641340643
 20
257.4145057245416979
 30
0.0
 40
0.708
 50
90.0
 51
180.0
  0
LINE
  5
3B680
  8
0
 10
3192.4426750882780652
 20
256.3520332836417879
 30
0.0
 11
3197.3115722115908284
 21
256.3520332836417879
 31
0.0
  0
LINE
  5
3B681
  8
0
 10
3191.9402987045227746
 20
257.6663027166242159
 30
0.0
 11
3191.970263044344847
 21
256.808236291559183
 31
0.0
  0
ARC
  5
3B682
  8
0
 10
3191.4678866605909207
 20
257.6498057245416931
 30
0.0
 40
0.4727000000000001
 50
1.9999999989312709
 51
90.0
  0
ARC
  5
3B683
  8
0
 10
3192.4426750882780652
 20
256.8247332836417058
 30
0.0
 40
0.4727000000000001
 50
181.9999999989312016
 51
270.0
  0
LINE
  5
3B684
  8
0
 10
3191.9984528471541125
 20
256.7457340710416815
 30
0.0
 11
3197.7526157429738305
 21
256.7457340710416815
 31
0.0
  0
ARC
  5
3B685
  8
0
 10
3192.0000422020239057
 20
256.7246937918858976
 30
0.0
 40
0.0211002226496451
 50
94.3198434238297523
 51
165.7693061468544045
  0
LINE
  5
3B686
  8
0
 10
3191.9466400462411002
 20
257.484710448941712
 30
0.0
 11
3197.8076072536277934
 21
257.484710448941712
 31
0.0
  0
LINE
  5
3B687
  8
0
 10
3191.9415531624968025
 20
257.6303797403417093
 30
0.0
 11
3197.8126941373720911
 21
257.6303797403417093
 31
0.0
  0
LINE
  5
3B688
  8
0
 10
3191.8900070447548387
 20
257.8625489295416742
 30
0.0
 11
3197.8642402551140549
 21
257.8625489295416742
 31
0.0
  0
LINE
  5
3B689
  8
0
 10
3191.6159042614790451
 20
258.098733424541706
 30
0.0
 11
3198.138343038388939
 21
258.098733424541706
 31
0.0
  0
LINE
  5
3B68A
  8
0
 10
3185.6054701066341295
 20
246.0005727557417003
 30
0.0
 11
3204.1487771932352189
 21
246.0005727557417003
 31
0.0
  0
ARC
  5
3B68B
  8
0
 10
3185.6054701066341295
 20
246.6264427324416886
 30
0.0
 40
0.6258699767000043
 50
218.7873759458780967
 51
270.0
  0
LINE
  5
3B68C
  8
0
 10
3187.7438858513351079
 20
246.2130569056417073
 30
0.0
 11
3188.1127236532338429
 21
246.2130569056417073
 31
0.0
  0
ARC
  5
3B68D
  8
0
 10
3187.7438858513351079
 20
246.3114821025417029
 30
0.0
 40
0.0984251969000041
 50
233.130102334751399
 51
270.0
  0
ARC
  5
3B68E
  8
0
 10
3188.1127236532338429
 20
246.3114821025417029
 30
0.0
 40
0.0984251969000028
 50
269.9999993014366169
 51
306.8698976652485726
  0
ARC
  5
3B68F
  8
0
 10
3178.341740185333947
 20
236.9414529686416984
 30
0.0
 40
0.1969
 50
180.0
 51
270.0
  0
LINE
  5
3B690
  8
0
 10
3183.9519267995337941
 20
236.5477025749416953
 30
0.0
 11
3185.9204307365339446
 21
236.5477025749416953
 31
0.0
  0
LINE
  5
3B691
  8
0
 10
3183.9519267995337941
 20
236.5477025749416953
 30
0.0
 11
3183.9519267995337941
 21
236.744552968641699
 31
0.0
  0
LINE
  5
3B692
  8
0
 10
3185.9204307365339446
 20
236.5477025749416953
 30
0.0
 11
3185.9204307365339446
 21
236.744552968641699
 31
0.0
  0
LINE
  5
3B693
  8
0
 10
3183.9729161887339615
 20
236.5201435198416959
 30
0.0
 11
3185.8994413708342108
 21
236.5201435198416959
 31
0.0
  0
LINE
  5
3B694
  8
0
 10
3185.8994413708342108
 20
236.5201435198416959
 30
0.0
 11
3185.8994413708342108
 21
236.5477025749416953
 31
0.0
  0
LINE
  5
3B695
  8
0
 10
3183.9729161887339615
 20
236.5201435198416959
 30
0.0
 11
3183.9729161887339615
 21
236.5477025749416953
 31
0.0
  0
LINE
  5
3B696
  8
0
 10
3193.0267299491351878
 20
237.33510414974171
 30
0.0
 11
3196.7275173507341606
 21
237.33510414974171
 31
0.0
  0
LINE
  5
3B697
  8
0
 10
3193.0267299491351878
 20
237.5713246222416899
 30
0.0
 11
3196.7275173507341606
 21
237.5713246222416899
 31
0.0
  0
ARC
  5
3B698
  8
0
 10
3193.0267299491351878
 20
237.4532143859917142
 30
0.0
 40
0.1181102362500006
 50
90.0
 51
270.0
  0
ARC
  5
3B699
  8
0
 10
3194.9118536960340862
 20
238.5152541006046931
 30
0.0
 40
1.1033437180746919
 50
238.8169148490079863
 51
268.1961978153191239
  0
ARC
  5
3B69A
  8
0
 10
3194.8771236499351289
 20
237.9256553308416926
 30
0.0
 40
0.5118110236000063
 50
223.8130614532504978
 51
270.0006394431364924
  0
ARC
  5
3B69B
  8
0
 10
3200.5086329688429032
 20
196.1893480089865989
 30
0.0
 40
41.8134493384557473
 50
98.4335115069001318
 51
100.2529236370830006
  0
ARC
  5
3B69C
  8
0
 10
3184.2136358271350218
 20
236.5390903702416949
 30
0.0
 40
0.0504429134000004
 50
202.0620044966873081
 51
317.7932182536505934
  0
ARC
  5
3B69D
  8
0
 10
3184.1881472719342128
 20
236.5390903702416949
 30
0.0
 40
0.0504429134000004
 50
202.0620044966873081
 51
284.6342349983805207
  0
ARC
  5
3B69E
  8
0
 10
3184.2883644896342048
 20
236.5390903702416949
 30
0.0
 40
0.0504429134000004
 50
202.0620044966873081
 51
337.9379955033126066
  0
ARC
  5
3B69F
  8
0
 10
3184.3653126263347986
 20
236.5390903702416949
 30
0.0
 40
0.0504429134000004
 50
220.2949844802004122
 51
286.0781653410099921
  0
ARC
  5
3B6A0
  8
0
 10
3184.3932528040340912
 20
236.5390903702416949
 30
0.0
 40
0.0504429134000004
 50
202.0620044966873081
 51
277.969735507388009
  0
ARC
  5
3B6A1
  8
0
 10
3184.4072406246350511
 20
236.5390903702416949
 30
0.0
 40
0.0504429134000004
 50
202.0620044966873081
 51
337.9379955033126066
  0
ARC
  5
3B6A2
  8
0
 10
3184.474338357833858
 20
236.5390903702416949
 30
0.0
 40
0.0504429134000004
 50
228.3110901231291905
 51
330.5208914715350943
  0
ARC
  5
3B6A3
  8
0
 10
3184.5621630200339496
 20
236.5390903702416949
 30
0.0
 40
0.0504429134000004
 50
202.0620044966873081
 51
337.9379955033126066
  0
ARC
  5
3B6A4
  8
0
 10
3184.6006320689339191
 20
236.5390903702416949
 30
0.0
 40
0.0504429134000004
 50
247.5849807946354133
 51
337.9379955033126066
  0
ARC
  5
3B6A5
  8
0
 10
3184.6293193730339226
 20
236.5390903702416949
 30
0.0
 40
0.0504429134000004
 50
253.4797527576156142
 51
337.9379955033126066
  0
ARC
  5
3B6A6
  8
0
 10
3184.7425739705340675
 20
236.5390903702416949
 30
0.0
 40
0.0504429134000004
 50
202.0620044966873081
 51
337.9379955033126066
  0
ARC
  5
3B6A7
  8
0
 10
3184.7597714287339841
 20
236.5390903702416949
 30
0.0
 40
0.0504429134000004
 50
260.1851692818844981
 51
337.9379955033126066
  0
ARC
  5
3B6A8
  8
0
 10
3184.9361787680340967
 20
236.5390903702416949
 30
0.0
 40
0.0504429134000002
 50
202.0620044966873081
 51
337.9379955033126066
  0
ARC
  5
3B6A9
  8
0
 10
3185.6587217089340811
 20
236.5390903702416949
 30
0.0
 40
0.0504429134000004
 50
222.2067817463492929
 51
337.9379955033126066
  0
ARC
  5
3B6AA
  8
0
 10
3185.6842102641339807
 20
236.5390903702416949
 30
0.0
 40
0.0504429134000004
 50
255.3657650016193941
 51
337.9379955033126066
  0
ARC
  5
3B6AB
  8
0
 10
3185.5839930464339886
 20
236.5390903702416949
 30
0.0
 40
0.0504429134000004
 50
202.0620044966873081
 51
337.9379955033126066
  0
ARC
  5
3B6AC
  8
0
 10
3185.5070449097338496
 20
236.5390903702416949
 30
0.0
 40
0.0504429134000004
 50
253.9218346589649116
 51
319.7050155197997015
  0
ARC
  5
3B6AD
  8
0
 10
3185.4791047320341022
 20
236.5390903702416949
 30
0.0
 40
0.0504429134000004
 50
262.030264492611991
 51
337.9379955033126066
  0
ARC
  5
3B6AE
  8
0
 10
3185.4651169114340519
 20
236.5390903702416949
 30
0.0
 40
0.0504429134000004
 50
202.0620044966873081
 51
337.9379955033126066
  0
ARC
  5
3B6AF
  8
0
 10
3185.3980191782347902
 20
236.5390903702416949
 30
0.0
 40
0.0504429134000004
 50
209.4791085284649057
 51
311.6889098768706958
  0
ARC
  5
3B6B0
  8
0
 10
3185.3101945160351534
 20
236.5390903702416949
 30
0.0
 40
0.0504429134000004
 50
202.0620044966873081
 51
337.9379955033126066
  0
ARC
  5
3B6B1
  8
0
 10
3185.2717254671338196
 20
236.5390903702416949
 30
0.0
 40
0.0504429134000004
 50
202.0620044966873081
 51
292.4150192053645014
  0
ARC
  5
3B6B2
  8
0
 10
3185.2430381630351803
 20
236.5390903702416949
 30
0.0
 40
0.0504429134000004
 50
202.0620044966873081
 51
286.5202472423844142
  0
ARC
  5
3B6B3
  8
0
 10
3185.129783565534126
 20
236.5390903702416949
 30
0.0
 40
0.0504429134000004
 50
202.0620044966873081
 51
337.9379955033126066
  0
ARC
  5
3B6B4
  8
0
 10
3185.1125861073342094
 20
236.5390903702416949
 30
0.0
 40
0.0504429134000004
 50
202.0620044966873081
 51
279.8148307181155019
  0
LINE
  5
3B6B5
  8
0
 10
3185.8908962230339057
 20
236.5201435198416959
 30
0.0
 11
3185.8908962230339057
 21
236.5477025749416953
 31
0.0
  0
LINE
  5
3B6B6
  8
0
 10
3185.8738832783337784
 20
236.5201435198416959
 30
0.0
 11
3185.8738832783337784
 21
236.5477025749416953
 31
0.0
  0
LINE
  5
3B6B7
  8
0
 10
3185.8495573229351976
 20
236.5201435198416959
 30
0.0
 11
3185.8495573229351976
 21
236.5477025749416953
 31
0.0
  0
LINE
  5
3B6B8
  8
0
 10
3185.8485566084341372
 20
236.5201435198416959
 30
0.0
 11
3185.8485566084341372
 21
236.5477025749416953
 31
0.0
  0
LINE
  5
3B6B9
  8
0
 10
3185.8224332311338003
 20
236.5201435198416959
 30
0.0
 11
3185.8224332311338003
 21
236.5477025749416953
 31
0.0
  0
LINE
  5
3B6BA
  8
0
 10
3185.8151455757338226
 20
236.5201435198416959
 30
0.0
 11
3185.8151455757338226
 21
236.5477025749416953
 31
0.0
  0
LINE
  5
3B6BB
  8
0
 10
3185.7872830831352076
 20
236.5201435198416959
 30
0.0
 11
3185.7872830831352076
 21
236.5477025749416953
 31
0.0
  0
LINE
  5
3B6BC
  8
0
 10
3185.7739527555340828
 20
236.5201435198416959
 30
0.0
 11
3185.7739527555340828
 21
236.5477025749416953
 31
0.0
  0
LINE
  5
3B6BD
  8
0
 10
3185.7444252039340427
 20
236.5201435198416959
 30
0.0
 11
3185.7444252039340427
 21
236.5477025749416953
 31
0.0
  0
LINE
  5
3B6BE
  8
0
 10
3185.7253511963340316
 20
236.5201435198416959
 30
0.0
 11
3185.7253511963340316
 21
236.5477025749416953
 31
0.0
  0
LINE
  5
3B6BF
  8
0
 10
3185.6942477210350262
 20
236.5201435198416959
 30
0.0
 11
3185.6942477210350262
 21
236.5477025749416953
 31
0.0
  0
LINE
  5
3B6C0
  8
0
 10
3185.6697810413352272
 20
236.5201435198416959
 30
0.0
 11
3185.6697810413352272
 21
236.5477025749416953
 31
0.0
  0
LINE
  5
3B6C1
  8
0
 10
3185.6372050494351242
 20
236.5201435198416959
 30
0.0
 11
3185.6372050494351242
 21
236.5477025749416953
 31
0.0
  0
LINE
  5
3B6C2
  8
0
 10
3185.6077455424338041
 20
236.5201435198416959
 30
0.0
 11
3185.6077455424338041
 21
236.5477025749416953
 31
0.0
  0
LINE
  5
3B6C3
  8
0
 10
3185.5738137763341911
 20
236.5201435198416959
 30
0.0
 11
3185.5738137763341911
 21
236.5477025749416953
 31
0.0
  0
LINE
  5
3B6C4
  8
0
 10
3185.5398065026338372
 20
236.5201435198416959
 30
0.0
 11
3185.5398065026338372
 21
236.5477025749416953
 31
0.0
  0
LINE
  5
3B6C5
  8
0
 10
3185.5046479828338306
 20
236.5201435198416959
 30
0.0
 11
3185.5046479828338306
 21
236.5477025749416953
 31
0.0
  0
LINE
  5
3B6C6
  8
0
 10
3185.4665791881348014
 20
236.5201435198416959
 30
0.0
 11
3185.4665791881348014
 21
236.5477025749416953
 31
0.0
  0
LINE
  5
3B6C7
  8
0
 10
3185.4303340449341704
 20
236.5201435198416959
 30
0.0
 11
3185.4303340449341704
 21
236.5477025749416953
 31
0.0
  0
LINE
  5
3B6C8
  8
0
 10
3185.3887267569339201
 20
236.5201435198416959
 30
0.0
 11
3185.3887267569339201
 21
236.5477025749416953
 31
0.0
  0
LINE
  5
3B6C9
  8
0
 10
3185.3515449610340511
 20
236.5201435198416959
 30
0.0
 11
3185.3515449610340511
 21
236.5477025749416953
 31
0.0
  0
LINE
  5
3B6CA
  8
0
 10
3185.3069542523339805
 20
236.5201435198416959
 30
0.0
 11
3185.3069542523339805
 21
236.5477025749416953
 31
0.0
  0
LINE
  5
3B6CB
  8
0
 10
3185.2689942573338158
 20
236.5201435198416959
 30
0.0
 11
3185.2689942573338158
 21
236.5477025749416953
 31
0.0
  0
LINE
  5
3B6CC
  8
0
 10
3185.2220022189339943
 20
236.5201435198416959
 30
0.0
 11
3185.2220022189339943
 21
236.5477025749416953
 31
0.0
  0
LINE
  5
3B6CD
  8
0
 10
3185.1834295254348035
 20
236.5201435198416959
 30
0.0
 11
3185.1834295254348035
 21
236.5477025749416953
 31
0.0
  0
LINE
  5
3B6CE
  8
0
 10
3185.1346399952340107
 20
236.5201435198416959
 30
0.0
 11
3185.1346399952340107
 21
236.5477025749416953
 31
0.0
  0
LINE
  5
3B6CF
  8
0
 10
3185.0956256527338155
 20
236.5201435198416959
 30
0.0
 11
3185.0956256527338155
 21
236.5477025749416953
 31
0.0
  0
LINE
  5
3B6D0
  8
0
 10
3185.04565874703394
 20
236.5201435198416959
 30
0.0
 11
3185.04565874703394
 21
236.5477025749416953
 31
0.0
  0
LINE
  5
3B6D1
  8
0
 10
3185.0063778046351217
 20
236.5201435198416959
 30
0.0
 11
3185.0063778046351217
 21
236.5477025749416953
 31
0.0
  0
LINE
  5
3B6D2
  8
0
 10
3184.9558638074340706
 20
236.5201435198416959
 30
0.0
 11
3184.9558638074340706
 21
236.5477025749416953
 31
0.0
  0
LINE
  5
3B6D3
  8
0
 10
3183.9814613130351972
 20
236.5201435198416959
 30
0.0
 11
3183.9814613130351972
 21
236.5477025749416953
 31
0.0
  0
LINE
  5
3B6D4
  8
0
 10
3183.9984742577339603
 20
236.5201435198416959
 30
0.0
 11
3183.9984742577339603
 21
236.5477025749416953
 31
0.0
  0
LINE
  5
3B6D5
  8
0
 10
3184.0228002131339053
 20
236.5201435198416959
 30
0.0
 11
3184.0228002131339053
 21
236.5477025749416953
 31
0.0
  0
LINE
  5
3B6D6
  8
0
 10
3184.0238009276340563
 20
236.5201435198416959
 30
0.0
 11
3184.0238009276340563
 21
236.5477025749416953
 31
0.0
  0
LINE
  5
3B6D7
  8
0
 10
3184.0499243049339384
 20
236.5201435198416959
 30
0.0
 11
3184.0499243049339384
 21
236.5477025749416953
 31
0.0
  0
LINE
  5
3B6D8
  8
0
 10
3184.0572119603339161
 20
236.5201435198416959
 30
0.0
 11
3184.0572119603339161
 21
236.5477025749416953
 31
0.0
  0
LINE
  5
3B6D9
  8
0
 10
3184.0850744529338954
 20
236.5201435198416959
 30
0.0
 11
3184.0850744529338954
 21
236.5477025749416953
 31
0.0
  0
LINE
  5
3B6DA
  8
0
 10
3184.0984047805341106
 20
236.5201435198416959
 30
0.0
 11
3184.0984047805341106
 21
236.5477025749416953
 31
0.0
  0
LINE
  5
3B6DB
  8
0
 10
3184.1279323321341508
 20
236.5201435198416959
 30
0.0
 11
3184.1279323321341508
 21
236.5477025749416953
 31
0.0
  0
LINE
  5
3B6DC
  8
0
 10
3184.1470063397341619
 20
236.5201435198416959
 30
0.0
 11
3184.1470063397341619
 21
236.5477025749416953
 31
0.0
  0
LINE
  5
3B6DD
  8
0
 10
3184.1781098150349862
 20
236.5201435198416959
 30
0.0
 11
3184.1781098150349862
 21
236.5477025749416953
 31
0.0
  0
LINE
  5
3B6DE
  8
0
 10
3184.2025764947347852
 20
236.5201435198416959
 30
0.0
 11
3184.2025764947347852
 21
236.5477025749416953
 31
0.0
  0
LINE
  5
3B6DF
  8
0
 10
3184.2351524866339787
 20
236.5201435198416959
 30
0.0
 11
3184.2351524866339787
 21
236.5477025749416953
 31
0.0
  0
LINE
  5
3B6E0
  8
0
 10
3184.2646119936339346
 20
236.5201435198416959
 30
0.0
 11
3184.2646119936339346
 21
236.5477025749416953
 31
0.0
  0
LINE
  5
3B6E1
  8
0
 10
3184.2985437597340024
 20
236.5201435198416959
 30
0.0
 11
3184.2985437597340024
 21
236.5477025749416953
 31
0.0
  0
LINE
  5
3B6E2
  8
0
 10
3184.3325510334339015
 20
236.5201435198416959
 30
0.0
 11
3184.3325510334339015
 21
236.5477025749416953
 31
0.0
  0
LINE
  5
3B6E3
  8
0
 10
3184.3677095532339081
 20
236.5201435198416959
 30
0.0
 11
3184.3677095532339081
 21
236.5477025749416953
 31
0.0
  0
LINE
  5
3B6E4
  8
0
 10
3184.4057783479338468
 20
236.5201435198416959
 30
0.0
 11
3184.4057783479338468
 21
236.5477025749416953
 31
0.0
  0
LINE
  5
3B6E5
  8
0
 10
3184.4420234911340231
 20
236.5201435198416959
 30
0.0
 11
3184.4420234911340231
 21
236.5477025749416953
 31
0.0
  0
LINE
  5
3B6E6
  8
0
 10
3184.4836307791338186
 20
236.5201435198416959
 30
0.0
 11
3184.4836307791338186
 21
236.5477025749416953
 31
0.0
  0
LINE
  5
3B6E7
  8
0
 10
3184.5208125750341424
 20
236.5201435198416959
 30
0.0
 11
3184.5208125750341424
 21
236.5477025749416953
 31
0.0
  0
LINE
  5
3B6E8
  8
0
 10
3184.5654032837342129
 20
236.5201435198416959
 30
0.0
 11
3184.5654032837342129
 21
236.5477025749416953
 31
0.0
  0
LINE
  5
3B6E9
  8
0
 10
3184.6033632787339229
 20
236.5201435198416959
 30
0.0
 11
3184.6033632787339229
 21
236.5477025749416953
 31
0.0
  0
LINE
  5
3B6EA
  8
0
 10
3184.6503553171341991
 20
236.5201435198416959
 30
0.0
 11
3184.6503553171341991
 21
236.5477025749416953
 31
0.0
  0
LINE
  5
3B6EB
  8
0
 10
3184.6889280106338447
 20
236.5201435198416959
 30
0.0
 11
3184.6889280106338447
 21
236.5477025749416953
 31
0.0
  0
LINE
  5
3B6EC
  8
0
 10
3184.7377175408341827
 20
236.5201435198416959
 30
0.0
 11
3184.7377175408341827
 21
236.5477025749416953
 31
0.0
  0
LINE
  5
3B6ED
  8
0
 10
3184.7767318833339232
 20
236.5201435198416959
 30
0.0
 11
3184.7767318833339232
 21
236.5477025749416953
 31
0.0
  0
LINE
  5
3B6EE
  8
0
 10
3184.8266987890351629
 20
236.5201435198416959
 30
0.0
 11
3184.8266987890351629
 21
236.5477025749416953
 31
0.0
  0
LINE
  5
3B6EF
  8
0
 10
3184.8659797314339812
 20
236.5201435198416959
 30
0.0
 11
3184.8659797314339812
 21
236.5477025749416953
 31
0.0
  0
LINE
  5
3B6F0
  8
0
 10
3184.9164937286341228
 20
236.5201435198416959
 30
0.0
 11
3184.9164937286341228
 21
236.5477025749416953
 31
0.0
  0
LINE
  5
3B6F1
  8
0
 10
3211.6094071145348607
 20
264.8941096615416768
 30
0.0
 11
3211.6094071145348607
 21
236.9414529686416984
 31
0.0
  0
LINE
  5
3B6F2
  8
0
 10
3211.532541881634188
 20
265.0910096615417046
 30
0.0
 11
3211.4992573580620956
 21
266.0441537073315885
 31
0.0
  0
ARC
  5
3B6F3
  8
0
 10
3211.2632012447188572
 20
266.0359104461962261
 30
0.0
 40
0.2362
 50
2.0000000034659262
 51
90.0
  0
ARC
  5
3B6F4
  8
0
 10
3211.4125071145340371
 20
264.8941096615416768
 30
0.0
 40
0.1969
 50
0.0
 51
90.0
  0
LINE
  5
3B6F5
  8
0
 10
3205.0700370357340034
 20
257.4145057245416979
 30
0.0
 11
3205.0700370357340034
 21
246.7054419450417129
 31
0.0
  0
LINE
  5
3B6F6
  8
0
 10
3204.3620370357339198
 20
258.1225057245417247
 30
0.0
 11
3198.286360639277973
 21
258.1225057245417247
 31
0.0
  0
ARC
  5
3B6F7
  8
0
 10
3204.5973370357351087
 20
246.7054419450417129
 30
0.0
 40
0.4727000000000001
 50
270.0
 51
0.0
  0
ARC
  5
3B6F8
  8
0
 10
3204.3620370357339198
 20
257.4145057245416979
 30
0.0
 40
0.708
 50
0.0
 51
90.0
  0
LINE
  5
3B6F9
  8
0
 10
3197.8139485953452095
 20
257.6663027166242159
 30
0.0
 11
3197.7839842555231371
 21
256.808236291559183
 31
0.0
  0
ARC
  5
3B6FA
  8
0
 10
3198.286360639277973
 20
257.6498057245416931
 30
0.0
 40
0.4727000000000001
 50
90.0
 51
178.0000000010687131
  0
ARC
  5
3B6FB
  8
0
 10
3197.3115722115908284
 20
256.8247332836417058
 30
0.0
 40
0.4727000000000001
 50
270.0
 51
358.0000000010687131
  0
ARC
  5
3B6FC
  8
0
 10
3197.7542050978440784
 20
256.7246937918858976
 30
0.0
 40
0.0211002226496451
 50
14.2306938531456204
 51
94.3198434238037891
  0
ARC
  5
3B6FD
  8
0
 10
3204.1487771932352189
 20
246.6264427324416886
 30
0.0
 40
0.6258699767000043
 50
270.0
 51
321.2126240541218749
  0
LINE
  5
3B6FE
  8
0
 10
3202.01036144853515
 20
246.2130569056417073
 30
0.0
 11
3201.6415236466341412
 21
246.2130569056417073
 31
0.0
  0
ARC
  5
3B6FF
  8
0
 10
3202.01036144853515
 20
246.3114821025417029
 30
0.0
 40
0.0984251969000041
 50
270.0
 51
306.8698976652485726
  0
ARC
  5
3B700
  8
0
 10
3201.6415236466341412
 20
246.3114821025417029
 30
0.0
 40
0.0984251969000028
 50
233.130102334751399
 51
270.000000698537292
  0
ARC
  5
3B701
  8
0
 10
3211.4125071145340371
 20
236.9414529686416984
 30
0.0
 40
0.1969
 50
270.0
 51
0.0
  0
LINE
  5
3B702
  8
0
 10
3205.80232050033419
 20
236.5477025749416953
 30
0.0
 11
3203.8338165633340395
 21
236.5477025749416953
 31
0.0
  0
LINE
  5
3B703
  8
0
 10
3205.80232050033419
 20
236.5477025749416953
 30
0.0
 11
3205.80232050033419
 21
236.744552968641699
 31
0.0
  0
LINE
  5
3B704
  8
0
 10
3203.8338165633340395
 20
236.5477025749416953
 30
0.0
 11
3203.8338165633340395
 21
236.744552968641699
 31
0.0
  0
LINE
  5
3B705
  8
0
 10
3205.7813311111340226
 20
236.5201435198416959
 30
0.0
 11
3203.8548059290337733
 21
236.5201435198416959
 31
0.0
  0
LINE
  5
3B706
  8
0
 10
3203.8548059290337733
 20
236.5201435198416959
 30
0.0
 11
3203.8548059290337733
 21
236.5477025749416953
 31
0.0
  0
LINE
  5
3B707
  8
0
 10
3205.7813311111340226
 20
236.5201435198416959
 30
0.0
 11
3205.7813311111340226
 21
236.5477025749416953
 31
0.0
  0
ARC
  5
3B708
  8
0
 10
3196.7275173507341606
 20
237.4532143859917142
 30
0.0
 40
0.1181102362500006
 50
270.0
 51
90.0
  0
ARC
  5
3B709
  8
0
 10
3194.8423936038338979
 20
238.5152541006046931
 30
0.0
 40
1.1033437180746919
 50
271.8038021846548986
 51
301.183085150992099
  0
ARC
  5
3B70A
  8
0
 10
3194.8771236499351289
 20
237.9256553308416926
 30
0.0
 40
0.5118110236000063
 50
269.9993605568633939
 51
316.1869385467495022
  0
ARC
  5
3B70B
  8
0
 10
3189.2456143310259904
 20
196.1893480089865989
 30
0.0
 40
41.8134493384557473
 50
79.7470763629170278
 51
81.5664884930998824
  0
ARC
  5
3B70C
  8
0
 10
3205.5406114727347813
 20
236.5390903702416949
 30
0.0
 40
0.0504429134000004
 50
222.2067817463492929
 51
337.9379955033126066
  0
ARC
  5
3B70D
  8
0
 10
3205.5661000279342261
 20
236.5390903702416949
 30
0.0
 40
0.0504429134000004
 50
255.3657650016193941
 51
337.9379955033126066
  0
ARC
  5
3B70E
  8
0
 10
3205.4658828102337793
 20
236.5390903702416949
 30
0.0
 40
0.0504429134000004
 50
202.0620044966873081
 51
337.9379955033126066
  0
ARC
  5
3B70F
  8
0
 10
3205.3889346735340951
 20
236.5390903702416949
 30
0.0
 40
0.0504429134000004
 50
253.9218346589649116
 51
319.7050155197997015
  0
ARC
  5
3B710
  8
0
 10
3205.3609944958348024
 20
236.5390903702416949
 30
0.0
 40
0.0504429134000004
 50
262.030264492611991
 51
337.9379955033126066
  0
ARC
  5
3B711
  8
0
 10
3205.3470066752352068
 20
236.5390903702416949
 30
0.0
 40
0.0504429134000004
 50
202.0620044966873081
 51
337.9379955033126066
  0
ARC
  5
3B712
  8
0
 10
3205.2799089420341261
 20
236.5390903702416949
 30
0.0
 40
0.0504429134000004
 50
209.4791085284649057
 51
311.6889098768706958
  0
ARC
  5
3B713
  8
0
 10
3205.1920842798340345
 20
236.5390903702416949
 30
0.0
 40
0.0504429134000004
 50
202.0620044966873081
 51
337.9379955033126066
  0
ARC
  5
3B714
  8
0
 10
3205.153615230934065
 20
236.5390903702416949
 30
0.0
 40
0.0504429134000004
 50
202.0620044966873081
 51
292.4150192053645014
  0
ARC
  5
3B715
  8
0
 10
3205.1249279268340615
 20
236.5390903702416949
 30
0.0
 40
0.0504429134000004
 50
202.0620044966873081
 51
286.5202472423844142
  0
ARC
  5
3B716
  8
0
 10
3205.0116733293339166
 20
236.5390903702416949
 30
0.0
 40
0.0504429134000004
 50
202.0620044966873081
 51
337.9379955033126066
  0
ARC
  5
3B717
  8
0
 10
3204.994475871134
 20
236.5390903702416949
 30
0.0
 40
0.0504429134000004
 50
202.0620044966873081
 51
279.8148307181155019
  0
ARC
  5
3B718
  8
0
 10
3204.8180685318338874
 20
236.5390903702416949
 30
0.0
 40
0.0504429134000002
 50
202.0620044966873081
 51
337.9379955033126066
  0
ARC
  5
3B719
  8
0
 10
3204.095525590933903
 20
236.5390903702416949
 30
0.0
 40
0.0504429134000004
 50
202.0620044966873081
 51
317.7932182536505934
  0
ARC
  5
3B71A
  8
0
 10
3204.0700370357340034
 20
236.5390903702416949
 30
0.0
 40
0.0504429134000004
 50
202.0620044966873081
 51
284.6342349983805207
  0
ARC
  5
3B71B
  8
0
 10
3204.1702542534339955
 20
236.5390903702416949
 30
0.0
 40
0.0504429134000004
 50
202.0620044966873081
 51
337.9379955033126066
  0
ARC
  5
3B71C
  8
0
 10
3204.2472023901341345
 20
236.5390903702416949
 30
0.0
 40
0.0504429134000004
 50
220.2949844802004122
 51
286.0781653410099921
  0
ARC
  5
3B71D
  8
0
 10
3204.2751425678347914
 20
236.5390903702416949
 30
0.0
 40
0.0504429134000004
 50
202.0620044966873081
 51
277.969735507388009
  0
ARC
  5
3B71E
  8
0
 10
3204.2891303884339322
 20
236.5390903702416949
 30
0.0
 40
0.0504429134000004
 50
202.0620044966873081
 51
337.9379955033126066
  0
ARC
  5
3B71F
  8
0
 10
3204.3562281216341034
 20
236.5390903702416949
 30
0.0
 40
0.0504429134000004
 50
228.3110901231291905
 51
330.5208914715350943
  0
ARC
  5
3B720
  8
0
 10
3204.444052783834195
 20
236.5390903702416949
 30
0.0
 40
0.0504429134000004
 50
202.0620044966873081
 51
337.9379955033126066
  0
ARC
  5
3B721
  8
0
 10
3204.4825218327341645
 20
236.5390903702416949
 30
0.0
 40
0.0504429134000004
 50
247.5849807946354133
 51
337.9379955033126066
  0
ARC
  5
3B722
  8
0
 10
3204.5112091368350775
 20
236.5390903702416949
 30
0.0
 40
0.0504429134000004
 50
253.4797527576156142
 51
337.9379955033126066
  0
ARC
  5
3B723
  8
0
 10
3204.6244637343338582
 20
236.5390903702416949
 30
0.0
 40
0.0504429134000004
 50
202.0620044966873081
 51
337.9379955033126066
  0
ARC
  5
3B724
  8
0
 10
3204.641661192535139
 20
236.5390903702416949
 30
0.0
 40
0.0504429134000004
 50
260.1851692818844981
 51
337.9379955033126066
  0
LINE
  5
3B725
  8
0
 10
3203.8633510768340784
 20
236.5201435198416959
 30
0.0
 11
3203.8633510768340784
 21
236.5477025749416953
 31
0.0
  0
LINE
  5
3B726
  8
0
 10
3203.8803640215342057
 20
236.5201435198416959
 30
0.0
 11
3203.8803640215342057
 21
236.5477025749416953
 31
0.0
  0
LINE
  5
3B727
  8
0
 10
3203.9046899769341508
 20
236.5201435198416959
 30
0.0
 11
3203.9046899769341508
 21
236.5477025749416953
 31
0.0
  0
LINE
  5
3B728
  8
0
 10
3203.9056906914352112
 20
236.5201435198416959
 30
0.0
 11
3203.9056906914352112
 21
236.5477025749416953
 31
0.0
  0
LINE
  5
3B729
  8
0
 10
3203.9318140687341838
 20
236.5201435198416959
 30
0.0
 11
3203.9318140687341838
 21
236.5477025749416953
 31
0.0
  0
LINE
  5
3B72A
  8
0
 10
3203.9391017241341615
 20
236.5201435198416959
 30
0.0
 11
3203.9391017241341615
 21
236.5477025749416953
 31
0.0
  0
LINE
  5
3B72B
  8
0
 10
3203.9669642167341408
 20
236.5201435198416959
 30
0.0
 11
3203.9669642167341408
 21
236.5477025749416953
 31
0.0
  0
LINE
  5
3B72C
  8
0
 10
3203.9802945443339013
 20
236.5201435198416959
 30
0.0
 11
3203.9802945443339013
 21
236.5477025749416953
 31
0.0
  0
LINE
  5
3B72D
  8
0
 10
3204.0098220959339415
 20
236.5201435198416959
 30
0.0
 11
3204.0098220959339415
 21
236.5477025749416953
 31
0.0
  0
LINE
  5
3B72E
  8
0
 10
3204.0288961035339526
 20
236.5201435198416959
 30
0.0
 11
3204.0288961035339526
 21
236.5477025749416953
 31
0.0
  0
LINE
  5
3B72F
  8
0
 10
3204.0599995788338674
 20
236.5201435198416959
 30
0.0
 11
3204.0599995788338674
 21
236.5477025749416953
 31
0.0
  0
LINE
  5
3B730
  8
0
 10
3204.0844662585341212
 20
236.5201435198416959
 30
0.0
 11
3204.0844662585341212
 21
236.5477025749416953
 31
0.0
  0
LINE
  5
3B731
  8
0
 10
3204.1170422504342241
 20
236.5201435198416959
 30
0.0
 11
3204.1170422504342241
 21
236.5477025749416953
 31
0.0
  0
LINE
  5
3B732
  8
0
 10
3204.14650175743418
 20
236.5201435198416959
 30
0.0
 11
3204.14650175743418
 21
236.5477025749416953
 31
0.0
  0
LINE
  5
3B733
  8
0
 10
3204.180433523533793
 20
236.5201435198416959
 30
0.0
 11
3204.180433523533793
 21
236.5477025749416953
 31
0.0
  0
LINE
  5
3B734
  8
0
 10
3204.2144407972350564
 20
236.5201435198416959
 30
0.0
 11
3204.2144407972350564
 21
236.5477025749416953
 31
0.0
  0
LINE
  5
3B735
  8
0
 10
3204.2495993170341535
 20
236.5201435198416959
 30
0.0
 11
3204.2495993170341535
 21
236.5477025749416953
 31
0.0
  0
LINE
  5
3B736
  8
0
 10
3204.2876681117340922
 20
236.5201435198416959
 30
0.0
 11
3204.2876681117340922
 21
236.5477025749416953
 31
0.0
  0
LINE
  5
3B737
  8
0
 10
3204.323913254935178
 20
236.5201435198416959
 30
0.0
 11
3204.323913254935178
 21
236.5477025749416953
 31
0.0
  0
LINE
  5
3B738
  8
0
 10
3204.365520542934064
 20
236.5201435198416959
 30
0.0
 11
3204.365520542934064
 21
236.5477025749416953
 31
0.0
  0
LINE
  5
3B739
  8
0
 10
3204.402702338833933
 20
236.5201435198416959
 30
0.0
 11
3204.402702338833933
 21
236.5477025749416953
 31
0.0
  0
LINE
  5
3B73A
  8
0
 10
3204.4472930475349131
 20
236.5201435198416959
 30
0.0
 11
3204.4472930475349131
 21
236.5477025749416953
 31
0.0
  0
LINE
  5
3B73B
  8
0
 10
3204.4852530425341683
 20
236.5201435198416959
 30
0.0
 11
3204.4852530425341683
 21
236.5477025749416953
 31
0.0
  0
LINE
  5
3B73C
  8
0
 10
3204.5322450809339898
 20
236.5201435198416959
 30
0.0
 11
3204.5322450809339898
 21
236.5477025749416953
 31
0.0
  0
LINE
  5
3B73D
  8
0
 10
3204.5708177744349996
 20
236.5201435198416959
 30
0.0
 11
3204.5708177744349996
 21
236.5477025749416953
 31
0.0
  0
LINE
  5
3B73E
  8
0
 10
3204.6196073046339734
 20
236.5201435198416959
 30
0.0
 11
3204.6196073046339734
 21
236.5477025749416953
 31
0.0
  0
LINE
  5
3B73F
  8
0
 10
3204.6586216471341686
 20
236.5201435198416959
 30
0.0
 11
3204.6586216471341686
 21
236.5477025749416953
 31
0.0
  0
LINE
  5
3B740
  8
0
 10
3204.7085885528340441
 20
236.5201435198416959
 30
0.0
 11
3204.7085885528340441
 21
236.5477025749416953
 31
0.0
  0
LINE
  5
3B741
  8
0
 10
3204.7478694952351361
 20
236.5201435198416959
 30
0.0
 11
3204.7478694952351361
 21
236.5477025749416953
 31
0.0
  0
LINE
  5
3B742
  8
0
 10
3204.7983834924339135
 20
236.5201435198416959
 30
0.0
 11
3204.7983834924339135
 21
236.5477025749416953
 31
0.0
  0
LINE
  5
3B743
  8
0
 10
3205.7727859868341511
 20
236.5201435198416959
 30
0.0
 11
3205.7727859868341511
 21
236.5477025749416953
 31
0.0
  0
LINE
  5
3B744
  8
0
 10
3205.7557730421349333
 20
236.5201435198416959
 30
0.0
 11
3205.7557730421349333
 21
236.5477025749416953
 31
0.0
  0
LINE
  5
3B745
  8
0
 10
3205.7314470867340788
 20
236.5201435198416959
 30
0.0
 11
3205.7314470867340788
 21
236.5477025749416953
 31
0.0
  0
LINE
  5
3B746
  8
0
 10
3205.7304463722339278
 20
236.5201435198416959
 30
0.0
 11
3205.7304463722339278
 21
236.5477025749416953
 31
0.0
  0
LINE
  5
3B747
  8
0
 10
3205.7043229949349552
 20
236.5201435198416959
 30
0.0
 11
3205.7043229949349552
 21
236.5477025749416953
 31
0.0
  0
LINE
  5
3B748
  8
0
 10
3205.6970353395349775
 20
236.5201435198416959
 30
0.0
 11
3205.6970353395349775
 21
236.5477025749416953
 31
0.0
  0
LINE
  5
3B749
  8
0
 10
3205.6691728469340887
 20
236.5201435198416959
 30
0.0
 11
3205.6691728469340887
 21
236.5477025749416953
 31
0.0
  0
LINE
  5
3B74A
  8
0
 10
3205.6558425193338735
 20
236.5201435198416959
 30
0.0
 11
3205.6558425193338735
 21
236.5477025749416953
 31
0.0
  0
LINE
  5
3B74B
  8
0
 10
3205.6263149677338333
 20
236.5201435198416959
 30
0.0
 11
3205.6263149677338333
 21
236.5477025749416953
 31
0.0
  0
LINE
  5
3B74C
  8
0
 10
3205.6072409601338222
 20
236.5201435198416959
 30
0.0
 11
3205.6072409601338222
 21
236.5477025749416953
 31
0.0
  0
LINE
  5
3B74D
  8
0
 10
3205.5761374848339074
 20
236.5201435198416959
 30
0.0
 11
3205.5761374848339074
 21
236.5477025749416953
 31
0.0
  0
LINE
  5
3B74E
  8
0
 10
3205.5516708051341084
 20
236.5201435198416959
 30
0.0
 11
3205.5516708051341084
 21
236.5477025749416953
 31
0.0
  0
LINE
  5
3B74F
  8
0
 10
3205.5190948132340054
 20
236.5201435198416959
 30
0.0
 11
3205.5190948132340054
 21
236.5477025749416953
 31
0.0
  0
LINE
  5
3B750
  8
0
 10
3205.4896353062340495
 20
236.5201435198416959
 30
0.0
 11
3205.4896353062340495
 21
236.5477025749416953
 31
0.0
  0
LINE
  5
3B751
  8
0
 10
3205.4557035401339817
 20
236.5201435198416959
 30
0.0
 11
3205.4557035401339817
 21
236.5477025749416953
 31
0.0
  0
LINE
  5
3B752
  8
0
 10
3205.4216962664340826
 20
236.5201435198416959
 30
0.0
 11
3205.4216962664340826
 21
236.5477025749416953
 31
0.0
  0
LINE
  5
3B753
  8
0
 10
3205.3865377466349855
 20
236.5201435198416959
 30
0.0
 11
3205.3865377466349855
 21
236.5477025749416953
 31
0.0
  0
LINE
  5
3B754
  8
0
 10
3205.3484689519341373
 20
236.5201435198416959
 30
0.0
 11
3205.3484689519341373
 21
236.5477025749416953
 31
0.0
  0
LINE
  5
3B755
  8
0
 10
3205.3122238087339611
 20
236.5201435198416959
 30
0.0
 11
3205.3122238087339611
 21
236.5477025749416953
 31
0.0
  0
LINE
  5
3B756
  8
0
 10
3205.2706165207341655
 20
236.5201435198416959
 30
0.0
 11
3205.2706165207341655
 21
236.5477025749416953
 31
0.0
  0
LINE
  5
3B757
  8
0
 10
3205.2334347248338418
 20
236.5201435198416959
 30
0.0
 11
3205.2334347248338418
 21
236.5477025749416953
 31
0.0
  0
LINE
  5
3B758
  8
0
 10
3205.188844016134226
 20
236.5201435198416959
 30
0.0
 11
3205.188844016134226
 21
236.5477025749416953
 31
0.0
  0
LINE
  5
3B759
  8
0
 10
3205.1508840211340612
 20
236.5201435198416959
 30
0.0
 11
3205.1508840211340612
 21
236.5477025749416953
 31
0.0
  0
LINE
  5
3B75A
  8
0
 10
3205.103891982733785
 20
236.5201435198416959
 30
0.0
 11
3205.103891982733785
 21
236.5477025749416953
 31
0.0
  0
LINE
  5
3B75B
  8
0
 10
3205.0653192892341394
 20
236.5201435198416959
 30
0.0
 11
3205.0653192892341394
 21
236.5477025749416953
 31
0.0
  0
LINE
  5
3B75C
  8
0
 10
3205.0165297590338014
 20
236.5201435198416959
 30
0.0
 11
3205.0165297590338014
 21
236.5477025749416953
 31
0.0
  0
LINE
  5
3B75D
  8
0
 10
3204.9775154165340609
 20
236.5201435198416959
 30
0.0
 11
3204.9775154165340609
 21
236.5477025749416953
 31
0.0
  0
LINE
  5
3B75E
  8
0
 10
3204.9275485108341854
 20
236.5201435198416959
 30
0.0
 11
3204.9275485108341854
 21
236.5477025749416953
 31
0.0
  0
LINE
  5
3B75F
  8
0
 10
3204.8882675684340029
 20
236.5201435198416959
 30
0.0
 11
3204.8882675684340029
 21
236.5477025749416953
 31
0.0
  0
LINE
  5
3B760
  8
0
 10
3204.8377535712338613
 20
236.5201435198416959
 30
0.0
 11
3204.8377535712338613
 21
236.5477025749416953
 31
0.0
  0
ENDSEC
  0
EOF
