  0
SECTION
  2
HEADER
  9
$ACADVER
  1
AC1009
  9
$INSBASE
 10
8019.800247634491825
 20
32.4111855195214318
 30
0.0
  9
$EXTMIN
 10
8011.9670528395072324
 20
32.4049318115578373
 30
-0.0000000349181948
  9
$EXTMAX
 10
8041.2376216512602696
 20
67.8118820376574547
 30
0.0000000814935746
  9
$LIMMIN
 10
0.0
 20
0.0
  9
$LIMMAX
 10
11.6929133858000007
 20
8.2677165353999982
  9
$ORTHOMODE
 70
     0
  9
$REGENMODE
 70
     1
  9
$FILLMODE
 70
     1
  9
$QTEXTMODE
 70
     0
  9
$MIRRTEXT
 70
     0
  9
$DRAGMODE
 70
     2
  9
$LTSCALE
 40
0.6431102362
  9
$OSMODE
 70
  4095
  9
$ATTMODE
 70
     1
  9
$TEXTSIZE
 40
0.2
  9
$TRACEWID
 40
0.05
  9
$TEXTSTYLE
  7
STANDARD
  9
$CLAYER
  8
0
  9
$CELTYPE
  6
BYLAYER
  9
$CECOLOR
 62
   256
  9
$DIMSCALE
 40
1.0
  9
$DIMASZ
 40
0.1875
  9
$DIMEXO
 40
0.0625
  9
$DIMDLI
 40
0.4443307087
  9
$DIMRND
 40
0.0
  9
$DIMDLE
 40
0.0
  9
$DIMEXE
 40
0.125
  9
$DIMTP
 40
0.01
  9
$DIMTM
 40
0.01
  9
$DIMTXT
 40
2.0
  9
$DIMCEN
 40
0.1052362205
  9
$DIMTSZ
 40
0.0
  9
$DIMTOL
 70
     1
  9
$DIMLIM
 70
     0
  9
$DIMTIH
 70
     1
  9
$DIMTOH
 70
     1
  9
$DIMSE1
 70
     0
  9
$DIMSE2
 70
     0
  9
$DIMTAD
 70
     0
  9
$DIMZIN
 70
     0
  9
$DIMBLK
  1

  9
$DIMASO
 70
     1
  9
$DIMSHO
 70
     1
  9
$DIMPOST
  1
\X
  9
$DIMAPOST
  1

  9
$DIMALT
 70
     1
  9
$DIMALTD
 70
     2
  9
$DIMALTF
 40
25.3999999999999986
  9
$DIMLFAC
 40
1.0
  9
$DIMTOFL
 70
     0
  9
$DIMTVP
 40
0.0
  9
$DIMTIX
 70
     0
  9
$DIMSOXD
 70
     0
  9
$DIMSAH
 70
     0
  9
$DIMBLK1
  1

  9
$DIMBLK2
  1

  9
$DIMSTYLE
  2
STANDARD
  9
$DIMCLRD
 70
     0
  9
$DIMCLRE
 70
     0
  9
$DIMCLRT
 70
     0
  9
$DIMTFAC
 40
1.0
  9
$DIMGAP
 40
0.09
  9
$LUNITS
 70
     2
  9
$LUPREC
 70
     4
  9
$SKETCHINC
 40
0.1
  9
$FILLETRAD
 40
0.0
  9
$AUNITS
 70
     0
  9
$AUPREC
 70
     0
  9
$MENU
  1
.
  9
$ELEVATION
 40
0.0
  9
$PELEVATION
 40
0.0
  9
$THICKNESS
 40
0.0
  9
$LIMCHECK
 70
     0
  9
$BLIPMODE
 70
     0
  9
$CHAMFERA
 40
0.0
  9
$CHAMFERB
 40
0.0
  9
$SKPOLY
 70
     0
  9
$TDCREATE
 40
2458060.468368056230247
  9
$TDUPDATE
 40
2461015.5980092599056661
  9
$TDINDWG
 40
0.6956783565
  9
$TDUSRTIMER
 40
0.6956783565
  9
$USRTIMER
 70
     1
  9
$ANGBASE
 50
0.0
  9
$ANGDIR
 70
     0
  9
$PDMODE
 70
     0
  9
$PDSIZE
 40
0.3125
  9
$PLINEWID
 40
0.0
  9
$COORDS
 70
     1
  9
$SPLFRAME
 70
     0
  9
$SPLINETYPE
 70
     6
  9
$SPLINESEGS
 70
     8
  9
$ATTDIA
 70
     1
  9
$ATTREQ
 70
     1
  9
$HANDLING
 70
     1
  9
$HANDSEED
  5
1F9BE
  9
$SURFTAB1
 70
     6
  9
$SURFTAB2
 70
     6
  9
$SURFTYPE
 70
     6
  9
$SURFU
 70
     6
  9
$SURFV
 70
     6
  9
$UCSNAME
  2

  9
$UCSORG
 10
0.0
 20
0.0
 30
0.0
  9
$UCSXDIR
 10
1.0
 20
0.0
 30
0.0
  9
$UCSYDIR
 10
0.0
 20
1.0
 30
0.0
  9
$PUCSNAME
  2

  9
$PUCSORG
 10
0.0
 20
0.0
 30
0.0
  9
$PUCSXDIR
 10
1.0
 20
0.0
 30
0.0
  9
$PUCSYDIR
 10
0.0
 20
1.0
 30
0.0
  9
$USERI1
 70
     0
  9
$USERI2
 70
     0
  9
$USERI3
 70
     0
  9
$USERI4
 70
     0
  9
$USERI5
 70
     0
  9
$USERR1
 40
0.0
  9
$USERR2
 40
0.0
  9
$USERR3
 40
0.0
  9
$USERR4
 40
0.0
  9
$USERR5
 40
0.0
  9
$WORLDVIEW
 70
     1
  9
$SHADEDGE
 70
     3
  9
$SHADEDIF
 70
    70
  9
$TILEMODE
 70
     1
  9
$MAXACTVP
 70
    64
  9
$PLIMCHECK
 70
     0
  9
$PEXTMIN
 10
1.0000000000000000E+20
 20
1.0000000000000000E+20
 30
1.0000000000000000E+20
  9
$PEXTMAX
 10
-1.0000000000000000E+20
 20
-1.0000000000000000E+20
 30
-1.0000000000000000E+20
  9
$PLIMMIN
 10
0.0
 20
0.0
  9
$PLIMMAX
 10
12.0
 20
9.0
  9
$UNITMODE
 70
     0
  9
$VISRETAIN
 70
     1
  9
$PLINEGEN
 70
     0
  9
$PSLTSCALE
 70
     1
  0
ENDSEC
  0
SECTION
  2
TABLES
  0
TABLE
  2
VPORT
 70
     1
  0
VPORT
  2
*ACTIVE
 70
     0
 10
0.0
 20
0.0
 11
1.0
 21
1.0
 12
4961.578533534446251
 22
-143.7940723680480914
 13
0.0
 23
0.0
 14
1.0
 24
1.0
 15
0.0
 25
0.0
 16
0.0
 26
0.0
 36
63.7428098394932476
 17
3065.0238037109379547
 27
193.9024792926558121
 37
0.0
 40
35.6486358931719707
 41
1.687927107061503
 42
50.0
 43
0.0
 44
0.0
 50
0.0
 51
0.0
 71
     0
 72
   100
 73
     1
 74
     1
 75
     0
 76
     0
 77
     0
 78
     0
  0
ENDTAB
  0
TABLE
  2
LTYPE
 70
     1
  0
LTYPE
  2
CONTINUOUS
 70
     0
  3
Solid line
 72
    65
 73
     0
 40
0.0
  0
ENDTAB
  0
TABLE
  2
LAYER
 70
     2
  0
LAYER
  2
0
 70
     0
 62
   255
  6
CONTINUOUS
  0
LAYER
  2
DEFPOINTS
 70
     0
 62
     7
  6
CONTINUOUS
  0
ENDTAB
  0
TABLE
  2
STYLE
 70
     1
  0
STYLE
  2
STANDARD
 70
     0
 40
0.0
 41
0.8
 50
0.0
 71
     0
 42
0.2
  3
txt
  4

  0
ENDTAB
  0
TABLE
  2
VIEW
 70
     1
  0
ENDTAB
  0
TABLE
  2
UCS
 70
     0
  0
ENDTAB
  0
TABLE
  2
APPID
 70
    12
  0
APPID
  2
ACAD
 70
     0
  0
APPID
  2
ACADANNOTATIVE
 70
     0
  0
APPID
  2
ACAD_MLEADERVER
 70
     0
  0
APPID
  2
ACAD_EXEMPT_FROM_CAD_STANDARDS
 70
     0
  0
APPID
  2
ACAD_NAV_VCDISPLAY
 70
     0
  0
APPID
  2
ACAECLAYERSTANDARD
 70
     0
  0
APPID
  2
ACCMTRANSPARENCY
 70
     0
  0
APPID
  2
ACAD_DSTYLE_DIMJAG
 70
     0
  0
APPID
  2
ACAD_DSTYLE_DIMTALN
 70
     0
  0
APPID
  2
ACDBATTR
 70
     0
  0
APPID
  2
CONTENTBLOCKICON
 70
     0
  0
APPID
  2
ACDBDYNAMICBLOCKGUID
 70
     0
  0
ENDTAB
  0
TABLE
  2
DIMSTYLE
 70
     1
  0
DIMSTYLE
  2
STANDARD
 70
     0
  3

  4

  5

  6

  7

 40
1.0
 41
0.1875
 42
0.0625
 43
0.38
 44
0.125
 45
0.0
 46
0.0
 47
0.01
 48
0.01
140
0.15625
141
0.09
142
0.0
143
25.3999999999999986
144
1.0
145
0.0
146
1.0
147
0.09
 71
     1
 72
     0
 73
     1
 74
     1
 75
     0
 76
     0
 77
     0
 78
     4
170
     0
171
     2
172
     0
173
     0
174
     0
175
     0
176
     0
177
     0
178
     0
  0
ENDTAB
  0
ENDSEC
  0
SECTION
  2
BLOCKS
  0
BLOCK
  8
0
  2
$MODEL_SPACE
 70
     0
 10
0.0
 20
0.0
 30
0.0
  3
$MODEL_SPACE
  1

  0
ENDBLK
  5
19FA5
  8
0
  0
BLOCK
 67
     1
  8
0
  2
$PAPER_SPACE
 70
     0
 10
0.0
 20
0.0
 30
0.0
  3
$PAPER_SPACE
  1

  0
ENDBLK
  5
19FA1
 67
     1
  8
0
  0
BLOCK
  8
0
  2
_FILLED
 70
     0
 10
0.0
 20
0.0
 30
0.0
  3
_FILLED
  1

  0
SOLID
  5
1DC74
  8
0
  6
BYBLOCK
 62
     0
 10
0.0
 20
0.0
 30
0.0
 11
-1.0
 21
0.1666666667
 31
0.0
 12
-1.0
 22
-0.1666666667
 32
0.0
 13
-1.0
 23
-0.1666666667
 33
0.0
  0
ENDBLK
  5
1DC75
  8
0
  6
BYBLOCK
 62
     0
  0
ENDSEC
  0
SECTION
  2
ENTITIES
  0
ATTDEF
  5
C5C4
  8
DEFPOINTS
 10
8019.8392405571157724
 20
32.411185519521851
 30
0.0
 40
0.001
  1
K-29149
  3

  2
MODELNUMBER
 70
     0
1001
ACDBATTR
1070
     0
1070
     1
  0
ATTDEF
  5
C5C5
  8
DEFPOINTS
 10
8019.8392405571157724
 20
32.4095188528552427
 30
0.0
 40
0.001
  1
KOHLER
  3

  2
BRANDNAME
 70
     0
1001
ACDBATTR
1070
     0
1070
     1
  0
ATTDEF
  5
C5C6
  8
DEFPOINTS
 10
8019.8392405571157724
 20
32.4078521861885775
 30
0.0
 40
0.001
  1
TOILET
  3

  2
PRODUCT
 70
     0
1001
ACDBATTR
1070
     0
1070
     1
  0
LINE
  5
1F874
  8
0
 10
8039.7170723175431704
 20
67.8076868519214457
 30
0.0
 11
8039.7170723175431704
 21
65.1856949062214284
 31
0.0
  0
LINE
  5
1F875
  8
0
 10
8039.7170723175431704
 20
62.7371872464943721
 30
0.0
 11
8039.7170723175431704
 21
60.1227580785214073
 31
0.0
  0
LINE
  5
1F876
  8
0
 10
8039.7190408214428317
 20
67.8031471246113568
 30
0.0
 11
8039.7190408214428317
 21
65.1856949062214284
 31
0.0
  0
LINE
  5
1F877
  8
0
 10
8039.7190408214428317
 20
62.7365804219994487
 30
0.0
 11
8039.7190408214428317
 21
60.1272978058315033
 31
0.0
  0
ARC
  5
1F878
  8
0
 10
8039.7230408214418276
 20
60.1272978058315033
 30
0.0
 40
0.004
 50
180.0
 51
272.0000000457321789
  0
LINE
  5
1F879
  8
0
 10
8039.7170723175431704
 20
67.7880646688214341
 30
0.0
 11
8039.7190408214428317
 21
67.7880646688214341
 31
0.0
  0
LINE
  5
1F87A
  8
0
 10
8039.7130723175423554
 20
67.811686851921408
 30
0.0
 11
8039.6579269418380136
 21
67.811686851921408
 31
0.0
  0
ARC
  5
1F87B
  8
0
 10
8039.7130723175423554
 20
67.8076868519214457
 30
0.0
 40
0.004
 50
0.0000000000521102
 51
90.0
  0
LINE
  5
1F87C
  8
0
 10
8039.6383329141472132
 20
67.8034160349978237
 30
0.0
 11
8039.6383329141472132
 21
65.1856949062214284
 31
0.0
  0
LINE
  5
1F87D
  8
0
 10
8039.6383329141472132
 20
62.7447500243214193
 30
0.0
 11
8039.6383329141472132
 21
60.127028895545017
 31
0.0
  0
ARC
  5
1F87E
  8
0
 10
8039.6580171994419288
 20
67.7841279446213747
 30
0.0
 40
0.0275590551000335
 50
90.1876475465365957
 51
135.5824514012830946
  0
LINE
  5
1F87F
  8
0
 10
8039.7984733996399882
 20
67.8045153990918124
 30
0.0
 11
8039.7231804194298093
 21
67.8071446879194326
 31
0.0
  0
LINE
  5
1F880
  8
0
 10
8039.8023331924314334
 20
67.8005876454085836
 30
0.0
 11
8039.8047883147337416
 21
67.6599337810234687
 31
0.0
  0
ARC
  5
1F881
  8
0
 10
8039.7983338016520065
 20
67.8005178357837934
 30
0.0
 40
0.004
 50
0.9999999865683088
 51
87.9999999838323248
  0
ARC
  5
1F882
  8
0
 10
8039.7230408214418276
 20
67.8031471246113568
 30
0.0
 40
0.004
 50
87.9999999838323248
 51
179.999999999947903
  0
LINE
  5
1F883
  8
0
 10
8039.6363432031612319
 20
66.836935711846067
 30
0.0
 11
8039.6383329141472132
 21
66.8369704424477362
 31
0.0
  0
LINE
  5
1F884
  8
0
 10
8039.6245526324437378
 20
66.8249375395112537
 30
0.0
 11
8039.6245526324437378
 21
65.1856949062214284
 31
0.0
  0
LINE
  5
1F885
  8
0
 10
8039.6245526324437378
 20
62.7447500243214193
 30
0.0
 11
8039.6245526324437378
 21
62.3259798319369835
 31
0.0
  0
LINE
  5
1F886
  8
0
 10
8039.6245526324437378
 20
61.9430477757972966
 30
0.0
 11
8039.6245526324437378
 21
61.105507391003961
 31
0.0
  0
ARC
  5
1F887
  8
0
 10
8039.6365526324416351
 20
61.9430477757972966
 30
0.0
 40
0.012
 50
90.9999976325089506
 51
180.0
  0
ARC
  5
1F888
  8
0
 10
8039.6365526324416351
 20
61.105507391003961
 30
0.0
 40
0.012
 50
180.0
 51
268.999997366442301
  0
ARC
  5
1F889
  8
0
 10
8039.6365526324416351
 20
66.8249375395112537
 30
0.0
 40
0.012
 50
91.0000019349139961
 51
180.0000000000163141
  0
LINE
  5
1F88A
  8
0
 10
8039.5499384592430943
 20
65.1856949062214284
 30
0.0
 11
8040.6971983017419916
 21
65.1856949062214284
 31
0.0
  0
LINE
  5
1F88B
  8
0
 10
8039.537938459243378
 20
65.1736949062214279
 30
0.0
 11
8039.537938459243378
 21
62.7567500243214198
 31
0.0
  0
ARC
  5
1F88C
  8
0
 10
8039.5499384592430943
 20
65.1736949062214279
 30
0.0
 40
0.012
 50
90.0
 51
180.0
  0
ARC
  5
1F88D
  8
0
 10
8039.9269384647859624
 20
67.6719094914705437
 30
0.0
 40
0.1227358008015053
 50
185.5994348293293115
 51
199.9240966637948986
  0
ARC
  5
1F88E
  8
0
 10
8040.0072464565746486
 20
67.719806005681491
 30
0.0
 40
0.215284661140373
 50
204.6301331638572947
 51
230.8065169493040116
  0
ARC
  5
1F88F
  8
0
 10
8040.0459248479801317
 20
67.7649390890662033
 30
0.0
 40
0.2747098598909579
 50
230.5030624115346995
 51
244.4888346999638884
  0
ARC
  5
1F890
  8
0
 10
8040.0556193532866018
 20
67.7866220974258766
 30
0.0
 40
0.2984546836434033
 50
244.6019626393093915
 51
261.9359627874085277
  0
ARC
  5
1F891
  8
0
 10
8040.0544079186211093
 20
67.7595312601100517
 30
0.0
 40
0.2714742422530989
 50
261.3870359097198275
 51
282.5038305141569026
  0
ARC
  5
1F892
  8
0
 10
8040.0827330540987532
 20
67.6347192935174206
 30
0.0
 40
0.1434914807729338
 50
282.2519103922090835
 51
304.8256001834017752
  0
ARC
  5
1F893
  8
0
 10
8040.1193005674786036
 20
67.580093886794586
 30
0.0
 40
0.0777757278801668
 50
305.6930309657487896
 51
333.9967654047965198
  0
ARC
  5
1F894
  8
0
 10
8040.1257528392179665
 20
67.5759486954718085
 30
0.0
 40
0.07016501231961
 50
334.7290618913866069
 51
345.4966822719767947
  0
ARC
  5
1F895
  8
0
 10
8040.1221719417353597
 20
67.577177879490975
 30
0.0
 40
0.0739402112896328
 50
345.2694613118038092
 51
359.6533635007448879
  0
ARC
  5
1F896
  8
0
 10
8353.5039261279343918
 20
62.2200617574355732
 30
0.0
 40
313.3536038506421164
 50
178.9931661566317871
 51
179.0205012476538116
  0
ARC
  5
1F897
  8
0
 10
8039.9987352795296829
 20
67.368287809639682
 30
0.0
 40
0.4158940266907058
 50
41.9267886179028011
 51
60.3176632607053307
  0
ARC
  5
1F898
  8
0
 10
8040.2027014374043574
 20
67.7261348379421264
 30
0.0
 40
0.004
 50
60.3176632607053307
 51
178.9931661573025963
  0
ARC
  5
1F899
  8
0
 10
8039.9724567376169944
 20
67.3486155638437793
 30
0.0
 40
0.4485993729820371
 50
20.1202719792420801
 51
41.5534977871104587
  0
ARC
  5
1F89A
  8
0
 10
8039.7301722339207117
 20
67.264600679412851
 30
0.0
 40
0.7050124103101297
 50
5.2941372125237773
 51
19.7581145228704713
  0
ARC
  5
1F89B
  8
0
 10
8035.5725527219919968
 20
66.8830233734045549
 30
0.0
 40
4.880105140073411
 50
0.9094413299562401
 51
5.2510654135219781
  0
LINE
  5
1F89C
  8
0
 10
8039.8076234986438067
 20
67.79890047294775
 30
0.0
 11
8039.8076234986438067
 21
67.6599611029001125
 31
0.0
  0
ARC
  5
1F89D
  8
0
 10
8039.8065674362369464
 20
65.5903977757413799
 30
0.0
 40
2.2205412887997329
 50
85.8993661418760155
 51
89.661287007012703
  0
ARC
  5
1F89E
  8
0
 10
8039.9170316691916014
 20
67.1312142673871648
 30
0.0
 40
0.6757701705786699
 50
74.2643658314140538
 51
85.8993661418760155
  0
ARC
  5
1F89F
  8
0
 10
8039.9677063807430386
 20
67.3110658395396371
 30
0.0
 40
0.4889159108024368
 50
63.3730636194579873
 51
74.2643658314140538
  0
LINE
  5
1F8A0
  8
0
 10
8040.1934502702415557
 20
67.7374017818177521
 30
0.0
 11
8040.1934502702415557
 21
67.5861876657072997
 31
0.0
  0
ARC
  5
1F8A1
  8
0
 10
8040.1814502702436585
 20
67.7374017818177521
 30
0.0
 40
0.012
 50
359.9999999998826752
 51
63.3730636198557917
  0
ARC
  5
1F8A2
  8
0
 10
8039.8196234986417039
 20
67.79890047294775
 30
0.0
 40
0.012
 50
89.6612870069605776
 51
180.0
  0
ARC
  5
1F8A3
  8
0
 10
8039.8935215964447707
 20
67.6670169884409773
 30
0.0
 40
0.0861874046871063
 50
184.6958765601092978
 51
204.0922968955698025
  0
ARC
  5
1F8A4
  8
0
 10
8039.9400537996589264
 20
67.687824341480777
 30
0.0
 40
0.1371598666306866
 50
204.0922968955698025
 51
218.3137534652512954
  0
ARC
  5
1F8A5
  8
0
 10
8039.9998682939867649
 20
67.7350863004104866
 30
0.0
 40
0.2133928417372961
 50
218.3137534652528871
 51
229.3513705691858036
  0
ARC
  5
1F8A6
  8
0
 10
8040.0234821762433057
 20
67.7625898121784047
 30
0.0
 40
0.2496427878720548
 50
229.3513705691858036
 51
241.3679720595742992
  0
ARC
  5
1F8A7
  8
0
 10
8040.0502618704404085
 20
67.8116419846918888
 30
0.0
 40
0.3055289905481527
 50
241.3679720595742992
 51
256.9672006399533188
  0
ARC
  5
1F8A8
  8
0
 10
8040.0532085261329485
 20
67.8243721005199376
 30
0.0
 40
0.318595689778145
 50
256.9672006399533188
 51
273.0557312822509175
  0
ARC
  5
1F8A9
  8
0
 10
8040.0611895051433748
 20
67.7164985545131657
 30
0.0
 40
0.2104617790656996
 50
272.4515728021224845
 51
292.7952768935015229
  0
ARC
  5
1F8AA
  8
0
 10
8040.1011389226077881
 20
67.6180364632416939
 30
0.0
 40
0.104220420398955
 50
293.5203914787275039
 51
313.2900111427326806
  0
ARC
  5
1F8AB
  8
0
 10
8040.1246155980006733
 20
67.5922931652538352
 30
0.0
 40
0.069386603734613
 50
313.7552984046481015
 51
335.9723981169930767
  0
ARC
  5
1F8AC
  8
0
 10
8040.1243929215179378
 20
67.5914673301413558
 30
0.0
 40
0.0692588786347689
 50
336.6714126894540868
 51
355.6280516652955725
  0
LINE
  5
1F8AD
  8
0
 10
8040.7091983017417078
 20
65.1736949062214279
 30
0.0
 11
8040.7091983017417078
 21
62.0754586857214434
 31
0.0
  0
ARC
  5
1F8AE
  8
0
 10
8040.6971983017419916
 20
65.1736949062214279
 30
0.0
 40
0.012
 50
0.0
 51
90.0
  0
ARC
  5
1F8AF
  8
0
 10
8029.6774531885348551
 20
67.8803598432278221
 30
0.0
 40
10.8137859064065402
 50
353.9883390340064011
 51
355.1202141976759776
  0
ARC
  5
1F8B0
  8
0
 10
8038.5887878094836196
 20
66.9259612809638469
 30
0.0
 40
1.851571191978407
 50
351.7228378735106276
 51
354.4790655190341226
  0
ARC
  5
1F8B1
  8
0
 10
8045.0061663556989515
 20
65.9923792261131865
 30
0.0
 40
4.6333592516404503
 50
171.722837873510997
 51
174.3306066789488966
  0
ARC
  5
1F8B2
  8
0
 10
8042.1136029940371373
 20
66.2795349507222085
 30
0.0
 40
1.7265773177134109
 50
174.3306066789488966
 51
183.1383942330010939
  0
ARC
  5
1F8B3
  8
0
 10
8043.0922579699008566
 20
66.333194759480179
 30
0.0
 40
2.7067022775311038
 50
183.1383942330010939
 51
189.5805432692640125
  0
ARC
  5
1F8B4
  8
0
 10
8034.730726116954429
 20
65.1866989289602969
 30
0.0
 40
5.7349722490997053
 50
4.9670259255442328
 51
6.9707249413884274
  0
ARC
  5
1F8B5
  8
0
 10
8047.2436298905868171
 20
66.3717607621225483
 30
0.0
 40
6.8342386765371392
 50
185.7820617630613071
 51
186.4965508780755101
  0
ARC
  5
1F8B6
  8
0
 10
7586.6503219143260139
 20
65.4680700465931267
 30
0.0
 40
453.8029729586805274
 50
359.9932576759007929
 51
0.0164691716971091
  0
LINE
  5
1F8B7
  8
0
 10
8040.4729778293440177
 20
65.6200900568781833
 30
0.0
 11
8040.4729778293440177
 21
66.9387013302714848
 31
0.0
  0
LINE
  5
1F8B8
  8
0
 10
8040.452209658566062
 20
65.6079351799628938
 30
0.0
 11
8040.4611872582054275
 21
65.6080918845360515
 31
0.0
  0
ARC
  5
1F8B9
  8
0
 10
8040.4609778293415729
 20
65.6200900568781833
 30
0.0
 40
0.012
 50
270.999999927062504
 51
359.9999999999674856
  0
LINE
  5
1F8BA
  8
0
 10
8040.4512185832054456
 20
66.9508735064907654
 30
0.0
 11
8040.4611872582290744
 21
66.9506995026131762
 31
0.0
  0
ARC
  5
1F8BB
  8
0
 10
8040.4609778293415729
 20
66.9387013302714848
 30
0.0
 40
0.012
 50
359.9999999999836859
 51
88.9999999552026821
  0
ARC
  5
1F8BC
  8
0
 10
8047.794946977728614
 20
66.1320850372591593
 30
0.0
 40
7.3662651360143894
 50
173.713426136705408
 51
175.1648922097737113
  0
ARC
  5
1F8BD
  8
0
 10
8037.7219343991419009
 20
66.9850742834379815
 30
0.0
 40
2.7427988816434312
 50
352.9337545566410768
 51
355.1457692834246131
  0
ARC
  5
1F8BE
  8
0
 10
8048.652434463321697
 20
65.6301474203261677
 30
0.0
 40
8.2713583016106504
 50
172.9337545566411052
 51
173.9968659729921967
  0
ARC
  5
1F8BF
  8
0
 10
8042.7196119061663921
 20
66.2540403049855939
 30
0.0
 40
2.3058217937828638
 50
173.9968659729921967
 51
177.9121312995823985
  0
ARC
  5
1F8C0
  8
0
 10
8042.1323999918440677
 20
66.2754478911610221
 30
0.0
 40
1.7182197881136461
 50
177.9121312995823985
 51
185.1314276090558053
  0
ARC
  5
1F8C1
  8
0
 10
8045.6897174393343448
 20
66.5948968966349355
 30
0.0
 40
5.2898517805369796
 50
185.1314276090558053
 51
186.4685662024114947
  0
ARC
  5
1F8C2
  8
0
 10
8156.7942530797554355
 20
79.1919177995623471
 30
0.0
 40
117.1062315086552985
 50
186.4685662024114947
 51
186.5451351245382057
  0
ARC
  5
1F8C3
  8
0
 10
8038.0744070970649773
 20
65.5707550290583612
 30
0.0
 40
2.3924626489561929
 50
3.9329711409392289
 51
6.545135124538179
  0
ARC
  5
1F8C4
  8
0
 10
8046.3790447952387694
 20
66.2823752191529678
 30
0.0
 40
5.9430841018626444
 50
185.2860233903128062
 51
186.3982142381406106
  0
ARC
  5
1F8C5
  8
0
 10
8037.5505915419589655
 20
-99.6851270381152261
 30
0.0
 40
165.1290507459918047
 50
88.9960442777507836
 51
89.0018465262295706
  0
ARC
  5
1F8C6
  8
0
 10
8040.4436469134088838
 20
65.4047211752805282
 30
0.0
 40
0.0138553444045778
 50
27.3276638572778516
 51
88.9960442777507836
  0
ARC
  5
1F8C7
  8
0
 10
8040.2969371086437604
 20
65.3583206866283462
 30
0.0
 40
0.1675432222926744
 50
0.8642834702300586
 51
18.3554325155742717
  0
ARC
  5
1F8C8
  8
0
 10
8037.5567206789946795
 20
65.2089681671614443
 30
0.0
 40
2.9117044490311139
 50
359.5420298145591005
 51
2.9900079277774858
  0
ARC
  5
1F8C9
  8
0
 10
8040.453974464944622
 20
65.4025124794878678
 30
0.0
 40
0.0045938117106786
 50
32.3692249041818698
 51
66.3057095749956034
  0
ARC
  5
1F8CA
  8
0
 10
8040.4555192778161654
 20
65.4042706488303764
 30
0.0
 40
0.0024668582493103
 50
82.9858199614225072
 51
139.3553334482577952
  0
ARC
  5
1F8CB
  8
0
 10
8040.6736293633803143
 20
65.2912281923636755
 30
0.0
 40
0.2480654587422726
 50
152.4725506691490011
 51
166.3957701977352031
  0
ARC
  5
1F8CC
  8
0
 10
8041.043067656481071
 20
65.176316260456062
 30
0.0
 40
0.6346519163163271
 50
164.1571003721284967
 51
179.1532738406087901
  0
ARC
  5
1F8CD
  8
0
 10
8040.3947970825602169
 20
65.4111549493346587
 30
0.0
 40
0.0471052109393433
 50
9.1180000239021517
 51
19.7764986510084206
  0
ARC
  5
1F8CE
  8
0
 10
8040.4286677935133412
 20
65.4233334642370181
 30
0.0
 40
0.0111115825358881
 50
19.77649865101111
 51
38.2670682645545597
  0
ARC
  5
1F8CF
  8
0
 10
8040.4357350490972749
 20
65.4289082538257816
 30
0.0
 40
0.0021102281687982
 50
38.2670682645706179
 51
128.2790480482815951
  0
ARC
  5
1F8D0
  8
0
 10
8040.4725594670935607
 20
65.3988062886030832
 30
0.0
 40
0.0496248722936391
 50
140.2103107184732096
 51
164.0245523125769864
  0
ARC
  5
1F8D1
  8
0
 10
8041.0777841507187986
 20
65.1574311470956644
 30
0.0
 40
0.7009732217882481
 50
158.6645718379305094
 51
168.8948931213761
  0
ARC
  5
1F8D2
  8
0
 10
8040.8523883934576588
 20
65.193607215158508
 30
0.0
 40
0.4728962722120766
 50
167.9359138228730899
 51
180.958694516109091
  0
LINE
  5
1F8D3
  8
0
 10
8040.728883341143046
 20
62.1345138038214273
 30
0.0
 11
8040.728883341143046
 21
65.0872697093214327
 31
0.0
  0
LINE
  5
1F8D4
  8
0
 10
8040.7446313726441076
 20
62.1738838825213875
 30
0.0
 11
8040.7446313726441076
 21
65.0478996306214157
 31
0.0
  0
LINE
  5
1F8D5
  8
0
 10
8040.7091983017417078
 20
62.1345138038214273
 30
0.0
 11
8040.728883341143046
 21
62.1345138038214273
 31
0.0
  0
LINE
  5
1F8D6
  8
0
 10
8040.7446313726441076
 20
62.1738838825213875
 30
0.0
 11
8040.728883341143046
 21
62.1738838825213875
 31
0.0
  0
LINE
  5
1F8D7
  8
0
 10
8040.7091983017417078
 20
65.0872697093214327
 30
0.0
 11
8040.728883341143046
 21
65.0872697093214327
 31
0.0
  0
LINE
  5
1F8D8
  8
0
 10
8040.728883341143046
 20
65.0478996306214157
 30
0.0
 11
8040.7446313726441076
 21
65.0478996306214157
 31
0.0
  0
LINE
  5
1F8D9
  8
0
 10
8040.4848803593431512
 20
62.0754586857214434
 30
0.0
 11
8040.7091983017417078
 21
62.0754586857214434
 31
0.0
  0
LINE
  5
1F8DA
  8
0
 10
8040.4848803593431512
 20
62.0754586857214434
 30
0.0
 11
8040.4848803593431512
 21
65.1736949062214279
 31
0.0
  0
ARC
  5
1F8DB
  8
0
 10
8040.472880359343435
 20
65.1736949062214279
 30
0.0
 40
0.012
 50
0.0
 51
90.0
  0
LINE
  5
1F8DC
  8
0
 10
8039.8430565694434335
 20
62.5675500243214486
 30
0.0
 11
8039.8430565694434335
 21
60.041630547319059
 31
0.0
  0
LINE
  5
1F8DD
  8
0
 10
8039.6658565694424396
 20
62.7447500243214193
 30
0.0
 11
8039.5499384592430943
 21
62.7447500243214193
 31
0.0
  0
ARC
  5
1F8DE
  8
0
 10
8039.6658565694424396
 20
62.5675500243213918
 30
0.0
 40
0.1772
 50
0.0
 51
90.0
  0
ARC
  5
1F8DF
  8
0
 10
8039.5499384592430943
 20
62.7567500243214198
 30
0.0
 40
0.012
 50
180.0000000000098055
 51
270.0
  0
LINE
  5
1F8E0
  8
0
 10
8040.5517179868420499
 20
62.0557732271583831
 30
0.0
 11
8040.5517179868420499
 21
61.0789720459659335
 31
0.0
  0
LINE
  5
1F8E1
  8
0
 10
8040.5324702345087644
 20
62.0754586857214434
 30
0.0
 11
8040.5326899287438209
 21
62.0559608099214088
 31
0.0
  0
LINE
  5
1F8E2
  8
0
 10
8040.5326899287438209
 20
62.0559608099214088
 30
0.0
 11
8040.5517179868420499
 21
62.0557732271583831
 31
0.0
  0
LINE
  5
1F8E3
  8
0
 10
8040.5517179868420499
 20
62.0557732271583831
 30
0.0
 11
8040.5324702345087644
 21
62.0754586857214434
 31
0.0
  0
ARC
  5
1F8E4
  8
0
 10
8039.8430338348043733
 20
61.5421168228369808
 30
0.0
 40
1.5125344411794439
 50
270.4590759829205808
 51
276.4381167104360202
  0
ARC
  5
1F8E5
  8
0
 10
8039.9389829888541499
 20
60.6918177524006381
 30
0.0
 40
0.6568389641858455
 50
276.4381167104360202
 51
297.8422046349442098
  0
ARC
  5
1F8E6
  8
0
 10
8039.9991026227899056
 20
60.5615807846963179
 30
0.0
 40
0.5136576362552214
 50
298.6972944762867996
 51
325.019608866395572
  0
ARC
  5
1F8E7
  8
0
 10
8039.9177718207911312
 20
60.6107247319905369
 30
0.0
 40
0.6085031658800685
 50
325.6185264340869026
 51
348.8613000492479728
  0
ARC
  5
1F8E8
  8
0
 10
8039.3328750872797173
 20
60.7296836964530229
 30
0.0
 40
1.20536866118396
 50
348.6842388089174278
 51
356.7482965739383758
  0
ARC
  5
1F8E9
  8
0
 10
8034.701997795891657
 20
61.0829688988721173
 30
0.0
 40
5.8495224238431112
 50
355.8663086851927915
 51
357.8472344685848725
  0
ARC
  5
1F8EA
  8
0
 10
8034.467729643722123
 20
61.0930662388658305
 30
0.0
 40
6.0840046684312012
 50
357.8350844286949268
 51
359.8672685944359273
  0
ARC
  5
1F8EB
  8
0
 10
8039.8550565694431498
 20
60.041630547319059
 30
0.0
 40
0.012
 50
179.9999999999674003
 51
270.4590759830247748
  0
LINE
  5
1F8EC
  8
0
 10
8039.8430565694434335
 20
60.1274864100214401
 30
0.0
 11
8039.7231804194343567
 21
60.1233002425235412
 31
0.0
  0
LINE
  5
1F8ED
  8
0
 10
8039.7130723175423554
 20
60.1187580785213882
 30
0.0
 11
8039.6579269723788457
 21
60.1187580785213882
 31
0.0
  0
ARC
  5
1F8EE
  8
0
 10
8039.7130723175423554
 20
60.1227580785214073
 30
0.0
 40
0.004
 50
270.0
 51
359.9999999999250804
  0
LINE
  5
1F8EF
  8
0
 10
8039.7170723175431704
 20
60.1423802616214331
 30
0.0
 11
8039.7190408214428317
 21
60.1423802616214331
 31
0.0
  0
ARC
  5
1F8F0
  8
0
 10
8039.6580171994419288
 20
60.1463169859214091
 30
0.0
 40
0.0275590550999828
 50
224.4175485992797974
 51
269.8124159506654109
  0
LINE
  5
1F8F1
  8
0
 10
8039.6383329141472132
 20
61.0934744880432135
 30
0.0
 11
8039.6363432030138938
 21
61.0935092186717128
 31
0.0
  0
LINE
  5
1F8F2
  8
0
 10
8039.6383329141472132
 20
61.9550806785843307
 30
0.0
 11
8039.6363432040616317
 21
61.9550459481478484
 31
0.0
  0
LINE
  5
1F8F3
  8
0
 10
8039.6383329141472132
 20
62.3139469290584813
 30
0.0
 11
8039.6363432035086589
 21
62.3139816595960809
 31
0.0
  0
ARC
  5
1F8F4
  8
0
 10
8039.6365526324416351
 20
62.3259798319369835
 30
0.0
 40
0.012
 50
180.0
 51
268.9999997335963258
  0
LINE
  5
1F8F5
  8
0
 10
8025.2264867796757244
 20
32.4111855195214318
 30
0.0
 11
8014.4519943345567299
 21
32.4111855195222702
 31
0.0
  0
LINE
  5
1F8F6
  8
0
 10
8020.5359768438720494
 20
52.4928451546214205
 30
0.0
 11
8019.064518393891376
 21
52.4928451546214205
 31
0.0
  0
LINE
  5
1F8F7
  8
0
 10
8021.902122544976919
 20
51.0225388352090974
 30
0.0
 11
8017.6983726914386352
 21
51.0225388352090974
 31
0.0
  0
LINE
  5
1F8F8
  8
0
 10
8012.6840159316407153
 20
52.3729618495885205
 30
0.0
 11
8012.5453148974256692
 21
49.4318135165986305
 31
0.0
  0
ARC
  5
1F8F9
  8
0
 10
8012.7417049282430526
 20
51.2883297973993919
 30
0.0
 40
0.1101049417102505
 50
186.403351542484387
 51
212.8884811447620962
  0
ARC
  5
1F8FA
  8
0
 10
8012.7566535934447529
 20
51.3133995795290474
 30
0.0
 40
0.1368832936000519
 50
218.3106634926371896
 51
247.5825220849170023
  0
ARC
  5
1F8FB
  8
0
 10
8013.1692757630398773
 20
52.6044029866705998
 30
0.0
 40
1.491806558885324
 50
251.8452889782244029
 51
266.8133532655953104
  0
ARC
  5
1F8FC
  8
0
 10
8014.2252748674418399
 20
64.7258909237995965
 30
0.0
 40
13.6585556655113205
 50
265.2168030590476064
 51
268.290241771694923
  0
ARC
  5
1F8FD
  8
0
 10
8015.921656753033858
 20
115.9592860517637973
 30
0.0
 40
64.9199702000111358
 50
268.1428519631804761
 51
269.3197768321210219
  0
ARC
  5
1F8FE
  8
0
 10
8019.2135906625153439
 20
383.7701061266009788
 30
0.0
 40
332.7510171642443879
 50
269.3004417075447918
 51
269.739096530615825
  0
ARC
  5
1F8FF
  8
0
 10
8042.5473480746677524
 20
-22344.7120284496086242
 30
0.0
 40
22397.2171841389899782
 50
90.0600729665417816
 51
90.0760942291723268
  0
ARC
  5
1F900
  8
0
 10
8012.8018849368818337
 20
52.3674032884171368
 30
0.0
 40
0.118
 50
90.0760942294328686
 51
177.3000000058769956
  0
LINE
  5
1F901
  8
0
 10
8022.6688419953607081
 20
49.5313992380215424
 30
0.0
 11
8016.9316532410994114
 21
49.5313992380214927
 31
0.0
  0
ARC
  5
1F902
  8
0
 10
8012.6387714664979285
 20
49.7241650678607812
 30
0.0
 40
0.0797869536674341
 50
181.4158872936106945
 51
212.1454985804394084
  0
ARC
  5
1F903
  8
0
 10
8012.651905354578048
 20
49.7390972193273626
 30
0.0
 40
0.0990139915550001
 50
215.4195556297059113
 51
245.4823663882164055
  0
ARC
  5
1F904
  8
0
 10
8012.7724447314867575
 20
50.0060701265719771
 30
0.0
 40
0.3919371214669404
 50
245.6454879777149927
 51
259.5272485305549139
  0
ARC
  5
1F905
  8
0
 10
8013.0067594471311168
 20
51.1863228871259608
 30
0.0
 40
1.5951985268936999
 50
258.9568913112786959
 51
264.2442545248576948
  0
ARC
  5
1F906
  8
0
 10
8013.5546624396320112
 20
57.0284014151408414
 30
0.0
 40
7.4628832738943043
 50
264.5571013063678265
 51
268.1160726543902229
  0
ARC
  5
1F907
  8
0
 10
8014.8023692381975707
 20
93.524386340748805
 30
0.0
 40
43.9801847810893065
 50
268.0545381802385236
 51
269.5070742558763754
  0
ARC
  5
1F908
  8
0
 10
8017.5349092564310922
 20
372.2646751792901796
 30
0.0
 40
322.733839746629485
 50
269.4477044342812064
 51
269.8929023253322725
  0
LINE
  5
1F909
  8
0
 10
8027.0355022084568191
 20
49.4111855195213394
 30
0.0
 11
8012.5649930279632827
 21
49.4111855195213394
 31
0.0
  0
ARC
  5
1F90A
  8
0
 10
8012.5649930279632827
 20
49.4308855195213397
 30
0.0
 40
0.0197
 50
177.300000004906309
 51
270.0
  0
LINE
  5
1F90B
  8
0
 10
8014.187368590006372
 20
49.4505556951213379
 30
0.0
 11
8013.2902353913459592
 21
49.4505556951213379
 31
0.0
  0
ARC
  5
1F90C
  8
0
 10
8014.1780252173348345
 20
49.5151898252314595
 30
0.0
 40
0.0653059674758936
 50
278.2255755593192816
 51
328.5534773904443
  0
ARC
  5
1F90D
  8
0
 10
8012.8734855504480947
 20
49.4735176511061496
 30
0.0
 40
0.3538646882153334
 50
5.760009020946586
 51
16.3858001574990801
  0
ARC
  5
1F90E
  8
0
 10
8013.2902353913459592
 20
49.5155556951213498
 30
0.0
 40
0.065
 50
185.7600090209546124
 51
270.0
  0
LINE
  5
1F90F
  8
0
 10
8015.1914602808401469
 20
49.5096112731409832
 30
0.0
 11
8014.1861839968196364
 21
49.5096112731409832
 31
0.0
  0
ARC
  5
1F910
  8
0
 10
8014.0278429416193831
 20
49.3702283201047081
 30
0.0
 40
0.1946084282256329
 50
51.5449631448981691
 51
67.3011561151025148
  0
ARC
  5
1F911
  8
0
 10
8015.1755763400979049
 20
49.3108543841843385
 30
0.0
 40
0.2306549195821401
 50
73.3869463716940231
 51
81.9284367844967534
  0
ARC
  5
1F912
  8
0
 10
8015.2228274004992272
 20
49.469223118573197
 30
0.0
 40
0.0653875037340971
 50
62.1157809236675007
 51
73.3869463716939521
  0
ARC
  5
1F913
  8
0
 10
8015.2470160748480339
 20
49.5149380175317333
 30
0.0
 40
0.0136676433953428
 50
37.3131073491390026
 51
62.1157809236673089
  0
ARC
  5
1F914
  8
0
 10
8015.2531058193753779
 20
49.5222929875053524
 30
0.0
 40
0.0048702180162248
 50
293.4248128822320041
 51
11.0080174536345101
  0
ARC
  5
1F915
  8
0
 10
8015.1910704431284103
 20
49.762850681779689
 30
0.0
 40
0.2532397086973837
 50
269.9117987276849249
 51
284.6321587725792028
  0
LINE
  5
1F916
  8
0
 10
8015.1164443706602469
 20
49.503378032465541
 30
0.0
 11
8015.1164443706602469
 21
49.5096112731409832
 31
0.0
  0
ARC
  5
1F917
  8
0
 10
8014.6636874762607476
 20
50.62996381982137
 30
0.0
 40
1.2266522816000329
 50
276.4954115387213847
 51
291.0266410553625178
  0
ARC
  5
1F918
  8
0
 10
8014.6707510491860376
 20
50.6580942237374217
 30
0.0
 40
1.2554873468958061
 50
249.1364142665549082
 51
263.2982480170417716
  0
LINE
  5
1F919
  8
0
 10
8014.2109325596593408
 20
49.5033362049622667
 30
0.0
 11
8014.2109325596593408
 21
49.5096112731409832
 31
0.0
  0
ARC
  5
1F91A
  8
0
 10
8014.1861839968196364
 20
49.5696112731409926
 30
0.0
 40
0.06
 50
231.5449631449029084
 51
270.0
  0
ARC
  5
1F91B
  8
0
 10
8014.2306325596609895
 20
49.5033362049622667
 30
0.0
 40
0.0197
 50
180.0000000000065086
 51
249.1364142665545955
  0
ARC
  5
1F91C
  8
0
 10
8015.0967443706585982
 20
49.503378032465541
 30
0.0
 40
0.0197
 50
291.0266410553633136
 51
359.9999999999923261
  0
LINE
  5
1F91D
  8
0
 10
8014.2236165190233805
 20
49.4849279140641372
 30
0.0
 11
8015.103812770091281
 21
49.4849897826985483
 31
0.0
  0
ARC
  5
1F91E
  8
0
 10
8364.3277604871891526
 20
81.5182137378496066
 30
0.0
 40
353.2456188219501882
 50
185.257274900155295
 51
187.174903503267501
  0
ARC
  5
1F91F
  8
0
 10
8079.9950647171217497
 20
41.6282226190601179
 30
0.0
 40
66.1879735908871538
 50
186.1991025447422885
 51
188.0047655693581135
  0
ARC
  5
1F920
  8
0
 10
8012.8031189298317258
 20
49.1749855195213499
 30
0.0
 40
0.2362
 50
90.0
 51
185.8272379318308936
  0
LINE
  5
1F921
  8
0
 10
8014.1246651495712285
 20
36.7602787042765016
 30
0.0
 11
8014.1155304123376482
 21
36.7548240179524726
 31
0.0
  0
ARC
  5
1F922
  8
0
 10
8014.1308832523536694
 20
36.7319786608146117
 30
0.0
 40
0.0275248985333788
 50
123.9024138561344017
 51
171.2527433827459902
  0
ARC
  5
1F923
  8
0
 10
8014.5961834791669389
 20
36.680071597781037
 30
0.0
 40
0.4956889861335631
 50
173.5024017558810954
 51
184.2191798803193876
  0
ARC
  5
1F924
  8
0
 10
8020.2636481359231766
 20
36.8645388430495728
 30
0.0
 40
6.1657699168684168
 50
182.0535012869742957
 51
187.1420219851898139
  0
ARC
  5
1F925
  8
0
 10
8020.2030303386081869
 20
36.8774118608607679
 30
0.0
 40
6.1072567145132872
 50
187.3325596281655123
 51
193.6891322449785093
  0
ARC
  5
1F926
  8
0
 10
8015.305213265743987
 20
35.6569615389498225
 30
0.0
 40
1.0600787978468831
 50
192.2461563073051991
 51
199.4015074233967084
  0
ARC
  5
1F927
  8
0
 10
8014.3343389620968082
 20
35.312608469880459
 30
0.0
 40
0.0300346513715631
 50
195.0329269716739873
 51
252.1248621589737979
  0
LINE
  5
1F928
  8
0
 10
8014.325120441872059
 20
35.2840235493945187
 30
0.0
 11
8014.3432510633001584
 21
35.2781761790809725
 31
0.0
  0
ARC
  5
1F929
  8
0
 10
8006.87405941808629
 20
34.9337626021148822
 30
0.0
 40
7.4771280947260736
 50
2.6401084713227618
 51
14.1393136614204806
  0
LINE
  5
1F92A
  8
0
 10
8026.9164793047775674
 20
52.3729618495885205
 30
0.0
 11
8027.0551803389944325
 21
49.4318135165986305
 31
0.0
  0
ARC
  5
1F92B
  8
0
 10
8026.8587903081761397
 20
51.2883297973993919
 30
0.0
 40
0.1101049417102505
 50
327.1115188552378186
 51
353.5966484575155846
  0
ARC
  5
1F92C
  8
0
 10
8026.8438416429753488
 20
51.3133995795290474
 30
0.0
 40
0.1368832936000519
 50
292.417477915082884
 51
321.689336507362782
  0
ARC
  5
1F92D
  8
0
 10
8026.4312194733802244
 20
52.6044029866705998
 30
0.0
 40
1.491806558885324
 50
273.1866467344046896
 51
288.1547110217755971
  0
ARC
  5
1F92E
  8
0
 10
8025.3752203689764428
 20
64.7258909237995965
 30
0.0
 40
13.6585556655113205
 50
271.709758228305077
 51
274.7831969409523936
  0
ARC
  5
1F92F
  8
0
 10
8023.6788384833862438
 20
115.9592860517637973
 30
0.0
 40
64.9199702000111358
 50
270.6802231678789781
 51
271.8571480368195239
  0
ARC
  5
1F930
  8
0
 10
8020.3869045739047579
 20
383.7701061266009788
 30
0.0
 40
332.7510171642443879
 50
270.260903469384175
 51
270.6995582924552082
  0
ARC
  5
1F931
  8
0
 10
7997.0531471617523493
 20
-22344.7120284496086242
 30
0.0
 40
22397.2171841389899782
 50
89.9239057708276874
 51
89.9399270334582184
  0
ARC
  5
1F932
  8
0
 10
8026.798610299538268
 20
52.3674032884171368
 30
0.0
 40
0.118
 50
2.6999999941229769
 51
89.9239057705671456
  0
ARC
  5
1F933
  8
0
 10
8026.9617237699203542
 20
49.7241650678607812
 30
0.0
 40
0.0797869536674341
 50
327.85450141956062
 51
358.5841127063893055
  0
ARC
  5
1F934
  8
0
 10
8026.9485898818402347
 20
49.7390972193273626
 30
0.0
 40
0.0990139915550001
 50
294.5176336117835945
 51
324.580444370293776
  0
ARC
  5
1F935
  8
0
 10
8026.8280505049333442
 20
50.0060701265719771
 30
0.0
 40
0.3919371214669404
 50
280.4727514694450861
 51
294.3545120222850073
  0
ARC
  5
1F936
  8
0
 10
8026.593735789288985
 20
51.1863228871259608
 30
0.0
 40
1.5951985268936999
 50
275.7557454751421915
 51
281.0431086887211904
  0
ARC
  5
1F937
  8
0
 10
8026.045832796787181
 20
57.0284014151408414
 30
0.0
 40
7.4628832738943043
 50
271.8839273456097771
 51
275.4428986936321735
  0
ARC
  5
1F938
  8
0
 10
8024.7981259982216216
 20
93.524386340748805
 30
0.0
 40
43.9801847810893065
 50
270.4929257441236246
 51
271.9454618197614764
  0
ARC
  5
1F939
  8
0
 10
8022.0655859799908285
 20
372.2646751792901796
 30
0.0
 40
322.733839746629485
 50
270.1070976746677275
 51
270.5522955657186799
  0
ARC
  5
1F93A
  8
0
 10
8027.0355022084568191
 20
49.4308855195213397
 30
0.0
 40
0.0197
 50
270.0
 51
2.699999995093687
  0
LINE
  5
1F93B
  8
0
 10
8025.4131266464137298
 20
49.4505556951213379
 30
0.0
 11
8026.310259845073233
 21
49.4505556951213379
 31
0.0
  0
ARC
  5
1F93C
  8
0
 10
8025.4224700190852673
 20
49.5151898252314595
 30
0.0
 40
0.0653059674758936
 50
211.4465226095557
 51
261.7744244406806047
  0
ARC
  5
1F93D
  8
0
 10
8026.7270096859729165
 20
49.4735176511061496
 30
0.0
 40
0.3538646882153334
 50
163.6141998425009092
 51
174.2399909790534025
  0
ARC
  5
1F93E
  8
0
 10
8026.310259845073233
 20
49.5155556951213498
 30
0.0
 40
0.065
 50
270.0
 51
354.2399909790452739
  0
LINE
  5
1F93F
  8
0
 10
8024.4090349555799548
 20
49.5096112731409832
 30
0.0
 11
8025.4143112395986464
 21
49.5096112731409832
 31
0.0
  0
ARC
  5
1F940
  8
0
 10
8025.5726522948007187
 20
49.3702283201047081
 30
0.0
 40
0.1946084282256329
 50
112.6988438848974994
 51
128.4550368551018096
  0
ARC
  5
1F941
  8
0
 10
8024.4249188963203778
 20
49.3108543841843385
 30
0.0
 40
0.2306549195821401
 50
98.0715632155032324
 51
106.6130536283059058
  0
ARC
  5
1F942
  8
0
 10
8024.3776678359190555
 20
49.469223118573197
 30
0.0
 40
0.0653875037340971
 50
106.6130536283060053
 51
117.8842190763324993
  0
ARC
  5
1F943
  8
0
 10
8024.3534791615720678
 20
49.5149380175317333
 30
0.0
 40
0.0136676433953428
 50
117.8842190763326983
 51
142.6868926508610969
  0
ARC
  5
1F944
  8
0
 10
8024.3473894170429048
 20
49.5222929875053524
 30
0.0
 40
0.0048702180162248
 50
168.9919825463655059
 51
246.5751871177679959
  0
ARC
  5
1F945
  8
0
 10
8024.4094247932944199
 20
49.762850681779689
 30
0.0
 40
0.2532397086973837
 50
255.3678412274207972
 51
270.0882012723150751
  0
LINE
  5
1F946
  8
0
 10
8024.4840508657598548
 20
49.503378032465541
 30
0.0
 11
8024.4840508657598548
 21
49.5096112731409832
 31
0.0
  0
ARC
  5
1F947
  8
0
 10
8024.9368077601611731
 20
50.62996381982137
 30
0.0
 40
1.2266522816000329
 50
248.9733589446375106
 51
263.5045884612785017
  0
ARC
  5
1F948
  8
0
 10
8024.9297441872340642
 20
50.6580942237374217
 30
0.0
 40
1.2554873468958061
 50
276.7017519829582284
 51
290.8635857334451202
  0
LINE
  5
1F949
  8
0
 10
8025.3895626767598515
 20
49.5033362049622667
 30
0.0
 11
8025.3895626767598515
 21
49.5096112731409832
 31
0.0
  0
ARC
  5
1F94A
  8
0
 10
8025.4143112395986464
 20
49.5696112731409926
 30
0.0
 40
0.06
 50
270.0
 51
308.4550368550972053
  0
ARC
  5
1F94B
  8
0
 10
8025.3698626767591122
 20
49.5033362049622667
 30
0.0
 40
0.0197
 50
290.8635857334454045
 51
359.9999999999935199
  0
ARC
  5
1F94C
  8
0
 10
8024.503750865758775
 20
49.503378032465541
 30
0.0
 40
0.0197
 50
180.0000000000077023
 51
248.9733589446366864
  0
LINE
  5
1F94D
  8
0
 10
8025.3768787173949022
 20
49.4849279140641372
 30
0.0
 11
8024.4966824663288207
 21
49.4849897826985483
 31
0.0
  0
ARC
  5
1F94E
  8
0
 10
7099.7333032277847451
 20
140.7194532799547915
 30
0.0
 40
931.8091616131910087
 50
353.3251722195204252
 51
354.3604689480533807
  0
ARC
  5
1F94F
  8
0
 10
8026.7973763065865569
 20
49.1749855195213499
 30
0.0
 40
0.2362
 50
354.1727620681691064
 51
90.0
  0
LINE
  5
1F950
  8
0
 10
8025.4742525909296091
 20
36.7494045593035565
 30
0.0
 11
8025.4833873281631895
 21
36.7439498729795275
 31
0.0
  0
ARC
  5
1F951
  8
0
 10
8025.4680344881489873
 20
36.7211045158416596
 30
0.0
 40
0.0275248985333788
 50
8.7472566172540045
 51
56.0975861438657404
  0
ARC
  5
1F952
  8
0
 10
8025.0027342613357177
 20
36.669197452808092
 30
0.0
 40
0.4956889861335631
 50
355.7808201196805271
 51
6.4975982441189242
  0
ARC
  5
1F953
  8
0
 10
8019.3352696045803896
 20
36.8536646980766278
 30
0.0
 40
6.1657699168684168
 50
352.8579780148102145
 51
357.9464987130256759
  0
ARC
  5
1F954
  8
0
 10
8019.3958874018953793
 20
36.86653771588783
 30
0.0
 40
6.1072567145132872
 50
346.3108677550214907
 51
352.6674403718344024
  0
ARC
  5
1F955
  8
0
 10
8024.2937044747586697
 20
35.6460873939768703
 30
0.0
 40
1.0600787978468831
 50
340.5984925766032916
 51
347.7538436926947725
  0
ARC
  5
1F956
  8
0
 10
8025.2645787784076674
 20
35.3017343249075211
 30
0.0
 40
0.0300346513715631
 50
287.8751378410261736
 51
344.9670730283260127
  0
LINE
  5
1F957
  8
0
 10
8025.2737972986287787
 20
35.2731494044215665
 30
0.0
 11
8025.2556666772034077
 21
35.2673020341080274
 31
0.0
  0
ARC
  5
1F958
  8
0
 10
8032.7248583224190952
 20
34.9228884571419371
 30
0.0
 40
7.4771280947260736
 50
165.8606863385795123
 51
177.3598915286771955
  0
ARC
  5
1F959
  8
0
 10
8012.2818045604462895
 20
49.5488671662991109
 30
0.0
 40
0.2742277508141246
 50
327.4144344955989254
 51
345.8096893326649024
  0
ARC
  5
1F95A
  8
0
 10
8012.5603002141151592
 20
49.3708606062540269
 30
0.0
 40
0.0562963247568962
 50
147.414434495598897
 51
165.722869841369004
  0
ARC
  5
1F95B
  8
0
 10
8012.5227120556228328
 20
49.3812286812495813
 30
0.0
 40
0.0173296904296028
 50
168.2964722757841116
 51
214.9581358442719079
  0
ARC
  5
1F95C
  8
0
 10
8012.5190830014125822
 20
49.378128090600157
 30
0.0
 40
0.0125873272101049
 50
212.8556750957212103
 51
259.9275979991396071
  0
ARC
  5
1F95D
  8
0
 10
8012.5178292376140234
 20
49.3817825032509319
 30
0.0
 40
0.0160756949619688
 50
266.6204436486465283
 51
308.4993780761673747
  0
ARC
  5
1F95E
  8
0
 10
8012.4726159018646285
 20
49.4180313391987767
 30
0.0
 40
0.0737134330187717
 50
318.5146148966637725
 51
338.602144569146617
  0
ARC
  5
1F95F
  8
0
 10
8012.5777331687886544
 20
49.36870133610077
 30
0.0
 40
0.0428314862185904
 50
97.3013656091931267
 51
148.410747682873108
  0
LINE
  5
1F960
  8
0
 10
8014.1941150093398392
 20
34.4809947912868324
 30
0.0
 11
8014.1143632745770446
 21
34.4717063947057767
 31
0.0
  0
LINE
  5
1F961
  8
0
 10
8013.8440947038679951
 20
37.4047380110596706
 30
0.0
 11
8013.7739166543606188
 21
37.3965646270290719
 31
0.0
  0
LINE
  5
1F962
  8
0
 10
8013.8448867454026185
 20
37.3979212234524994
 30
0.0
 11
8013.8554311658217557
 21
37.399149294004971
 31
0.0
  0
ARC
  5
1F963
  8
0
 10
7786.0179491085109476
 20
9.4773787817046795
 30
0.0
 40
229.5420299177411891
 50
6.2535386771330632
 51
6.9868310050670264
  0
LINE
  5
1F964
  8
0
 10
8013.8440947038679951
 20
37.4047380110596706
 30
0.0
 11
8014.1839416597549643
 21
34.4798099379944034
 31
0.0
  0
LINE
  5
1F965
  8
0
 10
8013.7598749021881304
 20
37.3788221894886235
 30
0.0
 11
8014.0966196204581138
 21
34.4857491097050399
 31
0.0
  0
ARC
  5
1F966
  8
0
 10
8013.7757676053342948
 20
37.3806720507592516
 30
0.0
 40
0.016
 50
96.6431038251039354
 51
186.6391752516425129
  0
ARC
  5
1F967
  8
0
 10
8014.1125123236042782
 20
34.4875989709756468
 30
0.0
 40
0.016
 50
186.6391752516501015
 51
276.643103823058425
  0
ARC
  5
1F968
  8
0
 10
8013.7741729450963248
 20
37.3668147918045719
 30
0.0
 40
0.0157894204687343
 50
150.8868485725741948
 51
186.7025564079106914
  0
ARC
  5
1F969
  8
0
 10
8234.1533398265073629
 20
61.6950526613772965
 30
0.0
 40
221.7337187360199948
 50
186.2995538573568126
 51
187.0485123461365049
  0
ARC
  5
1F96A
  8
0
 10
8014.096523319309199
 20
34.4866050990085995
 30
0.0
 40
0.0012494368015656
 50
200.0334983949219065
 51
276.7031684550956925
  0
ENDSEC
  0
EOF
