  0
SECTION
  2
HEADER
  9
$ACADVER
  1
AC1009
  9
$INSBASE
 10
8102.4292942065703755
 20
35.7355921566244419
 30
0.0
  9
$EXTMIN
 10
8073.5572276265629625
 20
35.7309230822215795
 30
-0.0000000349181948
  9
$EXTMAX
 10
8102.8277964383169092
 20
71.142665802947505
 30
0.0000000814935746
  9
$LIMMIN
 10
0.0
 20
0.0
  9
$LIMMAX
 10
11.6929133858000007
 20
8.2677165353999982
  9
$ORTHOMODE
 70
     0
  9
$REGENMODE
 70
     1
  9
$FILLMODE
 70
     1
  9
$QTEXTMODE
 70
     0
  9
$MIRRTEXT
 70
     0
  9
$DRAGMODE
 70
     2
  9
$LTSCALE
 40
0.6431102362
  9
$OSMODE
 70
  4095
  9
$ATTMODE
 70
     1
  9
$TEXTSIZE
 40
0.2
  9
$TRACEWID
 40
0.05
  9
$TEXTSTYLE
  7
STANDARD
  9
$CLAYER
  8
0
  9
$CELTYPE
  6
BYLAYER
  9
$CECOLOR
 62
   256
  9
$DIMSCALE
 40
1.0
  9
$DIMASZ
 40
0.1875
  9
$DIMEXO
 40
0.0625
  9
$DIMDLI
 40
0.4443307087
  9
$DIMRND
 40
0.0
  9
$DIMDLE
 40
0.0
  9
$DIMEXE
 40
0.125
  9
$DIMTP
 40
0.01
  9
$DIMTM
 40
0.01
  9
$DIMTXT
 40
2.0
  9
$DIMCEN
 40
0.1052362205
  9
$DIMTSZ
 40
0.0
  9
$DIMTOL
 70
     1
  9
$DIMLIM
 70
     0
  9
$DIMTIH
 70
     1
  9
$DIMTOH
 70
     1
  9
$DIMSE1
 70
     0
  9
$DIMSE2
 70
     0
  9
$DIMTAD
 70
     0
  9
$DIMZIN
 70
     0
  9
$DIMBLK
  1

  9
$DIMASO
 70
     1
  9
$DIMSHO
 70
     1
  9
$DIMPOST
  1
\X
  9
$DIMAPOST
  1

  9
$DIMALT
 70
     1
  9
$DIMALTD
 70
     2
  9
$DIMALTF
 40
25.3999999999999986
  9
$DIMLFAC
 40
1.0
  9
$DIMTOFL
 70
     0
  9
$DIMTVP
 40
0.0
  9
$DIMTIX
 70
     0
  9
$DIMSOXD
 70
     0
  9
$DIMSAH
 70
     0
  9
$DIMBLK1
  1

  9
$DIMBLK2
  1

  9
$DIMSTYLE
  2
STANDARD
  9
$DIMCLRD
 70
     0
  9
$DIMCLRE
 70
     0
  9
$DIMCLRT
 70
     0
  9
$DIMTFAC
 40
1.0
  9
$DIMGAP
 40
0.09
  9
$LUNITS
 70
     2
  9
$LUPREC
 70
     4
  9
$SKETCHINC
 40
0.1
  9
$FILLETRAD
 40
0.0
  9
$AUNITS
 70
     0
  9
$AUPREC
 70
     0
  9
$MENU
  1
.
  9
$ELEVATION
 40
0.0
  9
$PELEVATION
 40
0.0
  9
$THICKNESS
 40
0.0
  9
$LIMCHECK
 70
     0
  9
$BLIPMODE
 70
     0
  9
$CHAMFERA
 40
0.0
  9
$CHAMFERB
 40
0.0
  9
$SKPOLY
 70
     0
  9
$TDCREATE
 40
2458060.468368056230247
  9
$TDUPDATE
 40
2461015.5984606482088566
  9
$TDINDWG
 40
0.6961297454000001
  9
$TDUSRTIMER
 40
0.6961297454000001
  9
$USRTIMER
 70
     1
  9
$ANGBASE
 50
0.0
  9
$ANGDIR
 70
     0
  9
$PDMODE
 70
     0
  9
$PDSIZE
 40
0.3125
  9
$PLINEWID
 40
0.0
  9
$COORDS
 70
     1
  9
$SPLFRAME
 70
     0
  9
$SPLINETYPE
 70
     6
  9
$SPLINESEGS
 70
     8
  9
$ATTDIA
 70
     1
  9
$ATTREQ
 70
     1
  9
$HANDLING
 70
     1
  9
$HANDSEED
  5
1FE6E
  9
$SURFTAB1
 70
     6
  9
$SURFTAB2
 70
     6
  9
$SURFTYPE
 70
     6
  9
$SURFU
 70
     6
  9
$SURFV
 70
     6
  9
$UCSNAME
  2

  9
$UCSORG
 10
0.0
 20
0.0
 30
0.0
  9
$UCSXDIR
 10
1.0
 20
0.0
 30
0.0
  9
$UCSYDIR
 10
0.0
 20
1.0
 30
0.0
  9
$PUCSNAME
  2

  9
$PUCSORG
 10
0.0
 20
0.0
 30
0.0
  9
$PUCSXDIR
 10
1.0
 20
0.0
 30
0.0
  9
$PUCSYDIR
 10
0.0
 20
1.0
 30
0.0
  9
$USERI1
 70
     0
  9
$USERI2
 70
     0
  9
$USERI3
 70
     0
  9
$USERI4
 70
     0
  9
$USERI5
 70
     0
  9
$USERR1
 40
0.0
  9
$USERR2
 40
0.0
  9
$USERR3
 40
0.0
  9
$USERR4
 40
0.0
  9
$USERR5
 40
0.0
  9
$WORLDVIEW
 70
     1
  9
$SHADEDGE
 70
     3
  9
$SHADEDIF
 70
    70
  9
$TILEMODE
 70
     1
  9
$MAXACTVP
 70
    64
  9
$PLIMCHECK
 70
     0
  9
$PEXTMIN
 10
1.0000000000000000E+20
 20
1.0000000000000000E+20
 30
1.0000000000000000E+20
  9
$PEXTMAX
 10
-1.0000000000000000E+20
 20
-1.0000000000000000E+20
 30
-1.0000000000000000E+20
  9
$PLIMMIN
 10
0.0
 20
0.0
  9
$PLIMMAX
 10
12.0
 20
9.0
  9
$UNITMODE
 70
     0
  9
$VISRETAIN
 70
     1
  9
$PLINEGEN
 70
     0
  9
$PSLTSCALE
 70
     1
  0
ENDSEC
  0
SECTION
  2
TABLES
  0
TABLE
  2
VPORT
 70
     1
  0
VPORT
  2
*ACTIVE
 70
     0
 10
0.0
 20
0.0
 11
1.0
 21
1.0
 12
5023.1687083215019811
 22
-140.4656848500713124
 13
0.0
 23
0.0
 14
1.0
 24
1.0
 15
0.0
 25
0.0
 16
0.0
 26
0.0
 36
63.7428098394932476
 17
3065.0238037109379547
 27
193.9024792926558121
 37
0.0
 40
35.6534611010721676
 41
1.687927107061503
 42
50.0
 43
0.0
 44
0.0
 50
0.0
 51
0.0
 71
     0
 72
   100
 73
     1
 74
     1
 75
     0
 76
     0
 77
     0
 78
     0
  0
ENDTAB
  0
TABLE
  2
LTYPE
 70
     1
  0
LTYPE
  2
CONTINUOUS
 70
     0
  3
Solid line
 72
    65
 73
     0
 40
0.0
  0
ENDTAB
  0
TABLE
  2
LAYER
 70
     2
  0
LAYER
  2
0
 70
     0
 62
   255
  6
CONTINUOUS
  0
LAYER
  2
DEFPOINTS
 70
     0
 62
     7
  6
CONTINUOUS
  0
ENDTAB
  0
TABLE
  2
STYLE
 70
     1
  0
STYLE
  2
STANDARD
 70
     0
 40
0.0
 41
0.8
 50
0.0
 71
     0
 42
0.2
  3
txt
  4

  0
ENDTAB
  0
TABLE
  2
VIEW
 70
     1
  0
ENDTAB
  0
TABLE
  2
UCS
 70
     0
  0
ENDTAB
  0
TABLE
  2
APPID
 70
    12
  0
APPID
  2
ACAD
 70
     0
  0
APPID
  2
ACADANNOTATIVE
 70
     0
  0
APPID
  2
ACAD_MLEADERVER
 70
     0
  0
APPID
  2
ACAD_EXEMPT_FROM_CAD_STANDARDS
 70
     0
  0
APPID
  2
ACAD_NAV_VCDISPLAY
 70
     0
  0
APPID
  2
ACAECLAYERSTANDARD
 70
     0
  0
APPID
  2
ACCMTRANSPARENCY
 70
     0
  0
APPID
  2
ACAD_DSTYLE_DIMJAG
 70
     0
  0
APPID
  2
ACAD_DSTYLE_DIMTALN
 70
     0
  0
APPID
  2
ACDBATTR
 70
     0
  0
APPID
  2
CONTENTBLOCKICON
 70
     0
  0
APPID
  2
ACDBDYNAMICBLOCKGUID
 70
     0
  0
ENDTAB
  0
TABLE
  2
DIMSTYLE
 70
     1
  0
DIMSTYLE
  2
STANDARD
 70
     0
  3

  4

  5

  6

  7

 40
1.0
 41
0.1875
 42
0.0625
 43
0.38
 44
0.125
 45
0.0
 46
0.0
 47
0.01
 48
0.01
140
0.15625
141
0.09
142
0.0
143
25.3999999999999986
144
1.0
145
0.0
146
1.0
147
0.09
 71
     1
 72
     0
 73
     1
 74
     1
 75
     0
 76
     0
 77
     0
 78
     4
170
     0
171
     2
172
     0
173
     0
174
     0
175
     0
176
     0
177
     0
178
     0
  0
ENDTAB
  0
ENDSEC
  0
SECTION
  2
BLOCKS
  0
BLOCK
  8
0
  2
$MODEL_SPACE
 70
     0
 10
0.0
 20
0.0
 30
0.0
  3
$MODEL_SPACE
  1

  0
ENDBLK
  5
19FA5
  8
0
  0
BLOCK
 67
     1
  8
0
  2
$PAPER_SPACE
 70
     0
 10
0.0
 20
0.0
 30
0.0
  3
$PAPER_SPACE
  1

  0
ENDBLK
  5
19FA1
 67
     1
  8
0
  0
BLOCK
  8
0
  2
_FILLED
 70
     0
 10
0.0
 20
0.0
 30
0.0
  3
_FILLED
  1

  0
SOLID
  5
1DC74
  8
0
  6
BYBLOCK
 62
     0
 10
0.0
 20
0.0
 30
0.0
 11
-1.0
 21
0.1666666667
 31
0.0
 12
-1.0
 22
-0.1666666667
 32
0.0
 13
-1.0
 23
-0.1666666667
 33
0.0
  0
ENDBLK
  5
1DC75
  8
0
  6
BYBLOCK
 62
     0
  0
ENDSEC
  0
SECTION
  2
ENTITIES
  0
ATTDEF
  5
C5C4
  8
DEFPOINTS
 10
8102.4292942065703755
 20
35.7355921566244419
 30
0.0
 40
0.001
  1
K-29149
  3

  2
MODELNUMBER
 70
     0
1001
ACDBATTR
1070
     0
1070
     1
  0
ATTDEF
  5
C5C5
  8
DEFPOINTS
 10
8102.4292942065703755
 20
35.7339254899578265
 30
0.0
 40
0.001
  1
KOHLER
  3

  2
BRANDNAME
 70
     0
1001
ACDBATTR
1070
     0
1070
     1
  0
ATTDEF
  5
C5C6
  8
DEFPOINTS
 10
8102.4292942065703755
 20
35.7322588232911613
 30
0.0
 40
0.001
  1
TOILET
  3

  2
PRODUCT
 70
     0
1001
ACDBATTR
1070
     0
1070
     1
  0
LINE
  5
1FBF3
  8
0
 10
8073.841957129920047
 20
68.5129408216937037
 30
0.0
 11
8075.9530711448205693
 21
68.5129408216937037
 31
0.0
  0
ARC
  5
1FBF4
  8
0
 10
8074.8975141373703082
 20
70.1664841287937122
 30
0.0
 40
0.972448638600003
 50
0.0
 51
180.0
  0
LINE
  5
1FBF5
  8
0
 10
8073.9250654987690723
 20
70.1664841287937122
 30
0.0
 11
8073.9250654987690723
 21
68.5129408216937037
 31
0.0
  0
ARC
  5
1FBF6
  8
0
 10
8074.9139493398279228
 20
69.6641631256915446
 30
0.0
 40
1.4740748877460319
 50
90.6388327046828124
 51
93.1099923041417981
  0
ARC
  5
1FBF7
  8
0
 10
8074.8975141373211954
 20
70.1664841287972934
 30
0.0
 40
0.9716625164964048
 50
93.7492877929199295
 51
98.8612795259757604
  0
ARC
  5
1FBF8
  8
0
 10
8074.8975141373211954
 20
70.166484128790529
 30
0.0
 40
0.9716625165032217
 50
98.8612795259757604
 51
104.8548442663674933
  0
ARC
  5
1FBF9
  8
0
 10
8074.8975141373193765
 20
70.1664841287967249
 30
0.0
 40
0.9716625164968119
 50
104.8548442663674933
 51
111.7751309692227011
  0
ARC
  5
1FBFA
  8
0
 10
8074.8961699666351706
 20
70.1698490302580637
 30
0.0
 40
0.9680390710823497
 50
111.7751309692227011
 51
122.247070389421296
  0
ARC
  5
1FBFB
  8
0
 10
8074.8538261769463134
 20
70.2369674794214518
 30
0.0
 40
0.8886798703346185
 50
122.247070389421296
 51
130.6951233370662919
  0
ARC
  5
1FBFC
  8
0
 10
8074.6496451959383194
 20
70.4743906421509507
 30
0.0
 40
0.5755351255180657
 50
130.6951233370662919
 51
136.19114104246529
  0
ARC
  5
1FBFD
  8
0
 10
8074.3541822872330158
 20
70.7578170930732711
 30
0.0
 40
0.1661100609426484
 50
136.1911410424621067
 51
142.5402948325526893
  0
ARC
  5
1FBFE
  8
0
 10
8074.282127714895978
 20
70.8130260434938066
 30
0.0
 40
0.0753362232955827
 50
142.5402948325562988
 51
153.7338972061318998
  0
ARC
  5
1FBFF
  8
0
 10
8074.2327680124781182
 20
70.8373848034065361
 30
0.0
 40
0.0202932454753282
 50
153.7338972061295124
 51
179.9916066574575098
  0
ARC
  5
1FC00
  8
0
 10
8141.0904800646922013
 20
70.8275907193103365
 30
0.0
 40
66.8780060150648552
 50
179.9916066574575098
 51
180.0104776767927035
  0
ARC
  5
1FC01
  8
0
 10
8074.8982312793550591
 20
70.1221580353730758
 30
0.0
 40
0.9351237950551945
 50
90.0439398647487792
 51
95.1594916482117839
  0
ARC
  5
1FC02
  8
0
 10
8074.8973004972112903
 20
70.1589004657060684
 30
0.0
 40
0.8984496777472156
 50
95.3110889084625938
 51
103.604495254432095
  0
ARC
  5
1FC03
  8
0
 10
8074.8895727543877001
 20
70.1838540937754658
 30
0.0
 40
0.8723800219149836
 50
103.4966940131396029
 51
111.250199786234603
  0
ARC
  5
1FC04
  8
0
 10
8074.8844411527452394
 20
70.1862032073860433
 30
0.0
 40
0.8683396273536544
 50
110.9908012847310061
 51
118.2725675210122063
  0
ARC
  5
1FC05
  8
0
 10
8074.9230279748953762
 20
70.1144574302182662
 30
0.0
 40
0.9498037261034129
 50
118.2725675210122063
 51
123.0244411937671032
  0
ARC
  5
1FC06
  8
0
 10
8073.7559086262017445
 20
71.8823010591463287
 30
0.0
 40
1.1685974901812439
 50
299.755071629507313
 51
303.764237641162083
  0
ARC
  5
1FC07
  8
0
 10
8073.9259210478294335
 20
71.5902563444501254
 30
0.0
 40
0.8306856592740947
 50
295.7974648753149722
 51
299.5717889429380989
  0
ARC
  5
1FC08
  8
0
 10
8074.091589469649989
 20
71.239743604471272
 30
0.0
 40
0.4430211734752599
 50
288.5059133108318861
 51
296.2349269589117853
  0
ARC
  5
1FC09
  8
0
 10
8074.2019819446322799
 20
70.9097786316541203
 30
0.0
 40
0.0950795529566713
 50
277.2141368830942838
 51
288.5345594495029218
  0
ARC
  5
1FC0A
  8
0
 10
8074.2117429972531681
 20
70.8385424516531259
 30
0.0
 40
0.0231932699726337
 50
267.5727363890908919
 51
275.3904959154577909
  0
ARC
  5
1FC0B
  8
0
 10
8074.2110887143307991
 20
70.8218021151452319
 30
0.0
 40
0.0064404806684478
 50
242.396484924359811
 51
267.0809905003958988
  0
ARC
  5
1FC0C
  8
0
 10
8074.2294115861977843
 20
70.8143641268889894
 30
0.0
 40
0.0213772364636608
 50
142.4025182820938937
 51
175.3565383939177877
  0
ARC
  5
1FC0D
  8
0
 10
8074.297494343037215
 20
70.8209337288292602
 30
0.0
 40
0.0855084028293415
 50
158.1232120841071094
 51
161.8562011088230008
  0
ARC
  5
1FC0E
  8
0
 10
8074.222538937329773
 20
70.8458065073749879
 30
0.0
 40
0.0065411189957482
 50
164.438615751735
 51
192.8313027590967863
  0
ARC
  5
1FC0F
  8
0
 10
8074.2197936273187224
 20
70.8454262755147681
 30
0.0
 40
0.003787466884419
 50
196.4484010357629984
 51
248.3495694846014032
  0
ARC
  5
1FC10
  8
0
 10
8074.2235611508658621
 20
70.8585887383613056
 30
0.0
 40
0.0174639500684078
 50
252.7977625324101041
 51
280.5292974623743021
  0
ARC
  5
1FC11
  8
0
 10
8074.1875961924370131
 20
71.0335008839007571
 30
0.0
 40
0.1960324502472818
 50
281.5219847254700767
 51
294.0821985107040177
  0
ARC
  5
1FC12
  8
0
 10
8073.9503031491867659
 20
71.5868235696464978
 30
0.0
 40
0.7980735219780332
 50
293.4258365392059886
 51
302.1258664479868798
  0
ARC
  5
1FC13
  8
0
 10
8074.9204730756300705
 20
70.1150670397802429
 30
0.0
 40
0.9650354428400071
 50
110.6020232161674954
 51
124.4400485473751985
  0
ARC
  5
1FC14
  8
0
 10
8074.8975141373211954
 20
70.1664841287938259
 30
0.0
 40
0.9088343089998787
 50
89.9999999968212734
 51
110.3877847497341946
  0
CIRCLE
  5
1FC15
  8
0
 10
8074.8975141373703082
 20
69.6066502586991334
 30
0.0
 40
0.6714691632639429
  0
CIRCLE
  5
1FC16
  8
0
 10
8074.8975141373703082
 20
69.6066502586991334
 30
0.0
 40
0.6770561219541794
  0
LINE
  5
1FC17
  8
0
 10
8074.4107083931021407
 20
70.0711697618172309
 30
0.0
 11
8074.409440470330992
 21
70.0724373838826438
 31
0.0
  0
ARC
  5
1FC18
  8
0
 10
8074.897514137314829
 20
69.6066416090989435
 30
0.0
 40
0.6746714816925334
 50
133.6620840750738068
 51
136.3379159989181062
  0
LINE
  5
1FC19
  8
0
 10
8074.4317183618641138
 20
70.0947152754461342
 30
0.0
 11
8074.4329857821076075
 21
70.0934475559238592
 31
0.0
  0
LINE
  5
1FC1A
  8
0
 10
8074.2248252580629924
 20
69.6223942444130728
 30
0.0
 11
8074.2230265866701302
 21
69.622394457688273
 31
0.0
  0
LINE
  5
1FC1B
  8
0
 10
8074.2248255450640499
 20
69.5908940151440163
 30
0.0
 11
8074.2230265866610353
 21
69.5908887609346891
 31
0.0
  0
ARC
  5
1FC1C
  8
0
 10
8074.8974578006091178
 20
69.6066416090937707
 30
0.0
 40
0.6746151603496753
 50
178.6619722826881116
 51
181.3380276803160029
  0
LINE
  5
1FC1D
  8
0
 10
8074.410716841053727
 20
69.1421219024851155
 30
0.0
 11
8074.4094404709685477
 21
69.1408458336377691
 31
0.0
  0
ARC
  5
1FC1E
  8
0
 10
8074.8926635965763126
 20
69.6019030313692326
 30
0.0
 40
0.6678909556978323
 50
223.6552924031701082
 51
226.3582947607606002
  0
LINE
  5
1FC1F
  8
0
 10
8074.4317210037006589
 20
69.118570583900663
 30
0.0
 11
8074.4329946331836254
 21
69.1198445154498415
 31
0.0
  0
CIRCLE
  5
1FC20
  8
0
 10
8074.8975141373703082
 20
69.6066502586991334
 30
0.0
 40
0.6728730945945856
  0
LINE
  5
1FC21
  8
0
 10
8074.8817612895982165
 20
70.2811291597630259
 30
0.0
 11
8074.8817665526566998
 21
70.2793390537633798
 31
0.0
  0
LINE
  5
1FC22
  8
0
 10
8074.8817612895982165
 20
68.9321713576352124
 30
0.0
 11
8074.8817665526566998
 21
68.9339614636348443
 31
0.0
  0
LINE
  5
1FC23
  8
0
 10
8073.8299571299212403
 20
68.5009408216937175
 30
0.0
 11
8073.8299571299212403
 21
66.0837892733709111
 31
0.0
  0
ARC
  5
1FC24
  8
0
 10
8073.841957129920047
 20
68.5009408216937175
 30
0.0
 40
0.012
 50
90.0
 51
179.9999999999836859
  0
LINE
  5
1FC25
  8
0
 10
8073.8350951669999631
 20
66.0377228584954707
 30
0.0
 11
8073.8350951669999631
 21
64.4192954331619774
 31
0.0
  0
ARC
  5
1FC26
  8
0
 10
8073.8301192754433941
 20
66.0832849515470286
 30
0.0
 40
0.0005297468004333
 50
36.1954405008929925
 51
107.8232217550348935
  0
ARC
  5
1FC27
  8
0
 10
8073.8089835487862729
 20
66.0755742084380984
 30
0.0
 40
0.0230076291722402
 50
1.8253003808140329
 51
20.4100014099760116
  0
ARC
  5
1FC28
  8
0
 10
8071.7909219214579934
 20
65.8920742989484722
 30
0.0
 40
2.049355450058711
 50
4.0754711030728199
 51
5.1577333758214223
  0
ARC
  5
1FC29
  8
0
 10
8073.8417681535211159
 20
66.0838069633936982
 30
0.0
 40
0.011811023600009
 50
180.0
 51
213.5806072103214888
  0
ARC
  5
1FC2A
  8
0
 10
8074.8975141373703082
 20
64.4192954331619774
 30
0.0
 40
1.0624189703706151
 50
180.0
 51
0.0
  0
LINE
  5
1FC2B
  8
0
 10
8075.8699627759706345
 20
70.1664841287937122
 30
0.0
 11
8075.8699627759706345
 21
68.5129408216937037
 31
0.0
  0
ARC
  5
1FC2C
  8
0
 10
8074.8810789349126935
 20
69.6641631256915446
 30
0.0
 40
1.4740748877460319
 50
86.8900076958582019
 51
89.3611672953172018
  0
ARC
  5
1FC2D
  8
0
 10
8074.8975141374203304
 20
70.1664841287972934
 30
0.0
 40
0.9716625164964048
 50
81.138720474024268
 51
86.2507122070800563
  0
ARC
  5
1FC2E
  8
0
 10
8074.8975141374203304
 20
70.166484128790529
 30
0.0
 40
0.9716625165032217
 50
75.1451557336324925
 51
81.138720474024268
  0
ARC
  5
1FC2F
  8
0
 10
8074.8975141374221494
 20
70.1664841287967249
 30
0.0
 40
0.9716625164968119
 50
68.2248690307772989
 51
75.1451557336324925
  0
ARC
  5
1FC30
  8
0
 10
8074.8988583081063553
 20
70.1698490302580637
 30
0.0
 40
0.9680390710823497
 50
57.7529296105787182
 51
68.2248690307772989
  0
ARC
  5
1FC31
  8
0
 10
8074.9412020977952125
 20
70.2369674794214518
 30
0.0
 40
0.8886798703346185
 50
49.3048766629338573
 51
57.7529296105787182
  0
ARC
  5
1FC32
  8
0
 10
8075.1453830788032064
 20
70.4743906421509507
 30
0.0
 40
0.5755351255180657
 50
43.8088589575346674
 51
49.3048766629338573
  0
ARC
  5
1FC33
  8
0
 10
8075.440845987506691
 20
70.7578170930732711
 30
0.0
 40
0.1661100609426484
 50
37.4597051674476376
 51
43.8088589575376091
  0
ARC
  5
1FC34
  8
0
 10
8075.5129005598446383
 20
70.8130260434938066
 30
0.0
 40
0.0753362232955827
 50
26.2661027938681002
 51
37.4597051674436017
  0
ARC
  5
1FC35
  8
0
 10
8075.5622602622615887
 20
70.8373848034065361
 30
0.0
 40
0.0202932454753282
 50
0.0083933425424616
 51
26.2661027938704805
  0
ARC
  5
1FC36
  8
0
 10
8008.7045482100493246
 20
70.8275907193103365
 30
0.0
 40
66.8780060150648552
 50
359.9895223232073249
 51
0.0083933425424616
  0
ARC
  5
1FC37
  8
0
 10
8074.8967969953846477
 20
70.1221580353730758
 30
0.0
 40
0.9351237950551945
 50
84.8405083517882446
 51
89.9560601352512066
  0
ARC
  5
1FC38
  8
0
 10
8074.8977277775302355
 20
70.1589004657060684
 30
0.0
 40
0.8984496777472156
 50
76.395504745567834
 51
84.6889110915373919
  0
ARC
  5
1FC39
  8
0
 10
8074.9054555203529162
 20
70.1838540937754658
 30
0.0
 40
0.8723800219149836
 50
68.7498002137654254
 51
76.5033059868603686
  0
ARC
  5
1FC3A
  8
0
 10
8074.9105871219962864
 20
70.1862032073860433
 30
0.0
 40
0.8683396273536544
 50
61.7274324789878293
 51
69.0091987152689796
  0
ARC
  5
1FC3B
  8
0
 10
8074.8720002998461496
 20
70.1144574302182662
 30
0.0
 40
0.9498037261034129
 50
56.975558806232911
 51
61.7274324789878293
  0
ARC
  5
1FC3C
  8
0
 10
8076.0391196485388718
 20
71.8823010591463287
 30
0.0
 40
1.1685974901812439
 50
236.2357623588382012
 51
240.244928370492687
  0
ARC
  5
1FC3D
  8
0
 10
8075.8691072269120923
 20
71.5902563444501254
 30
0.0
 40
0.8306856592740947
 50
240.4282110570617874
 51
244.2025351246849993
  0
ARC
  5
1FC3E
  8
0
 10
8075.7034388050888083
 20
71.239743604471272
 30
0.0
 40
0.4430211734752599
 50
243.7650730410881863
 51
251.4940866891681139
  0
ARC
  5
1FC3F
  8
0
 10
8075.5930463301092459
 20
70.9097786316541203
 30
0.0
 40
0.0950795529566713
 50
251.4654405504971919
 51
262.7858631169057162
  0
ARC
  5
1FC40
  8
0
 10
8075.5832852774883577
 20
70.8385424516531259
 30
0.0
 40
0.0231932699726337
 50
264.6095040845422091
 51
272.4272636109091081
  0
ARC
  5
1FC41
  8
0
 10
8075.5839395604089077
 20
70.8218021151452319
 30
0.0
 40
0.0064404806684478
 50
272.9190094996041012
 51
297.603515075640189
  0
ARC
  5
1FC42
  8
0
 10
8075.565616688542832
 20
70.8143641268889894
 30
0.0
 40
0.0213772364636608
 50
4.6434616060821501
 51
37.5974817179060992
  0
ARC
  5
1FC43
  8
0
 10
8075.4975339317043108
 20
70.8209337288292602
 30
0.0
 40
0.0855084028293415
 50
18.1437988911769814
 51
21.87678791589288
  0
ARC
  5
1FC44
  8
0
 10
8075.5724893374099338
 20
70.8458065073749879
 30
0.0
 40
0.0065411189957482
 50
347.1686972409032137
 51
15.5613842482650107
  0
ARC
  5
1FC45
  8
0
 10
8075.5752346474218939
 20
70.8454262755147681
 30
0.0
 40
0.003787466884419
 50
291.6504305153986252
 51
343.5515989642368027
  0
ARC
  5
1FC46
  8
0
 10
8075.5714671238747542
 20
70.8585887383613056
 30
0.0
 40
0.0174639500684078
 50
259.4707025376258116
 51
287.2022374675898959
  0
ARC
  5
1FC47
  8
0
 10
8075.6074320823026937
 20
71.0335008839007571
 30
0.0
 40
0.1960324502472818
 50
245.917801489295897
 51
258.4780152745299233
  0
ARC
  5
1FC48
  8
0
 10
8075.8447251255538504
 20
71.5868235696464978
 30
0.0
 40
0.7980735219780332
 50
237.8741335520130917
 51
246.5741634607938977
  0
ARC
  5
1FC49
  8
0
 10
8074.8745551991105458
 20
70.1150670397802429
 30
0.0
 40
0.9650354428400071
 50
55.559951452624837
 51
69.3979767838324477
  0
ARC
  5
1FC4A
  8
0
 10
8074.8975141374203304
 20
70.1664841287938259
 30
0.0
 40
0.9088343089998787
 50
69.6122152502657059
 51
90.0000000031266296
  0
LINE
  5
1FC4B
  8
0
 10
8075.3843198816393851
 20
70.0711697618172309
 30
0.0
 11
8075.3855878044096244
 21
70.0724373838826438
 31
0.0
  0
ARC
  5
1FC4C
  8
0
 10
8074.8975141374248778
 20
69.6066416090989435
 30
0.0
 40
0.6746714816925334
 50
43.6620840010818583
 51
46.33791592492625
  0
LINE
  5
1FC4D
  8
0
 10
8075.363309912875593
 20
70.0947152754461342
 30
0.0
 11
8075.3620424926330088
 21
70.0934475559238592
 31
0.0
  0
LINE
  5
1FC4E
  8
0
 10
8075.570203016677624
 20
69.6223942444130728
 30
0.0
 11
8075.5720016880713956
 21
69.622394457688273
 31
0.0
  0
LINE
  5
1FC4F
  8
0
 10
8075.5702027296765664
 20
69.5908940151440163
 30
0.0
 11
8075.5720016880795811
 21
69.5908887609346891
 31
0.0
  0
ARC
  5
1FC50
  8
0
 10
8074.897570474130589
 20
69.6066416090937707
 30
0.0
 40
0.6746151603496753
 50
358.6619723196839118
 51
1.3380277173118971
  0
LINE
  5
1FC51
  8
0
 10
8075.3843114336868894
 20
69.1421219024851155
 30
0.0
 11
8075.3855878037720686
 21
69.1408458336377691
 31
0.0
  0
ARC
  5
1FC52
  8
0
 10
8074.9023646781643038
 20
69.6019030313692326
 30
0.0
 40
0.6678909556978323
 50
313.6417052392391724
 51
316.3447075968314266
  0
LINE
  5
1FC53
  8
0
 10
8075.3633072710399574
 20
69.118570583900663
 30
0.0
 11
8075.3620336415569909
 21
69.1198445154498415
 31
0.0
  0
LINE
  5
1FC54
  8
0
 10
8074.9132668489774005
 20
70.2810828454866794
 30
0.0
 11
8074.9132617220839165
 21
70.2793390537633798
 31
0.0
  0
LINE
  5
1FC55
  8
0
 10
8074.9132668489774005
 20
68.9322176719115589
 30
0.0
 11
8074.9132617220839165
 21
68.9339614636348443
 31
0.0
  0
LINE
  5
1FC56
  8
0
 10
8075.9650711448193761
 20
68.5009408216937175
 30
0.0
 11
8075.9650711448193761
 21
66.0837892733709111
 31
0.0
  0
ARC
  5
1FC57
  8
0
 10
8075.9530711448205693
 20
68.5009408216937175
 30
0.0
 40
0.012
 50
0.0000000000162844
 51
90.0
  0
LINE
  5
1FC58
  8
0
 10
8075.9599331077406532
 20
66.0377228584955276
 30
0.0
 11
8075.9599331077406532
 21
64.4192954331619774
 31
0.0
  0
ARC
  5
1FC59
  8
0
 10
8075.9649089992972222
 20
66.0832849515470286
 30
0.0
 40
0.0005297468004333
 50
72.1767782449650781
 51
143.8045594991070004
  0
ARC
  5
1FC5A
  8
0
 10
8075.9860447259543434
 20
66.0755742084380984
 30
0.0
 40
0.0230076291722402
 50
159.5899985900240097
 51
178.1746996191859864
  0
ARC
  5
1FC5B
  8
0
 10
8078.0041063532826229
 20
65.8920742989484722
 30
0.0
 40
2.049355450058711
 50
174.8422666241785919
 51
175.9245288969271996
  0
ARC
  5
1FC5C
  8
0
 10
8075.9532601212204099
 20
66.0838069633936982
 30
0.0
 40
0.011811023600009
 50
326.4193927896783975
 51
0.0
  0
ARC
  5
1FC5D
  8
0
 10
8074.8966480661556488
 20
69.6920022704261157
 30
0.0
 40
0.5893149479320261
 50
88.3840349391634845
 51
91.4475115748090133
  0
ARC
  5
1FC5E
  8
0
 10
8074.8966480661556488
 20
69.5212982469721794
 30
0.0
 40
0.5893149479320261
 50
268.5524884251909725
 51
271.6159650608365155
  0
LINE
  5
1FC5F
  8
0
 10
8079.6164093317802326
 20
35.7384314349937426
 30
0.0
 11
8101.05142260786306
 21
35.7356079447301767
 31
0.0
  0
LINE
  5
1FC60
  8
0
 10
8098.5113524760499786
 20
55.8172517917244235
 30
0.0
 11
8100.6309204746412433
 21
55.8172517917244235
 31
0.0
  0
LINE
  5
1FC61
  8
0
 10
8075.1681303451032363
 20
52.7355921566244277
 30
0.0
 11
8101.1439330694629462
 21
52.7355921566244277
 31
0.0
  0
LINE
  5
1FC62
  8
0
 10
8078.2190775542067058
 20
52.8340179102440572
 30
0.0
 11
8079.1742042268042496
 21
52.8340179102440572
 31
0.0
  0
ARC
  5
1FC63
  8
0
 10
8073.681675904342228
 20
414.2854516968291136
 30
0.0
 40
361.4314035017313245
 50
270.1786907133878231
 51
270.550027012579676
  0
ARC
  5
1FC64
  8
0
 10
8074.3914989721879465
 20
340.34615127244831
 30
0.0
 40
287.4886884616394127
 50
270.550027012579676
 51
270.8784179972607831
  0
ARC
  5
1FC65
  8
0
 10
8075.2954855530024361
 20
281.3872526208094769
 30
0.0
 40
228.5228600357407913
 50
270.8784179972607831
 51
271.9793023031808161
  0
ARC
  5
1FC66
  8
0
 10
8079.187071613988337
 20
168.7805260558172051
 30
0.0
 40
115.8489086993605071
 50
271.9793023031808161
 51
273.2775899330570724
  0
ARC
  5
1FC67
  8
0
 10
8080.3203466692411894
 20
148.9912796084294087
 30
0.0
 40
96.0272390596377363
 50
273.2775899330570724
 51
274.7440221525064885
  0
ARC
  5
1FC68
  8
0
 10
8084.0903314375218542
 20
103.5635038753756021
 30
0.0
 40
50.44329897976192
 50
274.7440221525064885
 51
276.9950340889766949
  0
ARC
  5
1FC69
  8
0
 10
8084.7947357499706413
 20
97.8224775864723739
 30
0.0
 40
44.6592201174645709
 50
276.9950340889766949
 51
278.7801882874690023
  0
ARC
  5
1FC6A
  8
0
 10
8086.6692436358325722
 20
85.6861373926570309
 30
0.0
 40
32.3789704003708891
 50
278.7801882874690023
 51
280.3175047853932256
  0
ARC
  5
1FC6B
  8
0
 10
8083.5488235960619932
 20
102.8269302500662974
 30
0.0
 40
49.8014788594080215
 50
280.3175047853932256
 51
281.9266795349005861
  0
ARC
  5
1FC6C
  8
0
 10
8153.0158035826289051
 20
-226.0584461894212893
 30
0.0
 40
286.34023551742672
 50
101.6379373592199045
 51
101.9266795349006003
  0
LINE
  5
1FC6D
  8
0
 10
8074.7973212471124498
 20
52.8644680590928786
 30
0.0
 11
8074.3679868112849363
 21
54.3470844291228232
 31
0.0
  0
ARC
  5
1FC6E
  8
0
 10
8074.8088476942712077
 20
52.8678058751245672
 30
0.0
 40
0.012
 50
196.1499016012515142
 51
270.1786907126581809
  0
ARC
  5
1FC6F
  8
0
 10
8071.3754499053620748
 20
328.4173370867623021
 30
0.0
 40
273.937030918825883
 50
270.6493712618748759
 51
271.3083603020954229
  0
ARC
  5
1FC70
  8
0
 10
8073.1744068370126115
 20
249.651019192417408
 30
0.0
 40
195.1501723656703859
 50
271.3083603020954229
 51
272.6298784658632144
  0
ARC
  5
1FC71
  8
0
 10
8077.0620068485832235
 20
165.0134102779929037
 30
0.0
 40
110.4233272892659983
 50
272.6298784658632144
 51
274.5000517131099969
  0
ARC
  5
1FC72
  8
0
 10
8001.3021703248750782
 20
979.5965182471522894
 30
0.0
 40
928.5120452820249284
 50
275.2167428717207258
 51
275.634219864723093
  0
ARC
  5
1FC73
  8
0
 10
8098.0329448038673945
 20
-14.0712139169347097
 30
0.0
 40
69.8639340856769735
 50
92.8447310658827547
 51
94.5744736063315941
  0
ARC
  5
1FC74
  8
0
 10
8098.5576534897891179
 20
-25.0636538458879592
 30
0.0
 40
80.8688718826499979
 50
91.6810700336836248
 51
92.8295071154531399
  0
ARC
  5
1FC75
  8
0
 10
8096.1856306190484247
 20
55.7586177191745307
 30
0.0
 40
0.0118
 50
336.5750183704208212
 51
91.6810700336836533
  0
ARC
  5
1FC76
  8
0
 10
8089.7661091290046897
 20
58.5399164922357613
 30
0.0
 40
7.007933148115943
 50
333.2616811911186119
 51
336.5750183704304845
  0
ARC
  5
1FC77
  8
0
 10
8089.7661768379948626
 20
58.5398823814052918
 30
0.0
 40
7.0078573321813744
 50
325.8081004717590758
 51
333.2616811911186119
  0
ARC
  5
1FC78
  8
0
 10
8095.1536002737802846
 20
54.8797065444711833
 30
0.0
 40
0.4947
 50
281.6379373592193929
 51
325.8081004717590758
  0
ARC
  5
1FC79
  8
0
 10
8089.7661622433779485
 20
58.5398909321212386
 30
0.0
 40
7.0984253945537343
 50
334.9304535480735012
 51
337.0053034021220242
  0
ARC
  5
1FC7A
  8
0
 10
8089.8232349426561996
 20
58.5131931083980987
 30
0.0
 40
7.035416928499683
 50
328.8815760916854174
 51
334.9304535480735012
  0
ARC
  5
1FC7B
  8
0
 10
8089.3614058513257987
 20
58.791988812020108
 30
0.0
 40
7.5748732788718387
 50
323.8009029440848963
 51
328.8815760916854174
  0
ARC
  5
1FC7C
  8
0
 10
8095.6605191689568528
 20
54.5143342003217768
 30
0.0
 40
0.0394
 50
145.8200299150445005
 51
280.7233483256117097
  0
ARC
  5
1FC7D
  8
0
 10
8101.2524057950549832
 20
24.9860716186558101
 30
0.0
 40
30.0136778312460315
 50
97.9458057487033642
 51
100.7233483256630961
  0
ARC
  5
1FC7E
  8
0
 10
8102.3299747496339478
 20
16.2110846467104004
 30
0.0
 40
38.8536512641046912
 50
93.5218157500194138
 51
97.7308019909682741
  0
ARC
  5
1FC7F
  8
0
 10
8103.8311024212025586
 20
-4.9099962932132746
 30
0.0
 40
60.0273928301322428
 50
92.8662767211452262
 51
93.7135307106917139
  0
ARC
  5
1FC80
  8
0
 10
8100.8288364080917745
 20
55.0540852429890393
 30
0.0
 40
0.0118
 50
272.8662767211451978
 51
7.9999999973172429
  0
LINE
  5
1FC81
  8
0
 10
8100.7477721067525636
 20
55.7156742176322481
 30
0.0
 11
8100.8405215713046346
 21
55.0557274855798298
 31
0.0
  0
ARC
  5
1FC82
  8
0
 10
8100.6309204746412433
 20
55.6992517917244214
 30
0.0
 40
0.118
 50
7.9999999973212752
 51
90.0
  0
ARC
  5
1FC83
  8
0
 10
8100.5205389094717248
 20
-102.7665555988654944
 30
0.0
 40
158.5965346299217913
 50
90.7258732521071067
 51
91.52091109434852
  0
ARC
  5
1FC84
  8
0
 10
8096.3114163541813468
 20
55.7623103686838917
 30
0.0
 40
0.0118
 50
91.52091109434852
 51
157.0053034021437952
  0
ARC
  5
1FC85
  8
0
 10
8089.757820587252354
 20
58.5448007572408784
 30
0.0
 40
7.0962401439979113
 50
323.4083358555245127
 51
335.5458782338342871
  0
ARC
  5
1FC86
  8
0
 10
8096.2282200220070081
 20
55.6023246157204909
 30
0.0
 40
0.0118
 50
91.6747961595145995
 51
155.5458782338261869
  0
ARC
  5
1FC87
  8
0
 10
8096.1326153620639161
 20
55.4542856330403282
 30
0.0
 40
0.0118
 50
272.2843263434231176
 51
334.1357861038439978
  0
LINE
  5
1FC88
  8
0
 10
8096.0507531945886512
 20
55.4392107540999675
 30
0.0
 11
8096.1330856918275458
 21
55.4424950100748575
 31
0.0
  0
LINE
  5
1FC89
  8
0
 10
8096.2336574566679701
 20
55.6142886440222313
 30
0.0
 11
8096.2278751487765476
 21
55.6141195749173605
 31
0.0
  0
ARC
  5
1FC8A
  8
0
 10
8081.6231982983108537
 20
131.1476699555855134
 30
0.0
 40
78.255253905587395
 50
274.0603901110187053
 51
274.7505519424046838
  0
ARC
  5
1FC8B
  8
0
 10
8083.0701966922288193
 20
113.7356233392931983
 30
0.0
 40
60.7831855758234312
 50
274.7505519424046838
 51
276.4911200052425784
  0
ARC
  5
1FC8C
  8
0
 10
8085.3730635497258845
 20
93.495731357413689
 30
0.0
 40
40.4127063668919533
 50
276.4911200052425784
 51
279.9084909514565993
  0
ARC
  5
1FC8D
  8
0
 10
8070.4058811861332288
 20
170.5352177516577967
 30
0.0
 40
118.8878425455150989
 50
280.6253117606622141
 51
282.1194343735406846
  0
ARC
  5
1FC8E
  8
0
 10
8101.7872149807581081
 20
21.9410124027359004
 30
0.0
 40
32.9870523149610122
 50
99.5354801874399868
 51
101.2240599387637019
  0
ARC
  5
1FC8F
  8
0
 10
8101.7279748130349617
 20
21.6998175553020083
 30
0.0
 40
33.2152466847838497
 50
94.5300380843799388
 51
99.3657801334403956
  0
ARC
  5
1FC90
  8
0
 10
8103.499311475149625
 20
0.8208312081381379
 30
0.0
 40
54.169037445897672
 50
92.8320815393025782
 51
94.6535215147686557
  0
ARC
  5
1FC91
  8
0
 10
8100.8248190212107147
 20
54.8843562517213286
 30
0.0
 40
0.0394
 50
8.0000000003311502
 51
92.8320815393025782
  0
LINE
  5
1FC92
  8
0
 10
8100.7234292203620498
 20
55.0368990163836784
 30
0.0
 11
8100.7421199649588743
 21
54.9196529401425124
 31
0.0
  0
ARC
  5
1FC93
  8
0
 10
8074.4813302083621238
 20
54.3799062867671879
 30
0.0
 40
0.118
 50
90.6493500302394182
 51
196.14990160093231
  0
ARC
  5
1FC94
  8
0
 10
8970.2667772932909429
 20
295.1174803981296009
 30
0.0
 40
927.6505640546965878
 50
195.1666746221746962
 51
196.2368444222404094
  0
ARC
  5
1FC95
  8
0
 10
8075.1681303451032363
 20
52.4855921566244774
 30
0.0
 40
0.25
 50
90.0
 51
195.6236307067173072
  0
ARC
  5
1FC96
  8
0
 10
8078.0685402422113839
 20
52.6826723426970389
 30
0.0
 40
0.1982983640477478
 50
55.3544544580777682
 51
90.2154337318450388
  0
ARC
  5
1FC97
  8
0
 10
8078.2190775542067058
 20
52.9005179102447514
 30
0.0
 40
0.0665
 50
235.3544544583336062
 51
269.999999999895806
  0
ARC
  5
1FC98
  8
0
 10
8079.3160495077190717
 20
52.6817378538918604
 30
0.0
 40
0.1942389437255902
 50
120.5150484747400981
 51
122.9572166445483958
  0
ARC
  5
1FC99
  8
0
 10
8079.1742042268042496
 20
52.9005179102440479
 30
0.0
 40
0.0665
 50
270.0
 51
302.9572166445494759
  0
ARC
  5
1FC9A
  8
0
 10
8079.1358765133882116
 20
53.4617205092980186
 30
0.0
 40
0.6180497681078539
 50
277.5816968473171755
 51
284.7978577565427827
  0
ARC
  5
1FC9B
  8
0
 10
8079.2559552580678428
 20
53.0071718881078908
 30
0.0
 40
0.1479079236080305
 50
284.7978577565427827
 51
295.4327785717546249
  0
ARC
  5
1FC9C
  8
0
 10
8079.3096443090080356
 20
52.8942697522031082
 30
0.0
 40
0.0228902989194411
 50
295.4327785717539996
 51
319.6533199846938942
  0
ARC
  5
1FC9D
  8
0
 10
8079.3235679716817685
 20
52.8820375606270972
 30
0.0
 40
0.0043701386635375
 50
323.6990506096680065
 51
68.3413281419908429
  0
ARC
  5
1FC9E
  8
0
 10
8079.1876835870516516
 20
52.1655000744514723
 30
0.0
 40
0.7335997234927043
 50
79.1972632810742851
 51
87.1183094544425956
  0
ARC
  5
1FC9F
  8
0
 10
8075.7300251271281013
 20
50.4709922318369593
 30
0.0
 40
2.4034093981150102
 50
70.4320185054662034
 51
84.027625070111938
  0
LINE
  5
1FCA0
  8
0
 10
8079.1359980370561971
 20
52.8093654854844274
 30
0.0
 11
8078.25712709542222
 21
52.8093654854844274
 31
0.0
  0
LINE
  5
1FCA1
  8
0
 10
8078.2436744311416987
 20
52.8340179102440572
 30
0.0
 11
8078.2436744311416987
 21
52.8280630975734269
 31
0.0
  0
LINE
  5
1FCA2
  8
0
 10
8079.1491862421416954
 20
52.8340179102440572
 30
0.0
 11
8079.1491862421416954
 21
52.8279634053484131
 31
0.0
  0
ARC
  5
1FCA3
  8
0
 10
8078.6800287844380364
 20
54.024069748568543
 30
0.0
 40
1.2974646068724891
 50
276.7475887084805777
 51
290.5945703245815821
  0
ARC
  5
1FCA4
  8
0
 10
8079.1294862421427752
 20
52.8279634053484131
 30
0.0
 40
0.0197
 50
290.5945703245820937
 51
0.0
  0
ARC
  5
1FCA5
  8
0
 10
8078.7149154002827345
 20
54.0275775391312507
 30
0.0
 40
1.3013880050616331
 50
249.3718327805144099
 51
263.1083920548633728
  0
ARC
  5
1FCA6
  8
0
 10
8078.263374431140619
 20
52.8280630975734269
 30
0.0
 40
0.0197
 50
180.0
 51
249.3718327805148078
  0
LINE
  5
1FCA7
  8
0
 10
8084.968968316918108
 20
52.7749623322244332
 30
0.0
 11
8085.8677428012888413
 21
52.7749623322244332
 31
0.0
  0
ARC
  5
1FCA8
  8
0
 10
8084.7190768335203757
 20
52.8415025315669808
 30
0.0
 40
0.2228184631387963
 50
97.582142315141482
 51
103.8341371356338954
  0
ARC
  5
1FCA9
  8
0
 10
8084.6702972296116059
 20
53.0409439222852583
 30
0.0
 40
0.017501684472269
 50
104.8956381240432023
 51
126.5441000015578936
  0
ARC
  5
1FCAA
  8
0
 10
8084.6617478343187031
 20
53.0522464384832588
 30
0.0
 40
0.0033334754243109
 50
124.1613527285687013
 51
211.6973815531472098
  0
ARC
  5
1FCAB
  8
0
 10
8084.7087106164899524
 20
53.1044785807614232
 30
0.0
 40
0.0734450672280801
 50
227.3089822525207921
 51
250.8310850200585946
  0
ARC
  5
1FCAC
  8
0
 10
8085.0550149794353274
 20
53.9815707336402326
 30
0.0
 40
1.0163696685756689
 50
248.6259927416975017
 51
256.5991621179131243
  0
ARC
  5
1FCAD
  8
0
 10
8084.670719525169261
 20
52.8087799595542933
 30
0.0
 40
0.2366730762928203
 50
5.5883591223462474
 51
51.0634375838990806
  0
ARC
  5
1FCAE
  8
0
 10
8086.2385859117903237
 20
53.2460025243142994
 30
0.0
 40
0.1006346086979499
 50
263.9352688085896261
 51
268.8243900505469242
  0
ARC
  5
1FCAF
  8
0
 10
8086.2360377805098324
 20
53.1372516388756893
 30
0.0
 40
0.0081518066124209
 50
69.7203974457995486
 51
86.6001790635489783
  0
ARC
  5
1FCB0
  8
0
 10
8086.2385945620817438
 20
53.1445203114708207
 30
0.0
 40
0.0004635971948988
 50
293.2150600417169244
 51
54.5854967576907697
  0
ARC
  5
1FCB1
  8
0
 10
8083.7594863023186917
 20
60.5827576585582079
 30
0.0
 40
7.84095639353212
 50
287.3400857505098998
 51
288.433122400515515
  0
ARC
  5
1FCB2
  8
0
 10
8086.2713384108374157
 20
52.8042656131225385
 30
0.0
 40
0.3419998579309174
 50
120.7596524046980022
 51
175.2273704478668037
  0
ARC
  5
1FCB3
  8
0
 10
8084.968968316918108
 20
52.8379623322245635
 30
0.0
 40
0.063
 50
185.588359122466386
 51
269.9999999999478746
  0
ARC
  5
1FCB4
  8
0
 10
8085.8677428012888413
 20
52.8379623322246985
 30
0.0
 40
0.063
 50
270.000000000104194
 51
355.2273704476331773
  0
LINE
  5
1FCB5
  8
0
 10
8087.1336631582171321
 20
53.0704166111611926
 30
0.0
 11
8086.9432748116287257
 21
52.7657315661283306
 31
0.0
  0
ARC
  5
1FCB6
  8
0
 10
8087.1670762532066874
 20
53.0495377921533375
 30
0.0
 40
0.0394
 50
94.0603901111231693
 51
148.0000000051028906
  0
ARC
  5
1FCB7
  8
0
 10
8086.9599813591230486
 20
52.7552921566244279
 30
0.0
 40
0.0197
 50
148.0000000051174993
 51
270.0
  0
ARC
  5
1FCB8
  8
0
 10
8080.5527553377178265
 20
114.7177300273257003
 30
0.0
 40
62.1238923968317209
 50
274.9653460275459906
 51
276.0020342532685049
  0
LINE
  5
1FCB9
  8
0
 10
8100.8638355831189983
 20
54.8898396718993808
 30
0.0
 11
8101.163441350417088
 21
52.758033866713447
 31
0.0
  0
ARC
  5
1FCBA
  8
0
 10
8101.1439330694629462
 20
52.7552921566244208
 30
0.0
 40
0.0197
 50
270.0
 51
8.0000000003456648
  0
LINE
  5
1FCBB
  8
0
 10
8101.1636330694627759
 20
52.499392156624431
 30
0.0
 11
8101.1712273179018666
 21
35.8526843242157511
 31
0.0
  0
ARC
  5
1FCBC
  8
0
 10
8100.9274330694634045
 20
52.4993921566244168
 30
0.0
 40
0.2362
 50
0.0000000000008142
 51
90.0
  0
CIRCLE
  5
1FCBD
  8
0
 10
8085.2609231454398468
 20
39.342913208124429
 30
0.0
 40
0.7353857254392092
  0
ARC
  5
1FCBE
  8
0
 10
8097.0513144872720659
 20
53.7055040982376326
 30
0.0
 40
1.674473647688751
 50
175.4192514647133976
 51
179.2390088312463945
  0
ARC
  5
1FCBF
  8
0
 10
8095.7046804643123323
 20
53.8028763989078911
 30
0.0
 40
0.3245340037107319
 50
156.2480323431248905
 51
173.5675938117601902
  0
ARC
  5
1FCC0
  8
0
 10
8095.6226548148852089
 20
53.8389719108259186
 30
0.0
 40
0.234917637212238
 50
135.060156170933908
 51
156.2480323431242084
  0
ARC
  5
1FCC1
  8
0
 10
8095.6228423639067842
 20
53.8387847552140926
 30
0.0
 40
0.235182593546572
 50
110.2618566297076939
 51
135.0601561709343912
  0
ARC
  5
1FCC2
  8
0
 10
8095.6691706489727949
 20
53.7132864261412024
 30
0.0
 40
0.3689590511058397
 50
95.5140284291850463
 51
110.2618566297076939
  0
ARC
  5
1FCC3
  8
0
 10
8095.8068900476600902
 20
50.5672739275162115
 30
0.0
 40
3.5175296032374819
 50
91.1951125632967745
 51
92.821885120336816
  0
ARC
  5
1FCC4
  8
0
 10
8095.7498711160869789
 20
52.6249182204259469
 30
0.0
 40
1.475833099057551
 50
90.6346341000163847
 51
95.6458819539703029
  0
ARC
  5
1FCC5
  8
0
 10
8095.6492163249959049
 20
53.7835289722568817
 30
0.0
 40
0.3132453342503886
 50
98.1740515917406782
 51
117.0418848474144937
  0
ARC
  5
1FCC6
  8
0
 10
8095.6205774862928592
 20
53.8396344262830979
 30
0.0
 40
0.2502532311441311
 50
117.0418848474140958
 51
139.9834873036820966
  0
ARC
  5
1FCC7
  8
0
 10
8095.6241667574740859
 20
53.836620906970289
 30
0.0
 40
0.2549398254577407
 50
139.9834873036820966
 51
160.1008512439181004
  0
ARC
  5
1FCC8
  8
0
 10
8095.7461558799768682
 20
53.7924635109774982
 30
0.0
 40
0.3846750235734682
 50
160.1008512439181004
 51
174.1840481659693012
  0
ARC
  5
1FCC9
  8
0
 10
8097.2562293292294271
 20
53.7046630849534523
 30
0.0
 40
1.8970096156235099
 50
176.1679563940161017
 51
179.3028810593368121
  0
ARC
  5
1FCCA
  8
0
 10
8095.747595631153672
 20
52.2987009196129193
 30
0.0
 40
1.813856828960247
 50
90.4444823040493446
 51
93.1360012533379518
  0
ARC
  5
1FCCB
  8
0
 10
8095.6829991767053798
 20
53.6210194586313804
 30
0.0
 40
0.4900473500177409
 50
94.0526061800911179
 51
105.5547753456076947
  0
ARC
  5
1FCCC
  8
0
 10
8095.6195158812070076
 20
53.8490859313269965
 30
0.0
 40
0.2533102705916039
 50
105.5547753456076947
 51
126.046970275268194
  0
ARC
  5
1FCCD
  8
0
 10
8095.6417387156334371
 20
53.8185514949621719
 30
0.0
 40
0.2910754155544836
 50
126.046970275268194
 51
144.1266934149813892
  0
ARC
  5
1FCCE
  8
0
 10
8095.6140910168887785
 20
53.8385454674962816
 30
0.0
 40
0.256955711812532
 50
144.1266934149817871
 51
166.7201622432691011
  0
ARC
  5
1FCCF
  8
0
 10
8095.931019127545369
 20
53.7637445853466716
 30
0.0
 40
0.5825913967335503
 50
166.7201622432691011
 51
177.5312127036451955
  0
ARC
  5
1FCD0
  8
0
 10
8097.9490295027198954
 20
53.7044228760635818
 30
0.0
 40
2.6014310641894078
 50
178.1404150495517058
 51
179.4863636493390118
  0
ARC
  5
1FCD1
  8
0
 10
8097.0513144872720659
 20
53.749982843611221
 30
0.0
 40
1.674473647688751
 50
180.7609911687534918
 51
184.5807485352858066
  0
ARC
  5
1FCD2
  8
0
 10
8095.7046804643123323
 20
53.6526105429409697
 30
0.0
 40
0.3245340037107319
 50
186.4324061882396961
 51
203.7519676568749958
  0
ARC
  5
1FCD3
  8
0
 10
8095.6226548148852089
 20
53.6165150310229421
 30
0.0
 40
0.234917637212238
 50
203.7519676568757916
 51
224.939843829066092
  0
ARC
  5
1FCD4
  8
0
 10
8095.6228423639067842
 20
53.6167021866347682
 30
0.0
 40
0.235182593546572
 50
224.9398438290652109
 51
249.7381433702921925
  0
ARC
  5
1FCD5
  8
0
 10
8095.6691706489727949
 20
53.7422005157076583
 30
0.0
 40
0.3689590511058397
 50
249.7381433702921925
 51
264.4859715708150247
  0
ARC
  5
1FCD6
  8
0
 10
8095.8068900476600902
 20
56.8882130143326421
 30
0.0
 40
3.5175296032374819
 50
267.1781148796632124
 51
268.8048874367032113
  0
ARC
  5
1FCD7
  8
0
 10
8095.7498711160869789
 20
54.8305687214229067
 30
0.0
 40
1.475833099057551
 50
264.3541180460297255
 51
269.3653658999836011
  0
ARC
  5
1FCD8
  8
0
 10
8095.6492163249959049
 20
53.671957969591972
 30
0.0
 40
0.3132453342503886
 50
242.9581151525854921
 51
261.8259484082593076
  0
ARC
  5
1FCD9
  8
0
 10
8095.6205774862928592
 20
53.6158525155657628
 30
0.0
 40
0.2502532311441311
 50
220.0165126963179034
 51
242.9581151525858047
  0
ARC
  5
1FCDA
  8
0
 10
8095.6241667574740859
 20
53.6188660348785717
 30
0.0
 40
0.2549398254577407
 50
199.8991487560818996
 51
220.0165126963179034
  0
ARC
  5
1FCDB
  8
0
 10
8095.7461558799768682
 20
53.6630234308713625
 30
0.0
 40
0.3846750235734682
 50
185.815951834029903
 51
199.8991487560818996
  0
ARC
  5
1FCDC
  8
0
 10
8097.2562293292294271
 20
53.7508238568954084
 30
0.0
 40
1.8970096156235099
 50
180.6971189406623068
 51
183.8320436059831025
  0
ARC
  5
1FCDD
  8
0
 10
8095.747595631153672
 20
55.1567860222359272
 30
0.0
 40
1.813856828960247
 50
266.8639987466621051
 51
269.5555176959505843
  0
ARC
  5
1FCDE
  8
0
 10
8095.6829991767053798
 20
53.8344674832174803
 30
0.0
 40
0.4900473500177409
 50
254.4452246543922911
 51
265.9473938199088821
  0
ARC
  5
1FCDF
  8
0
 10
8095.6195158812070076
 20
53.6064010105218571
 30
0.0
 40
0.2533102705916039
 50
233.9530297247316923
 51
254.4452246543922911
  0
ARC
  5
1FCE0
  8
0
 10
8095.6417387156334371
 20
53.6369354468866817
 30
0.0
 40
0.2910754155544836
 50
215.8733065850184971
 51
233.9530297247316923
  0
ARC
  5
1FCE1
  8
0
 10
8095.6140910168887785
 20
53.6169414743525792
 30
0.0
 40
0.256955711812532
 50
193.2798377567308137
 51
215.8733065850180139
  0
ARC
  5
1FCE2
  8
0
 10
8095.931019127545369
 20
53.6917423565021892
 30
0.0
 40
0.5825913967335503
 50
182.4687872963546909
 51
193.2798377567308137
  0
ARC
  5
1FCE3
  8
0
 10
8097.9490295027198954
 20
53.751064065785279
 30
0.0
 40
2.6014310641894078
 50
180.513636350660903
 51
181.8595849504482942
  0
ARC
  5
1FCE4
  8
0
 10
8094.4157344168106647
 20
53.7055040982376326
 30
0.0
 40
1.674473647688751
 50
0.7609911687535711
 51
4.5807485352857871
  0
ARC
  5
1FCE5
  8
0
 10
8095.7623684397713077
 20
53.8028763989078911
 30
0.0
 40
0.3245340037107319
 50
6.4324061882405372
 51
23.7519676568758094
  0
ARC
  5
1FCE6
  8
0
 10
8095.8443940891984312
 20
53.8389719108259186
 30
0.0
 40
0.234917637212238
 50
23.7519676568765483
 51
44.9398438290658007
  0
ARC
  5
1FCE7
  8
0
 10
8095.8442065401759464
 20
53.8387847552140926
 30
0.0
 40
0.235182593546572
 50
44.9398438290658007
 51
69.7381433702922209
  0
ARC
  5
1FCE8
  8
0
 10
8095.7978782551099357
 20
53.7132864261412024
 30
0.0
 40
0.3689590511058397
 50
69.7381433703413194
 51
84.4859715708149253
  0
ARC
  5
1FCE9
  8
0
 10
8095.6601588564226404
 20
50.5672739275162115
 30
0.0
 40
3.5175296032374819
 50
87.1781148796631555
 51
88.8048874367032255
  0
ARC
  5
1FCEA
  8
0
 10
8095.7171777879975707
 20
52.6249182204259469
 30
0.0
 40
1.475833099057551
 50
84.3541180460297113
 51
89.3653658999836153
  0
ARC
  5
1FCEB
  8
0
 10
8095.8178325790877352
 20
53.7835289722568817
 30
0.0
 40
0.3132453342503886
 50
62.9581151525855276
 51
81.8259484082593076
  0
ARC
  5
1FCEC
  8
0
 10
8095.8464714177907808
 20
53.8396344262830979
 30
0.0
 40
0.2502532311441311
 50
40.0165126963182729
 51
62.9581151525858971
  0
ARC
  5
1FCED
  8
0
 10
8095.8428821466113732
 20
53.836620906970289
 30
0.0
 40
0.2549398254577407
 50
19.8991487560819387
 51
40.0165126963175766
  0
ARC
  5
1FCEE
  8
0
 10
8095.7208930241058624
 20
53.7924635109774982
 30
0.0
 40
0.3846750235734682
 50
5.8159518340299003
 51
19.8991487560819387
  0
ARC
  5
1FCEF
  8
0
 10
8094.210819574856032
 20
53.7046630849534523
 30
0.0
 40
1.8970096156235099
 50
0.6971189406631657
 51
3.8320436059831189
  0
ARC
  5
1FCF0
  8
0
 10
8095.7194532729308776
 20
52.2987009196129193
 30
0.0
 40
1.813856828960247
 50
86.8639987466620482
 51
89.5555176959506412
  0
ARC
  5
1FCF1
  8
0
 10
8095.7840497273791698
 20
53.6210194586313804
 30
0.0
 40
0.4900473500177409
 50
74.4452246543922485
 51
85.9473938199088963
  0
ARC
  5
1FCF2
  8
0
 10
8095.8475330228784514
 20
53.8490859313269965
 30
0.0
 40
0.2533102705916039
 50
53.9530297247314223
 51
74.4452246543923906
  0
ARC
  5
1FCF3
  8
0
 10
8095.825310188450203
 20
53.8185514949621719
 30
0.0
 40
0.2910754155544836
 50
35.8733065850185397
 51
53.9530297247314223
  0
ARC
  5
1FCF4
  8
0
 10
8095.852957887193952
 20
53.8385454674962816
 30
0.0
 40
0.256955711812532
 50
13.2798377567308901
 51
35.8733065850185397
  0
ARC
  5
1FCF5
  8
0
 10
8095.5360297765373616
 20
53.7637445853466716
 30
0.0
 40
0.5825913967335503
 50
2.4687872963547721
 51
13.2798377567308901
  0
ARC
  5
1FCF6
  8
0
 10
8093.5180194013628352
 20
53.7044228760635818
 30
0.0
 40
2.6014310641894078
 50
0.5136363506609668
 51
1.8595849504483239
  0
ARC
  5
1FCF7
  8
0
 10
8094.4157344168106647
 20
53.749982843611221
 30
0.0
 40
1.674473647688751
 50
355.4192514647133976
 51
359.2390088312455987
  0
ARC
  5
1FCF8
  8
0
 10
8095.7623684397713077
 20
53.6526105429409697
 30
0.0
 40
0.3245340037107319
 50
336.24803234312418
 51
353.5675938117594228
  0
ARC
  5
1FCF9
  8
0
 10
8095.8443940891984312
 20
53.6165150310229421
 30
0.0
 40
0.234917637212238
 50
315.0601561709340785
 51
336.2480323431233842
  0
ARC
  5
1FCFA
  8
0
 10
8095.8442065401759464
 20
53.6167021866347682
 30
0.0
 40
0.235182593546572
 50
290.2618566297077791
 51
315.0601561709340785
  0
ARC
  5
1FCFB
  8
0
 10
8095.7978782551099357
 20
53.7422005157076583
 30
0.0
 40
0.3689590511058397
 50
275.514028429185089
 51
290.2618566296587233
  0
ARC
  5
1FCFC
  8
0
 10
8095.6601588564226404
 20
56.8882130143326421
 30
0.0
 40
3.5175296032374819
 50
271.1951125632967887
 51
272.8218851203369013
  0
ARC
  5
1FCFD
  8
0
 10
8095.7171777879975707
 20
54.8305687214229067
 30
0.0
 40
1.475833099057551
 50
270.6346341000163989
 51
275.6458819539702745
  0
ARC
  5
1FCFE
  8
0
 10
8095.8178325790877352
 20
53.671957969591972
 30
0.0
 40
0.3132453342503886
 50
278.1740515917406924
 51
297.0418848474145079
  0
ARC
  5
1FCFF
  8
0
 10
8095.8464714177907808
 20
53.6158525155657628
 30
0.0
 40
0.2502532311441311
 50
297.04188484741411
 51
319.9834873036817271
  0
ARC
  5
1FD00
  8
0
 10
8095.8428821466113732
 20
53.6188660348785717
 30
0.0
 40
0.2549398254577407
 50
319.9834873036824092
 51
340.1008512439179867
  0
ARC
  5
1FD01
  8
0
 10
8095.7208930241058624
 20
53.6630234308713625
 30
0.0
 40
0.3846750235734682
 50
340.1008512439179867
 51
354.1840481659693864
  0
ARC
  5
1FD02
  8
0
 10
8094.210819574856032
 20
53.7508238568954084
 30
0.0
 40
1.8970096156235099
 50
356.1679563940160733
 51
359.3028810593369258
  0
ARC
  5
1FD03
  8
0
 10
8095.7194532729308776
 20
55.1567860222359272
 30
0.0
 40
1.813856828960247
 50
270.4444823040494157
 51
273.1360012533380086
  0
ARC
  5
1FD04
  8
0
 10
8095.7840497273791698
 20
53.8344674832174803
 30
0.0
 40
0.4900473500177409
 50
274.0526061800911179
 51
285.5547753456077089
  0
ARC
  5
1FD05
  8
0
 10
8095.8475330228784514
 20
53.6064010105218571
 30
0.0
 40
0.2533102705916039
 50
285.5547753456075952
 51
306.0469702752686771
  0
ARC
  5
1FD06
  8
0
 10
8095.825310188450203
 20
53.6369354468866817
 30
0.0
 40
0.2910754155544836
 50
306.0469702752686771
 51
324.1266934149813892
  0
ARC
  5
1FD07
  8
0
 10
8095.852957887193952
 20
53.6169414743525792
 30
0.0
 40
0.256955711812532
 50
324.1266934149813892
 51
346.7201622432683052
  0
ARC
  5
1FD08
  8
0
 10
8095.5360297765373616
 20
53.6917423565021892
 30
0.0
 40
0.5825913967335503
 50
346.7201622432683052
 51
357.5312127036452239
  0
ARC
  5
1FD09
  8
0
 10
8093.5180194013628352
 20
53.751064065785279
 30
0.0
 40
2.6014310641894078
 50
358.1404150495516774
 51
359.4863636493390118
  0
ARC
  5
1FD0A
  8
0
 10
8095.7335620466428736
 20
53.7275100922236319
 30
0.0
 40
0.3939374253008433
 50
104.6838626301310029
 51
113.9558399412554053
  0
ARC
  5
1FD0B
  8
0
 10
8095.7335244609430447
 20
53.7268161780244284
 30
0.0
 40
0.4133858267999957
 50
119.9894624836838943
 51
150.1726632604180054
  0
ARC
  5
1FD0C
  8
0
 10
8095.7337284002442175
 20
53.7276546407237703
 30
0.0
 40
0.3939205909019583
 50
156.3053776412467926
 51
166.0660672196547125
  0
ARC
  5
1FD0D
  8
0
 10
8095.733486857441676
 20
53.7275100922236319
 30
0.0
 40
0.3939374253008433
 50
66.0441600587448789
 51
75.3161373698688692
  0
ARC
  5
1FD0E
  8
0
 10
8095.7335244431424144
 20
53.7268161780244284
 30
0.0
 40
0.4133858267999957
 50
29.8273367395813587
 51
60.010537516316063
  0
ARC
  5
1FD0F
  8
0
 10
8095.7333205038412416
 20
53.7276546407237703
 30
0.0
 40
0.3939205909019583
 50
13.9339327803452804
 51
23.6946223587531399
  0
ARC
  5
1FD10
  8
0
 10
8095.7335620466428736
 20
53.7279768496334782
 30
0.0
 40
0.3939374253008433
 50
246.0441600587446089
 51
255.3161373698688976
  0
ARC
  5
1FD11
  8
0
 10
8095.7335244609430447
 20
53.7286707638326817
 30
0.0
 40
0.4133858267999957
 50
209.8273367395819946
 51
240.010537516315992
  0
ARC
  5
1FD12
  8
0
 10
8095.7337284002442175
 20
53.7278323011333399
 30
0.0
 40
0.3939205909019583
 50
193.9339327803452022
 51
203.6946223587530937
  0
ARC
  5
1FD13
  8
0
 10
8095.733486857441676
 20
53.7279768496334782
 30
0.0
 40
0.3939374253008433
 50
284.6838626301309887
 51
293.9558399412550784
  0
ARC
  5
1FD14
  8
0
 10
8095.7335244431424144
 20
53.7286707638326817
 30
0.0
 40
0.4133858267999957
 50
299.9894624836838943
 51
330.1726632604185738
  0
ARC
  5
1FD15
  8
0
 10
8095.7333205038412416
 20
53.7278323011333399
 30
0.0
 40
0.3939205909019583
 50
336.3053776412468778
 51
346.0660672196539167
  0
ARC
  5
1FD16
  8
0
 10
8098.1143066397726216
 20
53.8893540076127024
 30
0.0
 40
1.674473647688751
 50
175.4192514647133976
 51
179.2390088312463945
  0
ARC
  5
1FD17
  8
0
 10
8096.767672616811069
 20
53.9867263082829467
 30
0.0
 40
0.3245340037107319
 50
156.2480323431248905
 51
173.5675938117601902
  0
ARC
  5
1FD18
  8
0
 10
8096.6856469673848551
 20
54.0228218202009813
 30
0.0
 40
0.234917637212238
 50
135.060156170933908
 51
156.2480323431242084
  0
ARC
  5
1FD19
  8
0
 10
8096.6858345164064303
 20
54.0226346645891482
 30
0.0
 40
0.235182593546572
 50
110.2618566297076939
 51
135.0601561709343912
  0
ARC
  5
1FD1A
  8
0
 10
8096.7321628014733506
 20
53.897136335516258
 30
0.0
 40
0.3689590511058397
 50
95.5140284291850463
 51
110.2618566297076939
  0
ARC
  5
1FD1B
  8
0
 10
8096.8698822001579174
 20
50.7511238368912672
 30
0.0
 40
3.5175296032374819
 50
91.1951125632967745
 51
92.821885120336816
  0
ARC
  5
1FD1C
  8
0
 10
8096.8128632685866251
 20
52.8087681298010168
 30
0.0
 40
1.475833099057551
 50
90.6346341000163847
 51
95.6458819539703029
  0
ARC
  5
1FD1D
  8
0
 10
8096.7122084774955511
 20
53.9673788816319373
 30
0.0
 40
0.3132453342503886
 50
98.1740515917406782
 51
117.0418848474144937
  0
ARC
  5
1FD1E
  8
0
 10
8096.6835696387934149
 20
54.0234843356581607
 30
0.0
 40
0.2502532311441311
 50
117.0418848474140958
 51
139.9834873036820966
  0
ARC
  5
1FD1F
  8
0
 10
8096.6871589099737321
 20
54.0204708163453517
 30
0.0
 40
0.2549398254577407
 50
139.9834873036820966
 51
160.1008512439181004
  0
ARC
  5
1FD20
  8
0
 10
8096.8091480324774238
 20
53.976313420352561
 30
0.0
 40
0.3846750235734682
 50
160.1008512439181004
 51
174.1840481659693012
  0
ARC
  5
1FD21
  8
0
 10
8098.3192214817290733
 20
53.8885129943285008
 30
0.0
 40
1.8970096156235099
 50
176.1679563940161017
 51
179.3028810593368121
  0
ARC
  5
1FD22
  8
0
 10
8096.8105877836542277
 20
52.4825508289879892
 30
0.0
 40
1.813856828960247
 50
90.4444823040493446
 51
93.1360012533379518
  0
ARC
  5
1FD23
  8
0
 10
8096.745991329205026
 20
53.8048693680064432
 30
0.0
 40
0.4900473500177409
 50
94.0526061800911179
 51
105.5547753456076947
  0
ARC
  5
1FD24
  8
0
 10
8096.6825080337066538
 20
54.0329358407020734
 30
0.0
 40
0.2533102705916039
 50
105.5547753456076947
 51
126.046970275268194
  0
ARC
  5
1FD25
  8
0
 10
8096.7047308681330833
 20
54.0024014043372276
 30
0.0
 40
0.2910754155544836
 50
126.046970275268194
 51
144.1266934149813892
  0
ARC
  5
1FD26
  8
0
 10
8096.6770831693911532
 20
54.0223953768713301
 30
0.0
 40
0.256955711812532
 50
144.1266934149817871
 51
166.7201622432691011
  0
ARC
  5
1FD27
  8
0
 10
8096.9940112800450152
 20
53.9475944947217272
 30
0.0
 40
0.5825913967335503
 50
166.7201622432691011
 51
177.5312127036451955
  0
ARC
  5
1FD28
  8
0
 10
8099.0120216552186321
 20
53.8882727854386374
 30
0.0
 40
2.6014310641894078
 50
178.1404150495517058
 51
179.4863636493390118
  0
ARC
  5
1FD29
  8
0
 10
8098.1143066397726216
 20
53.9338327529862767
 30
0.0
 40
1.674473647688751
 50
180.7609911687534918
 51
184.5807485352858066
  0
ARC
  5
1FD2A
  8
0
 10
8096.767672616811069
 20
53.8364604523160324
 30
0.0
 40
0.3245340037107319
 50
186.4324061882396961
 51
203.7519676568749958
  0
ARC
  5
1FD2B
  8
0
 10
8096.6856469673848551
 20
53.8003649403979978
 30
0.0
 40
0.234917637212238
 50
203.7519676568757916
 51
224.939843829066092
  0
ARC
  5
1FD2C
  8
0
 10
8096.6858345164064303
 20
53.800552096009838
 30
0.0
 40
0.235182593546572
 50
224.9398438290652109
 51
249.7381433702921925
  0
ARC
  5
1FD2D
  8
0
 10
8096.7321628014733506
 20
53.9260504250827211
 30
0.0
 40
0.3689590511058397
 50
249.7381433702921925
 51
264.4859715708150247
  0
ARC
  5
1FD2E
  8
0
 10
8096.8698822001579174
 20
57.0720629237077119
 30
0.0
 40
3.5175296032374819
 50
267.1781148796632124
 51
268.8048874367032113
  0
ARC
  5
1FD2F
  8
0
 10
8096.8128632685866251
 20
55.0144186307979695
 30
0.0
 40
1.475833099057551
 50
264.3541180460297255
 51
269.3653658999836011
  0
ARC
  5
1FD30
  8
0
 10
8096.7122084774955511
 20
53.8558078789670418
 30
0.0
 40
0.3132453342503886
 50
242.9581151525854921
 51
261.8259484082593076
  0
ARC
  5
1FD31
  8
0
 10
8096.6835696387934149
 20
53.7997024249408184
 30
0.0
 40
0.2502532311441311
 50
220.0165126963179034
 51
242.9581151525858047
  0
ARC
  5
1FD32
  8
0
 10
8096.6871589099737321
 20
53.8027159442536274
 30
0.0
 40
0.2549398254577407
 50
199.8991487560818996
 51
220.0165126963179034
  0
ARC
  5
1FD33
  8
0
 10
8096.8091480324774238
 20
53.8468733402464323
 30
0.0
 40
0.3846750235734682
 50
185.815951834029903
 51
199.8991487560818996
  0
ARC
  5
1FD34
  8
0
 10
8098.3192214817290733
 20
53.9346737662704783
 30
0.0
 40
1.8970096156235099
 50
180.6971189406623068
 51
183.8320436059831025
  0
ARC
  5
1FD35
  8
0
 10
8096.8105877836542277
 20
55.340635931610997
 30
0.0
 40
1.813856828960247
 50
266.8639987466621051
 51
269.5555176959505843
  0
ARC
  5
1FD36
  8
0
 10
8096.745991329205026
 20
54.0183173925925431
 30
0.0
 40
0.4900473500177409
 50
254.4452246543922911
 51
265.9473938199088821
  0
ARC
  5
1FD37
  8
0
 10
8096.6825080337066538
 20
53.7902509198969128
 30
0.0
 40
0.2533102705916039
 50
233.9530297247316923
 51
254.4452246543922911
  0
ARC
  5
1FD38
  8
0
 10
8096.7047308681330833
 20
53.8207853562617515
 30
0.0
 40
0.2910754155544836
 50
215.8733065850184971
 51
233.9530297247316923
  0
ARC
  5
1FD39
  8
0
 10
8096.6770831693911532
 20
53.800791383727649
 30
0.0
 40
0.256955711812532
 50
193.2798377567308137
 51
215.8733065850180139
  0
ARC
  5
1FD3A
  8
0
 10
8096.9940112800450152
 20
53.8755922658772519
 30
0.0
 40
0.5825913967335503
 50
182.4687872963546909
 51
193.2798377567308137
  0
ARC
  5
1FD3B
  8
0
 10
8099.0120216552186321
 20
53.9349139751603488
 30
0.0
 40
2.6014310641894078
 50
180.513636350660903
 51
181.8595849504482942
  0
ARC
  5
1FD3C
  8
0
 10
8095.4787265693094014
 20
53.8893540076127024
 30
0.0
 40
1.674473647688751
 50
0.7609911687535711
 51
4.5807485352857871
  0
ARC
  5
1FD3D
  8
0
 10
8096.8253605922727729
 20
53.9867263082829467
 30
0.0
 40
0.3245340037107319
 50
6.4324061882405372
 51
23.7519676568758094
  0
ARC
  5
1FD3E
  8
0
 10
8096.9073862416980774
 20
54.0228218202009813
 30
0.0
 40
0.234917637212238
 50
23.7519676568765483
 51
44.9398438290658007
  0
ARC
  5
1FD3F
  8
0
 10
8096.9071986926755926
 20
54.0226346645891482
 30
0.0
 40
0.235182593546572
 50
44.9398438290658007
 51
69.7381433702922209
  0
ARC
  5
1FD40
  8
0
 10
8096.8608704076095819
 20
53.897136335516258
 30
0.0
 40
0.3689590511058397
 50
69.7381433703413194
 51
84.4859715708149253
  0
ARC
  5
1FD41
  8
0
 10
8096.723151008925015
 20
50.7511238368912672
 30
0.0
 40
3.5175296032374819
 50
87.1781148796631555
 51
88.8048874367032255
  0
ARC
  5
1FD42
  8
0
 10
8096.7801699404972169
 20
52.8087681298010168
 30
0.0
 40
1.475833099057551
 50
84.3541180460297113
 51
89.3653658999836153
  0
ARC
  5
1FD43
  8
0
 10
8096.8808247315882909
 20
53.9673788816319373
 30
0.0
 40
0.3132453342503886
 50
62.9581151525855276
 51
81.8259484082593076
  0
ARC
  5
1FD44
  8
0
 10
8096.909463570288608
 20
54.0234843356581607
 30
0.0
 40
0.2502532311441311
 50
40.0165126963182729
 51
62.9581151525858971
  0
ARC
  5
1FD45
  8
0
 10
8096.9058742991092004
 20
54.0204708163453517
 30
0.0
 40
0.2549398254577407
 50
19.8991487560819387
 51
40.0165126963175766
  0
ARC
  5
1FD46
  8
0
 10
8096.7838851766064181
 20
53.976313420352561
 30
0.0
 40
0.3846750235734682
 50
5.8159518340299003
 51
19.8991487560819387
  0
ARC
  5
1FD47
  8
0
 10
8095.2738117273556782
 20
53.8885129943285008
 30
0.0
 40
1.8970096156235099
 50
0.6971189406631657
 51
3.8320436059831189
  0
ARC
  5
1FD48
  8
0
 10
8096.7824454254296143
 20
52.4825508289879892
 30
0.0
 40
1.813856828960247
 50
86.8639987466620482
 51
89.5555176959506412
  0
ARC
  5
1FD49
  8
0
 10
8096.847041879878816
 20
53.8048693680064432
 30
0.0
 40
0.4900473500177409
 50
74.4452246543922485
 51
85.9473938199088963
  0
ARC
  5
1FD4A
  8
0
 10
8096.9105251753780976
 20
54.0329358407020734
 30
0.0
 40
0.2533102705916039
 50
53.9530297247314223
 51
74.4452246543923906
  0
ARC
  5
1FD4B
  8
0
 10
8096.8883023409498492
 20
54.0024014043372276
 30
0.0
 40
0.2910754155544836
 50
35.8733065850185397
 51
53.9530297247314223
  0
ARC
  5
1FD4C
  8
0
 10
8096.9159500396917792
 20
54.0223953768713301
 30
0.0
 40
0.256955711812532
 50
13.2798377567308901
 51
35.8733065850185397
  0
ARC
  5
1FD4D
  8
0
 10
8096.5990219290370078
 20
53.9475944947217272
 30
0.0
 40
0.5825913967335503
 50
2.4687872963547721
 51
13.2798377567308901
  0
ARC
  5
1FD4E
  8
0
 10
8094.5810115538633909
 20
53.8882727854386374
 30
0.0
 40
2.6014310641894078
 50
0.5136363506609668
 51
1.8595849504483239
  0
ARC
  5
1FD4F
  8
0
 10
8095.4787265693094014
 20
53.9338327529862767
 30
0.0
 40
1.674473647688751
 50
355.4192514647133976
 51
359.2390088312455987
  0
ARC
  5
1FD50
  8
0
 10
8096.8253605922727729
 20
53.8364604523160324
 30
0.0
 40
0.3245340037107319
 50
336.24803234312418
 51
353.5675938117594228
  0
ARC
  5
1FD51
  8
0
 10
8096.9073862416980774
 20
53.8003649403979978
 30
0.0
 40
0.234917637212238
 50
315.0601561709340785
 51
336.2480323431233842
  0
ARC
  5
1FD52
  8
0
 10
8096.9071986926755926
 20
53.800552096009838
 30
0.0
 40
0.235182593546572
 50
290.2618566297077791
 51
315.0601561709340785
  0
ARC
  5
1FD53
  8
0
 10
8096.8608704076095819
 20
53.9260504250827211
 30
0.0
 40
0.3689590511058397
 50
275.514028429185089
 51
290.2618566296587233
  0
ARC
  5
1FD54
  8
0
 10
8096.723151008925015
 20
57.0720629237077119
 30
0.0
 40
3.5175296032374819
 50
271.1951125632967887
 51
272.8218851203369013
  0
ARC
  5
1FD55
  8
0
 10
8096.7801699404972169
 20
55.0144186307979695
 30
0.0
 40
1.475833099057551
 50
270.6346341000163989
 51
275.6458819539702745
  0
ARC
  5
1FD56
  8
0
 10
8096.8808247315882909
 20
53.8558078789670418
 30
0.0
 40
0.3132453342503886
 50
278.1740515917406924
 51
297.0418848474145079
  0
ARC
  5
1FD57
  8
0
 10
8096.909463570288608
 20
53.7997024249408184
 30
0.0
 40
0.2502532311441311
 50
297.04188484741411
 51
319.9834873036817271
  0
ARC
  5
1FD58
  8
0
 10
8096.9058742991092004
 20
53.8027159442536274
 30
0.0
 40
0.2549398254577407
 50
319.9834873036824092
 51
340.1008512439179867
  0
ARC
  5
1FD59
  8
0
 10
8096.7838851766064181
 20
53.8468733402464323
 30
0.0
 40
0.3846750235734682
 50
340.1008512439179867
 51
354.1840481659693864
  0
ARC
  5
1FD5A
  8
0
 10
8095.2738117273556782
 20
53.9346737662704783
 30
0.0
 40
1.8970096156235099
 50
356.1679563940160733
 51
359.3028810593369258
  0
ARC
  5
1FD5B
  8
0
 10
8096.7824454254296143
 20
55.340635931610997
 30
0.0
 40
1.813856828960247
 50
270.4444823040494157
 51
273.1360012533380086
  0
ARC
  5
1FD5C
  8
0
 10
8096.847041879878816
 20
54.0183173925925431
 30
0.0
 40
0.4900473500177409
 50
274.0526061800911179
 51
285.5547753456077089
  0
ARC
  5
1FD5D
  8
0
 10
8096.9105251753780976
 20
53.7902509198969128
 30
0.0
 40
0.2533102705916039
 50
285.5547753456075952
 51
306.0469702752686771
  0
ARC
  5
1FD5E
  8
0
 10
8096.8883023409498492
 20
53.8207853562617515
 30
0.0
 40
0.2910754155544836
 50
306.0469702752686771
 51
324.1266934149813892
  0
ARC
  5
1FD5F
  8
0
 10
8096.9159500396917792
 20
53.800791383727649
 30
0.0
 40
0.256955711812532
 50
324.1266934149813892
 51
346.7201622432683052
  0
ARC
  5
1FD60
  8
0
 10
8096.5990219290370078
 20
53.8755922658772519
 30
0.0
 40
0.5825913967335503
 50
346.7201622432683052
 51
357.5312127036452239
  0
ARC
  5
1FD61
  8
0
 10
8094.5810115538633909
 20
53.9349139751603488
 30
0.0
 40
2.6014310641894078
 50
358.1404150495516774
 51
359.4863636493390118
  0
ARC
  5
1FD62
  8
0
 10
8096.7965541991416103
 20
53.9113600015986876
 30
0.0
 40
0.3939374253008433
 50
104.6838626301310029
 51
113.9558399412554053
  0
ARC
  5
1FD63
  8
0
 10
8096.7965166134426909
 20
53.9106660873994912
 30
0.0
 40
0.4133858267999957
 50
119.9894624836838943
 51
150.1726632604180054
  0
ARC
  5
1FD64
  8
0
 10
8096.7967205527438637
 20
53.911504550098833
 30
0.0
 40
0.3939205909019583
 50
156.3053776412467926
 51
166.0660672196547125
  0
ARC
  5
1FD65
  8
0
 10
8096.7964790099440506
 20
53.9113600015986876
 30
0.0
 40
0.3939374253008433
 50
66.0441600587448789
 51
75.3161373698688692
  0
ARC
  5
1FD66
  8
0
 10
8096.7965165956429701
 20
53.9106660873994912
 30
0.0
 40
0.4133858267999957
 50
29.8273367395813587
 51
60.010537516316063
  0
ARC
  5
1FD67
  8
0
 10
8096.7963126563408878
 20
53.911504550098833
 30
0.0
 40
0.3939205909019583
 50
13.9339327803452804
 51
23.6946223587531399
  0
ARC
  5
1FD68
  8
0
 10
8096.7965541991416103
 20
53.9118267590085409
 30
0.0
 40
0.3939374253008433
 50
246.0441600587446089
 51
255.3161373698688976
  0
ARC
  5
1FD69
  8
0
 10
8096.7965166134426909
 20
53.9125206732077373
 30
0.0
 40
0.4133858267999957
 50
209.8273367395819946
 51
240.010537516315992
  0
ARC
  5
1FD6A
  8
0
 10
8096.7967205527438637
 20
53.9116822105084026
 30
0.0
 40
0.3939205909019583
 50
193.9339327803452022
 51
203.6946223587530937
  0
ARC
  5
1FD6B
  8
0
 10
8096.7964790099440506
 20
53.9118267590085409
 30
0.0
 40
0.3939374253008433
 50
284.6838626301309887
 51
293.9558399412550784
  0
ARC
  5
1FD6C
  8
0
 10
8096.7965165956429701
 20
53.9125206732077373
 30
0.0
 40
0.4133858267999957
 50
299.9894624836838943
 51
330.1726632604185738
  0
ARC
  5
1FD6D
  8
0
 10
8096.7963126563408878
 20
53.9116822105084026
 30
0.0
 40
0.3939205909019583
 50
336.3053776412468778
 51
346.0660672196539167
  0
ARC
  5
1FD6E
  8
0
 10
8099.177298765870546
 20
54.0334204930126987
 30
0.0
 40
1.674473647688751
 50
175.4192514647133976
 51
179.2390088312463945
  0
ARC
  5
1FD6F
  8
0
 10
8097.8306647429108125
 20
54.13079279368295
 30
0.0
 40
0.3245340037107319
 50
156.2480323431248905
 51
173.5675938117601902
  0
ARC
  5
1FD70
  8
0
 10
8097.7486390934836891
 20
54.1668883056009776
 30
0.0
 40
0.234917637212238
 50
135.060156170933908
 51
156.2480323431242084
  0
ARC
  5
1FD71
  8
0
 10
8097.7488266425079928
 20
54.1667011499891515
 30
0.0
 40
0.235182593546572
 50
110.2618566297076939
 51
135.0601561709343912
  0
ARC
  5
1FD72
  8
0
 10
8097.7951549275721845
 20
54.0412028209162685
 30
0.0
 40
0.3689590511058397
 50
95.5140284291850463
 51
110.2618566297076939
  0
ARC
  5
1FD73
  8
0
 10
8097.9328743262585704
 20
50.8951903222912705
 30
0.0
 40
3.5175296032374819
 50
91.1951125632967745
 51
92.821885120336816
  0
ARC
  5
1FD74
  8
0
 10
8097.8758553946863685
 20
52.9528346152010201
 30
0.0
 40
1.475833099057551
 50
90.6346341000163847
 51
95.6458819539703029
  0
ARC
  5
1FD75
  8
0
 10
8097.775200603596204
 20
54.1114453670319406
 30
0.0
 40
0.3132453342503886
 50
98.1740515917406782
 51
117.0418848474144937
  0
ARC
  5
1FD76
  8
0
 10
8097.7465617648913394
 20
54.1675508210581498
 30
0.0
 40
0.2502532311441311
 50
117.0418848474140958
 51
139.9834873036820966
  0
ARC
  5
1FD77
  8
0
 10
8097.7501510360725661
 20
54.164537301745348
 30
0.0
 40
0.2549398254577407
 50
139.9834873036820966
 51
160.1008512439181004
  0
ARC
  5
1FD78
  8
0
 10
8097.8721401585780768
 20
54.1203799057525572
 30
0.0
 40
0.3846750235734682
 50
160.1008512439181004
 51
174.1840481659693012
  0
ARC
  5
1FD79
  8
0
 10
8099.3822136078279073
 20
54.0325794797284971
 30
0.0
 40
1.8970096156235099
 50
176.1679563940161017
 51
179.3028810593368121
  0
ARC
  5
1FD7A
  8
0
 10
8097.8735799097530617
 20
52.6266173143879925
 30
0.0
 40
1.813856828960247
 50
90.4444823040493446
 51
93.1360012533379518
  0
ARC
  5
1FD7B
  8
0
 10
8097.8089834553047694
 20
53.9489358534064465
 30
0.0
 40
0.4900473500177409
 50
94.0526061800911179
 51
105.5547753456076947
  0
ARC
  5
1FD7C
  8
0
 10
8097.7455001598063973
 20
54.1770023261020697
 30
0.0
 40
0.2533102705916039
 50
105.5547753456076947
 51
126.046970275268194
  0
ARC
  5
1FD7D
  8
0
 10
8097.7677229942319173
 20
54.1464678897372309
 30
0.0
 40
0.2910754155544836
 50
126.046970275268194
 51
144.1266934149813892
  0
ARC
  5
1FD7E
  8
0
 10
8097.7400752954899872
 20
54.1664618622713334
 30
0.0
 40
0.256955711812532
 50
144.1266934149817871
 51
166.7201622432691011
  0
ARC
  5
1FD7F
  8
0
 10
8098.0570034061447586
 20
54.0916609801217376
 30
0.0
 40
0.5825913967335503
 50
166.7201622432691011
 51
177.5312127036451955
  0
ARC
  5
1FD80
  8
0
 10
8100.075013781319285
 20
54.0323392708386407
 30
0.0
 40
2.6014310641894078
 50
178.1404150495517058
 51
179.4863636493390118
  0
ARC
  5
1FD81
  8
0
 10
8099.177298765870546
 20
54.0778992383862729
 30
0.0
 40
1.674473647688751
 50
180.7609911687534918
 51
184.5807485352858066
  0
ARC
  5
1FD82
  8
0
 10
8097.8306647429108125
 20
53.9805269377160286
 30
0.0
 40
0.3245340037107319
 50
186.4324061882396961
 51
203.7519676568749958
  0
ARC
  5
1FD83
  8
0
 10
8097.7486390934836891
 20
53.9444314257980011
 30
0.0
 40
0.234917637212238
 50
203.7519676568757916
 51
224.939843829066092
  0
ARC
  5
1FD84
  8
0
 10
8097.7488266425079928
 20
53.9446185814098413
 30
0.0
 40
0.235182593546572
 50
224.9398438290652109
 51
249.7381433702921925
  0
ARC
  5
1FD85
  8
0
 10
8097.7951549275721845
 20
54.0701169104827102
 30
0.0
 40
0.3689590511058397
 50
249.7381433702921925
 51
264.4859715708150247
  0
ARC
  5
1FD86
  8
0
 10
8097.9328743262585704
 20
57.2161294091077082
 30
0.0
 40
3.5175296032374819
 50
267.1781148796632124
 51
268.8048874367032113
  0
ARC
  5
1FD87
  8
0
 10
8097.8758553946863685
 20
55.1584851161979728
 30
0.0
 40
1.475833099057551
 50
264.3541180460297255
 51
269.3653658999836011
  0
ARC
  5
1FD88
  8
0
 10
8097.775200603596204
 20
53.9998743643670309
 30
0.0
 40
0.3132453342503886
 50
242.9581151525854921
 51
261.8259484082593076
  0
ARC
  5
1FD89
  8
0
 10
8097.7465617648913394
 20
53.9437689103408289
 30
0.0
 40
0.2502532311441311
 50
220.0165126963179034
 51
242.9581151525858047
  0
ARC
  5
1FD8A
  8
0
 10
8097.7501510360725661
 20
53.9467824296536307
 30
0.0
 40
0.2549398254577407
 50
199.8991487560818996
 51
220.0165126963179034
  0
ARC
  5
1FD8B
  8
0
 10
8097.8721401585780768
 20
53.9909398256464286
 30
0.0
 40
0.3846750235734682
 50
185.815951834029903
 51
199.8991487560818996
  0
ARC
  5
1FD8C
  8
0
 10
8099.3822136078279073
 20
54.0787402516704816
 30
0.0
 40
1.8970096156235099
 50
180.6971189406623068
 51
183.8320436059831025
  0
ARC
  5
1FD8D
  8
0
 10
8097.8735799097530617
 20
55.4847024170110004
 30
0.0
 40
1.813856828960247
 50
266.8639987466621051
 51
269.5555176959505843
  0
ARC
  5
1FD8E
  8
0
 10
8097.8089834553047694
 20
54.1623838779925322
 30
0.0
 40
0.4900473500177409
 50
254.4452246543922911
 51
265.9473938199088821
  0
ARC
  5
1FD8F
  8
0
 10
8097.7455001598063973
 20
53.9343174052969232
 30
0.0
 40
0.2533102705916039
 50
233.9530297247316923
 51
254.4452246543922911
  0
ARC
  5
1FD90
  8
0
 10
8097.7677229942319173
 20
53.9648518416617407
 30
0.0
 40
0.2910754155544836
 50
215.8733065850184971
 51
233.9530297247316923
  0
ARC
  5
1FD91
  8
0
 10
8097.7400752954899872
 20
53.9448578691276524
 30
0.0
 40
0.256955711812532
 50
193.2798377567308137
 51
215.8733065850180139
  0
ARC
  5
1FD92
  8
0
 10
8098.0570034061447586
 20
54.0196587512772481
 30
0.0
 40
0.5825913967335503
 50
182.4687872963546909
 51
193.2798377567308137
  0
ARC
  5
1FD93
  8
0
 10
8100.075013781319285
 20
54.0789804605603521
 30
0.0
 40
2.6014310641894078
 50
180.513636350660903
 51
181.8595849504482942
  0
ARC
  5
1FD94
  8
0
 10
8096.5417186954100544
 20
54.0334204930126987
 30
0.0
 40
1.674473647688751
 50
0.7609911687535711
 51
4.5807485352857871
  0
ARC
  5
1FD95
  8
0
 10
8097.8883527183716069
 20
54.13079279368295
 30
0.0
 40
0.3245340037107319
 50
6.4324061882405372
 51
23.7519676568758094
  0
ARC
  5
1FD96
  8
0
 10
8097.9703783677987303
 20
54.1668883056009776
 30
0.0
 40
0.234917637212238
 50
23.7519676568765483
 51
44.9398438290658007
  0
ARC
  5
1FD97
  8
0
 10
8097.9701908187762456
 20
54.1667011499891515
 30
0.0
 40
0.235182593546572
 50
44.9398438290658007
 51
69.7381433702922209
  0
ARC
  5
1FD98
  8
0
 10
8097.9238625337111444
 20
54.0412028209162685
 30
0.0
 40
0.3689590511058397
 50
69.7381433702922209
 51
84.4859715708149253
  0
ARC
  5
1FD99
  8
0
 10
8097.786143135023849
 20
50.8951903222912705
 30
0.0
 40
3.5175296032374819
 50
87.1781148796631555
 51
88.8048874367032255
  0
ARC
  5
1FD9A
  8
0
 10
8097.8431620665969604
 20
52.9528346152010201
 30
0.0
 40
1.475833099057551
 50
84.3541180460297113
 51
89.3653658999836153
  0
ARC
  5
1FD9B
  8
0
 10
8097.9438168576880344
 20
54.1114453670319406
 30
0.0
 40
0.3132453342503886
 50
62.9581151525855276
 51
81.8259484082593076
  0
ARC
  5
1FD9C
  8
0
 10
8097.97245569639108
 20
54.1675508210581498
 30
0.0
 40
0.2502532311441311
 50
40.0165126963182729
 51
62.9581151525858971
  0
ARC
  5
1FD9D
  8
0
 10
8097.9688664252098533
 20
54.164537301745348
 30
0.0
 40
0.2549398254577407
 50
19.8991487560819387
 51
40.0165126963175766
  0
ARC
  5
1FD9E
  8
0
 10
8097.8468773027052521
 20
54.1203799057525572
 30
0.0
 40
0.3846750235734682
 50
5.8159518340299003
 51
19.8991487560819387
  0
ARC
  5
1FD9F
  8
0
 10
8096.3368038534554216
 20
54.0325794797284971
 30
0.0
 40
1.8970096156235099
 50
0.6971189406631657
 51
3.8320436059831189
  0
ARC
  5
1FDA0
  8
0
 10
8097.8454375515302672
 20
52.6266173143879925
 30
0.0
 40
1.813856828960247
 50
86.8639987466620482
 51
89.5555176959506412
  0
ARC
  5
1FDA1
  8
0
 10
8097.9100340059785594
 20
53.9489358534064465
 30
0.0
 40
0.4900473500177409
 50
74.4452246543922485
 51
85.9473938199088963
  0
ARC
  5
1FDA2
  8
0
 10
8097.9735173014769316
 20
54.1770023261020697
 30
0.0
 40
0.2533102705916039
 50
53.9530297247314223
 51
74.4452246543923906
  0
ARC
  5
1FDA3
  8
0
 10
8097.9512944670486831
 20
54.1464678897372309
 30
0.0
 40
0.2910754155544836
 50
35.8733065850185397
 51
53.9530297247314223
  0
ARC
  5
1FDA4
  8
0
 10
8097.9789421657933417
 20
54.1664618622713334
 30
0.0
 40
0.256955711812532
 50
13.2798377567308901
 51
35.8733065850185397
  0
ARC
  5
1FDA5
  8
0
 10
8097.6620140551367513
 20
54.0916609801217376
 30
0.0
 40
0.5825913967335503
 50
2.4687872963547721
 51
13.2798377567308901
  0
ARC
  5
1FDA6
  8
0
 10
8095.6440036799640438
 20
54.0323392708386407
 30
0.0
 40
2.6014310641894078
 50
0.5136363506609668
 51
1.8595849504483239
  0
ARC
  5
1FDA7
  8
0
 10
8096.5417186954100544
 20
54.0778992383862729
 30
0.0
 40
1.674473647688751
 50
355.4192514647133976
 51
359.2390088312455987
  0
ARC
  5
1FDA8
  8
0
 10
8097.8883527183716069
 20
53.9805269377160286
 30
0.0
 40
0.3245340037107319
 50
336.24803234312418
 51
353.5675938117594228
  0
ARC
  5
1FDA9
  8
0
 10
8097.9703783677987303
 20
53.9444314257980011
 30
0.0
 40
0.234917637212238
 50
315.0601561709340785
 51
336.2480323431233842
  0
ARC
  5
1FDAA
  8
0
 10
8097.9701908187762456
 20
53.9446185814098413
 30
0.0
 40
0.235182593546572
 50
290.2618566297077791
 51
315.0601561709340785
  0
ARC
  5
1FDAB
  8
0
 10
8097.9238625337111444
 20
54.0701169104827102
 30
0.0
 40
0.3689590511058397
 50
275.514028429185089
 51
290.2618566296587233
  0
ARC
  5
1FDAC
  8
0
 10
8097.786143135023849
 20
57.2161294091077082
 30
0.0
 40
3.5175296032374819
 50
271.1951125632967887
 51
272.8218851203369013
  0
ARC
  5
1FDAD
  8
0
 10
8097.8431620665969604
 20
55.1584851161979728
 30
0.0
 40
1.475833099057551
 50
270.6346341000163989
 51
275.6458819539702745
  0
ARC
  5
1FDAE
  8
0
 10
8097.9438168576880344
 20
53.9998743643670309
 30
0.0
 40
0.3132453342503886
 50
278.1740515917406924
 51
297.0418848474145079
  0
ARC
  5
1FDAF
  8
0
 10
8097.97245569639108
 20
53.9437689103408289
 30
0.0
 40
0.2502532311441311
 50
297.04188484741411
 51
319.9834873036817271
  0
ARC
  5
1FDB0
  8
0
 10
8097.9688664252098533
 20
53.9467824296536307
 30
0.0
 40
0.2549398254577407
 50
319.9834873036824092
 51
340.1008512439179867
  0
ARC
  5
1FDB1
  8
0
 10
8097.8468773027052521
 20
53.9909398256464286
 30
0.0
 40
0.3846750235734682
 50
340.1008512439179867
 51
354.1840481659693864
  0
ARC
  5
1FDB2
  8
0
 10
8096.3368038534554216
 20
54.0787402516704816
 30
0.0
 40
1.8970096156235099
 50
356.1679563940160733
 51
359.3028810593369258
  0
ARC
  5
1FDB3
  8
0
 10
8097.8454375515302672
 20
55.4847024170110004
 30
0.0
 40
1.813856828960247
 50
270.4444823040494157
 51
273.1360012533380086
  0
ARC
  5
1FDB4
  8
0
 10
8097.9100340059785594
 20
54.1623838779925322
 30
0.0
 40
0.4900473500177409
 50
274.0526061800911179
 51
285.5547753456077089
  0
ARC
  5
1FDB5
  8
0
 10
8097.9735173014769316
 20
53.9343174052969232
 30
0.0
 40
0.2533102705916039
 50
285.5547753456075952
 51
306.0469702752686771
  0
ARC
  5
1FDB6
  8
0
 10
8097.9512944670486831
 20
53.9648518416617407
 30
0.0
 40
0.2910754155544836
 50
306.0469702752686771
 51
324.1266934149813892
  0
ARC
  5
1FDB7
  8
0
 10
8097.9789421657933417
 20
53.9448578691276524
 30
0.0
 40
0.256955711812532
 50
324.1266934149813892
 51
346.7201622432683052
  0
ARC
  5
1FDB8
  8
0
 10
8097.6620140551367513
 20
54.0196587512772481
 30
0.0
 40
0.5825913967335503
 50
346.7201622432683052
 51
357.5312127036452239
  0
ARC
  5
1FDB9
  8
0
 10
8095.6440036799640438
 20
54.0789804605603521
 30
0.0
 40
2.6014310641894078
 50
358.1404150495516774
 51
359.4863636493390118
  0
ARC
  5
1FDBA
  8
0
 10
8097.8595463252422633
 20
54.0554264869986909
 30
0.0
 40
0.3939374253008433
 50
104.6838626301310029
 51
113.9558399412554053
  0
ARC
  5
1FDBB
  8
0
 10
8097.8595087395424343
 20
54.0547325727994874
 30
0.0
 40
0.4133858267999957
 50
119.9894624836838943
 51
150.1726632604180054
  0
ARC
  5
1FDBC
  8
0
 10
8097.8597126788454261
 20
54.0555710354988435
 30
0.0
 40
0.3939205909019583
 50
156.3053776412467926
 51
166.0660672196547125
  0
ARC
  5
1FDBD
  8
0
 10
8097.8594711360410656
 20
54.0554264869986909
 30
0.0
 40
0.3939374253008433
 50
66.0441600587448789
 51
75.3161373698688692
  0
ARC
  5
1FDBE
  8
0
 10
8097.8595087217427135
 20
54.0547325727994874
 30
0.0
 40
0.4133858267999957
 50
29.8273367395813587
 51
60.010537516316063
  0
ARC
  5
1FDBF
  8
0
 10
8097.8593047824397217
 20
54.0555710354988435
 30
0.0
 40
0.3939205909019583
 50
13.9339327803452804
 51
23.6946223587531399
  0
ARC
  5
1FDC0
  8
0
 10
8097.8595463252422633
 20
54.0558932444085372
 30
0.0
 40
0.3939374253008433
 50
246.0441600587446089
 51
255.3161373698688976
  0
ARC
  5
1FDC1
  8
0
 10
8097.8595087395424343
 20
54.0565871586077407
 30
0.0
 40
0.4133858267999957
 50
209.8273367395819946
 51
240.010537516315992
  0
ARC
  5
1FDC2
  8
0
 10
8097.8597126788454261
 20
54.0557486959083917
 30
0.0
 40
0.3939205909019583
 50
193.9339327803452022
 51
203.6946223587530937
  0
ARC
  5
1FDC3
  8
0
 10
8097.8594711360410656
 20
54.0558932444085372
 30
0.0
 40
0.3939374253008433
 50
284.6838626301309887
 51
293.9558399412550784
  0
ARC
  5
1FDC4
  8
0
 10
8097.8595087217427135
 20
54.0565871586077407
 30
0.0
 40
0.4133858267999957
 50
299.9894624836838943
 51
330.1726632604185738
  0
ARC
  5
1FDC5
  8
0
 10
8097.8593047824397217
 20
54.0557486959083917
 30
0.0
 40
0.3939205909019583
 50
336.3053776412468778
 51
346.0660672196539167
  0
ARC
  5
1FDC6
  8
0
 10
8100.2402908918729736
 20
54.1422779291127014
 30
0.0
 40
1.674473647688751
 50
175.4192514647133976
 51
179.2390088312463945
  0
ARC
  5
1FDC7
  8
0
 10
8098.893656868911421
 20
54.2396502297829528
 30
0.0
 40
0.3245340037107319
 50
156.2480323431248905
 51
173.5675938117601902
  0
ARC
  5
1FDC8
  8
0
 10
8098.8116312194852071
 20
54.2757457417009803
 30
0.0
 40
0.234917637212238
 50
135.060156170933908
 51
156.2480323431242084
  0
ARC
  5
1FDC9
  8
0
 10
8098.8118187685076919
 20
54.2755585860891472
 30
0.0
 40
0.235182593546572
 50
110.2618566297076939
 51
135.0601561709343912
  0
ARC
  5
1FDCA
  8
0
 10
8098.8581470535718836
 20
54.1500602570162712
 30
0.0
 40
0.3689590511058397
 50
95.5140284291850463
 51
110.2618566297076939
  0
ARC
  5
1FDCB
  8
0
 10
8098.9958664522591789
 20
51.0040477583912732
 30
0.0
 40
3.5175296032374819
 50
91.1951125632967745
 51
92.821885120336816
  0
ARC
  5
1FDCC
  8
0
 10
8098.9388475206860676
 20
53.0616920513010086
 30
0.0
 40
1.475833099057551
 50
90.6346341000163847
 51
95.6458819539703029
  0
ARC
  5
1FDCD
  8
0
 10
8098.8381927295959031
 20
54.2203028031319434
 30
0.0
 40
0.3132453342503886
 50
98.1740515917406782
 51
117.0418848474144937
  0
ARC
  5
1FDCE
  8
0
 10
8098.8095538908928575
 20
54.2764082571581525
 30
0.0
 40
0.2502532311441311
 50
117.0418848474140958
 51
139.9834873036820966
  0
ARC
  5
1FDCF
  8
0
 10
8098.8131431620740841
 20
54.2733947378453507
 30
0.0
 40
0.2549398254577407
 50
139.9834873036820966
 51
160.1008512439181004
  0
ARC
  5
1FDD0
  8
0
 10
8098.9351322845777759
 20
54.22923734185256
 30
0.0
 40
0.3846750235734682
 50
160.1008512439181004
 51
174.1840481659693012
  0
ARC
  5
1FDD1
  8
0
 10
8100.4452057338276063
 20
54.1414369158284998
 30
0.0
 40
1.8970096156235099
 50
176.1679563940161017
 51
179.3028810593368121
  0
ARC
  5
1FDD2
  8
0
 10
8098.9365720357536702
 20
52.7354747504879882
 30
0.0
 40
1.813856828960247
 50
90.4444823040493446
 51
93.1360012533379518
  0
ARC
  5
1FDD3
  8
0
 10
8098.871975581305378
 20
54.0577932895064421
 30
0.0
 40
0.4900473500177409
 50
94.0526061800911179
 51
105.5547753456076947
  0
ARC
  5
1FDD4
  8
0
 10
8098.8084922858051868
 20
54.2858597622020724
 30
0.0
 40
0.2533102705916039
 50
105.5547753456075952
 51
126.046970275268194
  0
ARC
  5
1FDD5
  8
0
 10
8098.8307151202316163
 20
54.2553253258372266
 30
0.0
 40
0.2910754155544836
 50
126.046970275268194
 51
144.1266934149813892
  0
ARC
  5
1FDD6
  8
0
 10
8098.8030674214896862
 20
54.2753192983713291
 30
0.0
 40
0.256955711812532
 50
144.1266934149817871
 51
166.7201622432691011
  0
ARC
  5
1FDD7
  8
0
 10
8099.1199955321453672
 20
54.2005184162217333
 30
0.0
 40
0.5825913967335503
 50
166.7201622432691011
 51
177.5312127036451955
  0
ARC
  5
1FDD8
  8
0
 10
8101.1380059073189841
 20
54.1411967069386435
 30
0.0
 40
2.6014310641894078
 50
178.1404150495517058
 51
179.4863636493390118
  0
ARC
  5
1FDD9
  8
0
 10
8100.2402908918729736
 20
54.1867566744862827
 30
0.0
 40
1.674473647688751
 50
180.7609911687534918
 51
184.5807485352858066
  0
ARC
  5
1FDDA
  8
0
 10
8098.893656868911421
 20
54.0893843738160314
 30
0.0
 40
0.3245340037107319
 50
186.4324061882396961
 51
203.7519676568749958
  0
ARC
  5
1FDDB
  8
0
 10
8098.8116312194852071
 20
54.0532888618979968
 30
0.0
 40
0.234917637212238
 50
203.7519676568757916
 51
224.939843829066092
  0
ARC
  5
1FDDC
  8
0
 10
8098.8118187685076919
 20
54.053476017509837
 30
0.0
 40
0.235182593546572
 50
224.9398438290652109
 51
249.7381433702921925
  0
ARC
  5
1FDDD
  8
0
 10
8098.8581470535718836
 20
54.17897434658272
 30
0.0
 40
0.3689590511058397
 50
249.7381433702921925
 51
264.4859715708150247
  0
ARC
  5
1FDDE
  8
0
 10
8098.9958664522591789
 20
57.3249868452077109
 30
0.0
 40
3.5175296032374819
 50
267.1781148796632124
 51
268.8048874367032113
  0
ARC
  5
1FDDF
  8
0
 10
8098.9388475206860676
 20
55.2673425522979684
 30
0.0
 40
1.475833099057551
 50
264.3541180460297255
 51
269.3653658999836011
  0
ARC
  5
1FDE0
  8
0
 10
8098.8381927295959031
 20
54.1087318004670408
 30
0.0
 40
0.3132453342503886
 50
242.9581151525854921
 51
261.8259484082593076
  0
ARC
  5
1FDE1
  8
0
 10
8098.8095538908928575
 20
54.0526263464408174
 30
0.0
 40
0.2502532311441311
 50
220.0165126963179034
 51
242.9581151525858047
  0
ARC
  5
1FDE2
  8
0
 10
8098.8131431620740841
 20
54.0556398657536334
 30
0.0
 40
0.2549398254577407
 50
199.8991487560818996
 51
220.0165126963179034
  0
ARC
  5
1FDE3
  8
0
 10
8098.9351322845777759
 20
54.0997972617464171
 30
0.0
 40
0.3846750235734682
 50
185.815951834029903
 51
199.8991487560818996
  0
ARC
  5
1FDE4
  8
0
 10
8100.4452057338276063
 20
54.1875976877704773
 30
0.0
 40
1.8970096156235099
 50
180.6971189406623068
 51
183.8320436059831025
  0
ARC
  5
1FDE5
  8
0
 10
8098.9365720357536702
 20
55.5935598531110031
 30
0.0
 40
1.813856828960247
 50
266.8639987466621051
 51
269.5555176959505843
  0
ARC
  5
1FDE6
  8
0
 10
8098.871975581305378
 20
54.271241314092542
 30
0.0
 40
0.4900473500177409
 50
254.4452246543922911
 51
265.9473938199088821
  0
ARC
  5
1FDE7
  8
0
 10
8098.8084922858051868
 20
54.0431748413969189
 30
0.0
 40
0.2533102705916039
 50
233.9530297247316923
 51
254.4452246543922911
  0
ARC
  5
1FDE8
  8
0
 10
8098.8307151202316163
 20
54.0737092777617505
 30
0.0
 40
0.2910754155544836
 50
215.8733065850184971
 51
233.9530297247316923
  0
ARC
  5
1FDE9
  8
0
 10
8098.8030674214896862
 20
54.0537153052276409
 30
0.0
 40
0.256955711812532
 50
193.2798377567308137
 51
215.8733065850180139
  0
ARC
  5
1FDEA
  8
0
 10
8099.1199955321453672
 20
54.1285161873772509
 30
0.0
 40
0.5825913967335503
 50
182.4687872963546909
 51
193.2798377567308137
  0
ARC
  5
1FDEB
  8
0
 10
8101.1380059073189841
 20
54.1878378966603478
 30
0.0
 40
2.6014310641894078
 50
180.513636350660903
 51
181.8595849504482942
  0
ARC
  5
1FDEC
  8
0
 10
8097.6047108214106629
 20
54.1422779291127014
 30
0.0
 40
1.674473647688751
 50
0.7609911687535711
 51
4.5807485352857871
  0
ARC
  5
1FDED
  8
0
 10
8098.9513448443731249
 20
54.2396502297829528
 30
0.0
 40
0.3245340037107319
 50
6.4324061882405372
 51
23.7519676568758094
  0
ARC
  5
1FDEE
  8
0
 10
8099.0333704937966104
 20
54.2757457417009803
 30
0.0
 40
0.234917637212238
 50
23.7519676568765483
 51
44.9398438290658007
  0
ARC
  5
1FDEF
  8
0
 10
8099.0331829447759446
 20
54.2755585860891472
 30
0.0
 40
0.235182593546572
 50
44.9398438290658007
 51
69.7381433702922209
  0
ARC
  5
1FDF0
  8
0
 10
8098.9868546597108434
 20
54.1500602570162712
 30
0.0
 40
0.3689590511058397
 50
69.7381433702922209
 51
84.4859715708149253
  0
ARC
  5
1FDF1
  8
0
 10
8098.8491352610253671
 20
51.0040477583912732
 30
0.0
 40
3.5175296032374819
 50
87.1781148796631555
 51
88.8048874367032255
  0
ARC
  5
1FDF2
  8
0
 10
8098.9061541925948404
 20
53.0616920513010086
 30
0.0
 40
1.475833099057551
 50
84.3541180460297113
 51
89.3653658999836153
  0
ARC
  5
1FDF3
  8
0
 10
8099.0068089836859144
 20
54.2203028031319434
 30
0.0
 40
0.3132453342503886
 50
62.9581151525855276
 51
81.8259484082593076
  0
ARC
  5
1FDF4
  8
0
 10
8099.035447822390779
 20
54.2764082571581525
 30
0.0
 40
0.2502532311441311
 50
40.0165126963182729
 51
62.9581151525858971
  0
ARC
  5
1FDF5
  8
0
 10
8099.0318585512095524
 20
54.2733947378453507
 30
0.0
 40
0.2549398254577407
 50
19.8991487560819387
 51
40.0165126963175766
  0
ARC
  5
1FDF6
  8
0
 10
8098.9098694287049511
 20
54.22923734185256
 30
0.0
 40
0.3846750235734682
 50
5.8159518340299003
 51
19.8991487560819387
  0
ARC
  5
1FDF7
  8
0
 10
8097.3997959794551207
 20
54.1414369158284998
 30
0.0
 40
1.8970096156235099
 50
0.6971189406631657
 51
3.8320436059831189
  0
ARC
  5
1FDF8
  8
0
 10
8098.9084296775281473
 20
52.7354747504879882
 30
0.0
 40
1.813856828960247
 50
86.8639987466620482
 51
89.5555176959506412
  0
ARC
  5
1FDF9
  8
0
 10
8098.973026131977349
 20
54.0577932895064421
 30
0.0
 40
0.4900473500177409
 50
74.4452246543922485
 51
85.9473938199088963
  0
ARC
  5
1FDFA
  8
0
 10
8099.0365094274766307
 20
54.2858597622020724
 30
0.0
 40
0.2533102705916039
 50
53.9530297247314223
 51
74.4452246543923906
  0
ARC
  5
1FDFB
  8
0
 10
8099.0142865930511107
 20
54.2553253258372266
 30
0.0
 40
0.2910754155544836
 50
35.8733065850185397
 51
53.9530297247314223
  0
ARC
  5
1FDFC
  8
0
 10
8099.0419342917930408
 20
54.2753192983713291
 30
0.0
 40
0.256955711812532
 50
13.2798377567308901
 51
35.8733065850185397
  0
ARC
  5
1FDFD
  8
0
 10
8098.7250061811391788
 20
54.2005184162217333
 30
0.0
 40
0.5825913967335503
 50
2.4687872963547721
 51
13.2798377567308901
  0
ARC
  5
1FDFE
  8
0
 10
8096.7069958059637429
 20
54.1411967069386435
 30
0.0
 40
2.6014310641894078
 50
0.5136363506609668
 51
1.8595849504483239
  0
ARC
  5
1FDFF
  8
0
 10
8097.6047108214106629
 20
54.1867566744862827
 30
0.0
 40
1.674473647688751
 50
355.4192514647133976
 51
359.2390088312455987
  0
ARC
  5
1FE00
  8
0
 10
8098.9513448443731249
 20
54.0893843738160314
 30
0.0
 40
0.3245340037107319
 50
336.24803234312418
 51
353.5675938117594228
  0
ARC
  5
1FE01
  8
0
 10
8099.0333704937966104
 20
54.0532888618979968
 30
0.0
 40
0.234917637212238
 50
315.0601561709340785
 51
336.2480323431233842
  0
ARC
  5
1FE02
  8
0
 10
8099.0331829447759446
 20
54.053476017509837
 30
0.0
 40
0.235182593546572
 50
290.2618566297077791
 51
315.0601561709340785
  0
ARC
  5
1FE03
  8
0
 10
8098.9868546597108434
 20
54.17897434658272
 30
0.0
 40
0.3689590511058397
 50
275.514028429185089
 51
290.2618566296587233
  0
ARC
  5
1FE04
  8
0
 10
8098.8491352610253671
 20
57.3249868452077109
 30
0.0
 40
3.5175296032374819
 50
271.1951125632967887
 51
272.8218851203369013
  0
ARC
  5
1FE05
  8
0
 10
8098.9061541925948404
 20
55.2673425522979684
 30
0.0
 40
1.475833099057551
 50
270.6346341000163989
 51
275.6458819539702745
  0
ARC
  5
1FE06
  8
0
 10
8099.0068089836859144
 20
54.1087318004670408
 30
0.0
 40
0.3132453342503886
 50
278.1740515917406924
 51
297.0418848474145079
  0
ARC
  5
1FE07
  8
0
 10
8099.035447822390779
 20
54.0526263464408174
 30
0.0
 40
0.2502532311441311
 50
297.04188484741411
 51
319.9834873036817271
  0
ARC
  5
1FE08
  8
0
 10
8099.0318585512095524
 20
54.0556398657536334
 30
0.0
 40
0.2549398254577407
 50
319.9834873036824092
 51
340.1008512439179867
  0
ARC
  5
1FE09
  8
0
 10
8098.9098694287049511
 20
54.0997972617464171
 30
0.0
 40
0.3846750235734682
 50
340.1008512439179867
 51
354.1840481659693864
  0
ARC
  5
1FE0A
  8
0
 10
8097.3997959794551207
 20
54.1875976877704773
 30
0.0
 40
1.8970096156235099
 50
356.1679563940160733
 51
359.3028810593369258
  0
ARC
  5
1FE0B
  8
0
 10
8098.9084296775281473
 20
55.5935598531110031
 30
0.0
 40
1.813856828960247
 50
270.4444823040494157
 51
273.1360012533380086
  0
ARC
  5
1FE0C
  8
0
 10
8098.973026131977349
 20
54.271241314092542
 30
0.0
 40
0.4900473500177409
 50
274.0526061800911179
 51
285.5547753456077089
  0
ARC
  5
1FE0D
  8
0
 10
8099.0365094274766307
 20
54.0431748413969189
 30
0.0
 40
0.2533102705916039
 50
285.5547753456075952
 51
306.0469702752686771
  0
ARC
  5
1FE0E
  8
0
 10
8099.0142865930511107
 20
54.0737092777617505
 30
0.0
 40
0.2910754155544836
 50
306.0469702752686771
 51
324.1266934149813892
  0
ARC
  5
1FE0F
  8
0
 10
8099.0419342917930408
 20
54.0537153052276409
 30
0.0
 40
0.256955711812532
 50
324.1266934149813892
 51
346.7201622432683052
  0
ARC
  5
1FE10
  8
0
 10
8098.7250061811391788
 20
54.1285161873772509
 30
0.0
 40
0.5825913967335503
 50
346.7201622432683052
 51
357.5312127036452239
  0
ARC
  5
1FE11
  8
0
 10
8096.7069958059637429
 20
54.1878378966603478
 30
0.0
 40
2.6014310641894078
 50
358.1404150495516774
 51
359.4863636493390118
  0
ARC
  5
1FE12
  8
0
 10
8098.9225384512419623
 20
54.1642839230986866
 30
0.0
 40
0.3939374253008433
 50
104.6838626301311024
 51
113.9558399412554053
  0
ARC
  5
1FE13
  8
0
 10
8098.9225008655403144
 20
54.1635900088994902
 30
0.0
 40
0.4133858267999957
 50
119.9894624836838943
 51
150.1726632604180054
  0
ARC
  5
1FE14
  8
0
 10
8098.9227048048433062
 20
54.164428471598832
 30
0.0
 40
0.3939205909019583
 50
156.3053776412467926
 51
166.0660672196547125
  0
ARC
  5
1FE15
  8
0
 10
8098.9224632620416742
 20
54.1642839230986866
 30
0.0
 40
0.3939374253008433
 50
66.0441600587448789
 51
75.3161373698688692
  0
ARC
  5
1FE16
  8
0
 10
8098.9225008477405936
 20
54.1635900088994902
 30
0.0
 40
0.4133858267999957
 50
29.8273367395813587
 51
60.010537516316063
  0
ARC
  5
1FE17
  8
0
 10
8098.9222969084403303
 20
54.164428471598832
 30
0.0
 40
0.3939205909019583
 50
13.9339327803452804
 51
23.6946223587531399
  0
ARC
  5
1FE18
  8
0
 10
8098.9225384512419623
 20
54.1647506805085328
 30
0.0
 40
0.3939374253008433
 50
246.0441600587446089
 51
255.3161373698688976
  0
ARC
  5
1FE19
  8
0
 10
8098.9225008655403144
 20
54.1654445947077434
 30
0.0
 40
0.4133858267999957
 50
209.8273367395819946
 51
240.010537516315992
  0
ARC
  5
1FE1A
  8
0
 10
8098.9227048048433062
 20
54.1646061320084016
 30
0.0
 40
0.3939205909019583
 50
193.9339327803452022
 51
203.6946223587530937
  0
ARC
  5
1FE1B
  8
0
 10
8098.9224632620416742
 20
54.1647506805085328
 30
0.0
 40
0.3939374253008433
 50
284.6838626301309887
 51
293.9558399412550784
  0
ARC
  5
1FE1C
  8
0
 10
8098.9225008477405936
 20
54.1654445947077434
 30
0.0
 40
0.4133858267999957
 50
299.9894624836838943
 51
330.1726632604185738
  0
ARC
  5
1FE1D
  8
0
 10
8098.9222969084403303
 20
54.1646061320084016
 30
0.0
 40
0.3939205909019583
 50
336.3053776412468778
 51
346.0660672196539167
  0
ARC
  5
1FE1E
  8
0
 10
8089.8864563639472181
 20
52.363868975372668
 30
0.0
 40
1.0842227981883861
 50
98.7065630434367449
 51
123.1217982397026987
  0
LINE
  5
1FE1F
  8
0
 10
8090.180831897425378
 20
53.4892368701606387
 30
0.0
 11
8090.1305262437199417
 21
53.4087309954946718
 31
0.0
  0
ARC
  5
1FE20
  8
0
 10
8090.0191103827883126
 20
53.4811396269698065
 30
0.0
 40
0.1328777783501644
 50
289.9816008986420002
 51
326.9803544367459267
  0
ARC
  5
1FE21
  8
0
 10
8092.3720318302421219
 20
54.4166351551248013
 30
0.0
 40
0.8207739356005403
 50
310.9451610080899968
 51
324.3273560478526747
  0
ARC
  5
1FE23
  8
0
 10
8101.0456630505796056
 20
35.8613382222236083
 30
0.0
 40
0.1258621276582097
 50
272.6228192018739946
 51
356.05740542668741
  0
ENDSEC
  0
EOF
