  0
SECTION
  2
HEADER
  9
$ACADVER
  1
AC1009
  9
$INSBASE
 10
6734.9784569787198052
 20
278.942755568493908
 30
0.0
  9
$EXTMIN
 10
6713.5732867083142992
 20
278.9290030712101043
 30
-0.0015258207003583
  9
$EXTMAX
 10
6735.0721106237006097
 20
296.8797895803048732
 30
0.0000000349246037
  9
$LIMMIN
 10
0.0
 20
0.0
  9
$LIMMAX
 10
11.6929133858000007
 20
8.2677165353999982
  9
$ORTHOMODE
 70
     0
  9
$REGENMODE
 70
     1
  9
$FILLMODE
 70
     1
  9
$QTEXTMODE
 70
     0
  9
$MIRRTEXT
 70
     0
  9
$DRAGMODE
 70
     2
  9
$LTSCALE
 40
0.6431102362
  9
$OSMODE
 70
  4095
  9
$ATTMODE
 70
     1
  9
$TEXTSIZE
 40
0.2
  9
$TRACEWID
 40
0.05
  9
$TEXTSTYLE
  7
STANDARD
  9
$CLAYER
  8
0
  9
$CELTYPE
  6
BYLAYER
  9
$CECOLOR
 62
   256
  9
$DIMSCALE
 40
1.0
  9
$DIMASZ
 40
0.1875
  9
$DIMEXO
 40
0.0625
  9
$DIMDLI
 40
0.4443307087
  9
$DIMRND
 40
0.0
  9
$DIMDLE
 40
0.0
  9
$DIMEXE
 40
0.125
  9
$DIMTP
 40
0.01
  9
$DIMTM
 40
0.01
  9
$DIMTXT
 40
2.0
  9
$DIMCEN
 40
0.1052362205
  9
$DIMTSZ
 40
0.0
  9
$DIMTOL
 70
     1
  9
$DIMLIM
 70
     0
  9
$DIMTIH
 70
     1
  9
$DIMTOH
 70
     1
  9
$DIMSE1
 70
     0
  9
$DIMSE2
 70
     0
  9
$DIMTAD
 70
     0
  9
$DIMZIN
 70
     0
  9
$DIMBLK
  1

  9
$DIMASO
 70
     1
  9
$DIMSHO
 70
     1
  9
$DIMPOST
  1
\X
  9
$DIMAPOST
  1

  9
$DIMALT
 70
     1
  9
$DIMALTD
 70
     2
  9
$DIMALTF
 40
25.3999999999999986
  9
$DIMLFAC
 40
1.0
  9
$DIMTOFL
 70
     0
  9
$DIMTVP
 40
0.0
  9
$DIMTIX
 70
     0
  9
$DIMSOXD
 70
     0
  9
$DIMSAH
 70
     0
  9
$DIMBLK1
  1

  9
$DIMBLK2
  1

  9
$DIMSTYLE
  2
STANDARD
  9
$DIMCLRD
 70
     0
  9
$DIMCLRE
 70
     0
  9
$DIMCLRT
 70
     0
  9
$DIMTFAC
 40
1.0
  9
$DIMGAP
 40
0.09
  9
$LUNITS
 70
     2
  9
$LUPREC
 70
     4
  9
$SKETCHINC
 40
0.1
  9
$FILLETRAD
 40
0.0
  9
$AUNITS
 70
     0
  9
$AUPREC
 70
     0
  9
$MENU
  1
.
  9
$ELEVATION
 40
0.0
  9
$PELEVATION
 40
0.0
  9
$THICKNESS
 40
0.0
  9
$LIMCHECK
 70
     0
  9
$BLIPMODE
 70
     0
  9
$CHAMFERA
 40
0.0
  9
$CHAMFERB
 40
0.0
  9
$SKPOLY
 70
     0
  9
$TDCREATE
 40
2458060.468368056230247
  9
$TDUPDATE
 40
2460490.5029629631899297
  9
$TDINDWG
 40
1.0169746528000001
  9
$TDUSRTIMER
 40
1.0169746528000001
  9
$USRTIMER
 70
     1
  9
$ANGBASE
 50
0.0
  9
$ANGDIR
 70
     0
  9
$PDMODE
 70
     0
  9
$PDSIZE
 40
0.3125
  9
$PLINEWID
 40
0.0
  9
$COORDS
 70
     1
  9
$SPLFRAME
 70
     0
  9
$SPLINETYPE
 70
     6
  9
$SPLINESEGS
 70
     8
  9
$ATTDIA
 70
     1
  9
$ATTREQ
 70
     1
  9
$HANDLING
 70
     1
  9
$HANDSEED
  5
34B89
  9
$SURFTAB1
 70
     6
  9
$SURFTAB2
 70
     6
  9
$SURFTYPE
 70
     6
  9
$SURFU
 70
     6
  9
$SURFV
 70
     6
  9
$UCSNAME
  2

  9
$UCSORG
 10
0.0
 20
0.0
 30
0.0
  9
$UCSXDIR
 10
1.0
 20
0.0
 30
0.0
  9
$UCSYDIR
 10
0.0
 20
1.0
 30
0.0
  9
$PUCSNAME
  2

  9
$PUCSORG
 10
0.0
 20
0.0
 30
0.0
  9
$PUCSXDIR
 10
1.0
 20
0.0
 30
0.0
  9
$PUCSYDIR
 10
0.0
 20
1.0
 30
0.0
  9
$USERI1
 70
     0
  9
$USERI2
 70
     0
  9
$USERI3
 70
     0
  9
$USERI4
 70
     0
  9
$USERI5
 70
     0
  9
$USERR1
 40
0.0
  9
$USERR2
 40
0.0
  9
$USERR3
 40
0.0
  9
$USERR4
 40
0.0
  9
$USERR5
 40
0.0
  9
$WORLDVIEW
 70
     1
  9
$SHADEDGE
 70
     3
  9
$SHADEDIF
 70
    70
  9
$TILEMODE
 70
     1
  9
$MAXACTVP
 70
    64
  9
$PLIMCHECK
 70
     0
  9
$PEXTMIN
 10
1.0000000000000000E+20
 20
1.0000000000000000E+20
 30
1.0000000000000000E+20
  9
$PEXTMAX
 10
-1.0000000000000000E+20
 20
-1.0000000000000000E+20
 30
-1.0000000000000000E+20
  9
$PLIMMIN
 10
0.0
 20
0.0
  9
$PLIMMAX
 10
12.0
 20
9.0
  9
$UNITMODE
 70
     0
  9
$VISRETAIN
 70
     1
  9
$PLINEGEN
 70
     0
  9
$PSLTSCALE
 70
     1
  0
ENDSEC
  0
SECTION
  2
TABLES
  0
TABLE
  2
VPORT
 70
     1
  0
VPORT
  2
*ACTIVE
 70
     0
 10
0.0
 20
0.0
 11
1.0
 21
1.0
 12
2812.957342220694045
 22
155.3247912232183978
 13
0.0
 23
0.0
 14
1.0
 24
1.0
 15
0.0
 25
0.0
 16
0.0
 26
0.0
 36
60.4960186965801583
 17
3911.3653564453120453
 27
132.5796051025390057
 37
0.0
 40
18.0981910026466508
 41
2.5251322751322749
 42
50.0
 43
0.0
 44
0.0
 50
0.0
 51
0.0
 71
     0
 72
   100
 73
     1
 74
     1
 75
     0
 76
     0
 77
     0
 78
     0
  0
ENDTAB
  0
TABLE
  2
LTYPE
 70
     2
  0
LTYPE
  2
CONTINUOUS
 70
     0
  3
Solid line
 72
    65
 73
     0
 40
0.0
  0
LTYPE
  2
PHANTOM2
 70
     0
  3
___ _ _ ___ _ _ ___ _ _ ___ _ _
 72
    65
 73
     6
 40
1.25
 49
0.625
 49
-0.125
 49
0.125
 49
-0.125
 49
0.125
 49
-0.125
  0
ENDTAB
  0
TABLE
  2
LAYER
 70
     2
  0
LAYER
  2
0
 70
     0
 62
   255
  6
CONTINUOUS
  0
LAYER
  2
DEFPOINTS
 70
     0
 62
     7
  6
CONTINUOUS
  0
ENDTAB
  0
TABLE
  2
STYLE
 70
     1
  0
STYLE
  2
STANDARD
 70
     0
 40
0.0
 41
0.8
 50
0.0
 71
     0
 42
0.2
  3
txt
  4

  0
ENDTAB
  0
TABLE
  2
VIEW
 70
     0
  0
ENDTAB
  0
TABLE
  2
UCS
 70
     0
  0
ENDTAB
  0
TABLE
  2
APPID
 70
    11
  0
APPID
  2
ACAD
 70
     0
  0
APPID
  2
ACAD_MLEADERVER
 70
     0
  0
APPID
  2
ACAD_EXEMPT_FROM_CAD_STANDARDS
 70
     0
  0
APPID
  2
ACAD_NAV_VCDISPLAY
 70
     0
  0
APPID
  2
ACAECLAYERSTANDARD
 70
     0
  0
APPID
  2
ACCMTRANSPARENCY
 70
     0
  0
APPID
  2
ACAD_DSTYLE_DIMJAG
 70
     0
  0
APPID
  2
ACAD_DSTYLE_DIMTALN
 70
     0
  0
APPID
  2
ACDBATTR
 70
     0
  0
APPID
  2
ACADANNOTATIVE
 70
     0
  0
APPID
  2
DCO15
 70
     0
  0
ENDTAB
  0
TABLE
  2
DIMSTYLE
 70
     1
  0
DIMSTYLE
  2
STANDARD
 70
     0
  3

  4

  5

  6

  7

 40
1.0
 41
0.1875
 42
0.0625
 43
0.38
 44
0.125
 45
0.0
 46
0.0
 47
0.01
 48
0.01
140
0.15625
141
0.09
142
0.0
143
25.3999999999999986
144
1.0
145
0.0
146
1.0
147
0.09
 71
     1
 72
     0
 73
     1
 74
     1
 75
     0
 76
     0
 77
     0
 78
     4
170
     0
171
     2
172
     0
173
     0
174
     0
175
     0
176
     0
177
     0
178
     0
  0
ENDTAB
  0
ENDSEC
  0
SECTION
  2
BLOCKS
  0
BLOCK
  8
0
  2
$MODEL_SPACE
 70
     0
 10
0.0
 20
0.0
 30
0.0
  3
$MODEL_SPACE
  1

  0
ENDBLK
  5
21
  8
0
  0
BLOCK
 67
     1
  8
0
  2
$PAPER_SPACE
 70
     0
 10
0.0
 20
0.0
 30
0.0
  3
$PAPER_SPACE
  1

  0
ENDBLK
  5
1D
 67
     1
  8
0
  0
BLOCK
  8
0
  2
_FILLED
 70
     0
 10
0.0
 20
0.0
 30
0.0
  3
_FILLED
  1

  0
SOLID
  5
2853B
  8
0
  6
BYBLOCK
 62
     0
 10
0.0
 20
0.0
 30
0.0
 11
-1.0
 21
0.1666666667
 31
0.0
 12
-1.0
 22
-0.1666666667
 32
0.0
 13
-1.0
 23
-0.1666666667
 33
0.0
  0
ENDBLK
  5
2853C
  8
0
  6
BYBLOCK
 62
     0
  0
ENDSEC
  0
SECTION
  2
ENTITIES
  0
ATTDEF
  5
2842F
  8
DEFPOINTS
 10
6734.9760326262439776
 20
278.9470774103721169
 30
0.0
 40
0.001
  1
K-29169IN
  3

  2
MODELNUMBER
 70
     0
1001
ACDBATTR
1070
     0
1070
     1
  0
ATTDEF
  5
28430
  8
DEFPOINTS
 10
6734.975906816585848
 20
278.9454105699929869
 30
0.0
 40
0.001
  1
SPAN
  3

  2
TRADENAME
 70
     0
1001
ACDBATTR
1070
     0
1070
     1
  0
ATTDEF
  5
28431
  8
DEFPOINTS
 10
6734.9760326262439776
 20
278.9437440770387866
 30
0.0
 40
0.001
  1
BOWL
  3

  2
PRODUCT
 70
     0
1001
ACDBATTR
1070
     0
1070
     1
  0
LINE
  5
34A7B
  8
0
 10
6713.9631525861159389
 20
294.692755568493908
 30
0.0
 11
6734.9784569787198052
 21
294.692755568493908
 31
0.0
  0
LINE
  5
34A7C
  8
0
 10
6713.7786203520590789
 20
292.9821461888633962
 30
0.0
 11
6734.9784569787198052
 21
292.9821461888633962
 31
0.0
  0
LINE
  5
34A7D
  8
0
 10
6734.9784569787198052
 20
281.0020607151939203
 30
0.0
 11
6734.9784569787198052
 21
294.692755568493908
 31
0.0
  0
LINE
  5
34A7E
  8
0
 10
6713.7270982992577046
 20
294.448260168819786
 30
0.0
 11
6713.7785934031326178
 21
292.9829130487938755
 31
0.0
  0
ARC
  5
34A7F
  8
0
 10
6713.9631525861159389
 20
294.4565555684939113
 30
0.0
 40
0.2362
 50
90.0
 51
182.0126551714168102
  0
ARC
  5
34A80
  8
0
 10
6723.5929223825660301
 20
299.2161512676539132
 30
0.0
 40
11.6264488133575306
 50
212.4202870908225123
 51
218.3731960668685019
  0
ARC
  5
34A81
  8
0
 10
6721.486942789436398
 20
297.5485759386800169
 30
0.0
 40
8.9401953769728202
 50
218.3731960668685019
 51
236.0182331120261097
  0
ARC
  5
34A82
  8
0
 10
6725.1409599948574396
 20
302.970480190114074
 30
0.0
 40
15.4784587021476501
 50
236.0200549487375099
 51
249.132323134184702
  0
ARC
  5
34A83
  8
0
 10
6724.165003008966778
 20
300.4096418205151053
 30
0.0
 40
12.7379505171480396
 50
249.1311584599858975
 51
258.0105925593431948
  0
ARC
  5
34A84
  8
0
 10
6717.9859351568284183
 20
272.7824398218895112
 30
0.0
 40
15.5731673301676494
 50
74.9234925946291668
 51
76.8874442296256575
  0
ARC
  5
34A85
  8
0
 10
6721.7768737104315733
 20
286.9253921062182258
 30
0.0
 40
0.9311475773656948
 50
55.4686409884701774
 51
73.8003442649194028
  0
ARC
  5
34A86
  8
0
 10
6722.0414392032416799
 20
287.3098862924737773
 30
0.0
 40
0.4644242339912911
 50
33.9599218360128319
 51
55.4686409884701774
  0
ARC
  5
34A87
  8
0
 10
6721.6172468792537984
 20
287.0241964710501179
 30
0.0
 40
0.9758514544210648
 50
13.3299110459214507
 51
33.9599218360128319
  0
ARC
  5
34A88
  8
0
 10
6718.2037273908399584
 20
286.0948715879350743
 30
0.0
 40
4.5131930805676426
 50
12.0440102595457503
 51
14.8188956909849399
  0
ARC
  5
34A89
  8
0
 10
6716.0656132937710936
 20
285.6411812553851064
 30
0.0
 40
6.6989109931196662
 50
9.1562101556322801
 51
12.0231263218971094
  0
ARC
  5
34A8A
  8
0
 10
6737.9040299875223354
 20
288.903894387908224
 30
0.0
 40
15.3825251955422395
 50
188.210327861228393
 51
197.57270999078969
  0
ARC
  5
34A8B
  8
0
 10
6727.1396243177232463
 20
285.5372421248707155
 30
0.0
 40
4.104198200703272
 50
198.1366962790970092
 51
215.0362446011671977
  0
ARC
  5
34A8C
  8
0
 10
6727.1052889490511006
 20
285.3519638965354943
 30
0.0
 40
3.9719113075229271
 50
213.1318769896624019
 51
235.5974744478072864
  0
ARC
  5
34A8D
  8
0
 10
6727.3648164119667854
 20
285.956233947138287
 30
0.0
 40
4.6188755946067399
 50
237.1765631335200055
 51
258.6487214694691943
  0
ARC
  5
34A8E
  8
0
 10
6727.1302997994262114
 20
284.4120876089344279
 30
0.0
 40
3.0596709205346708
 50
257.2629396559806878
 51
287.817258527689205
  0
ARC
  5
34A8F
  8
0
 10
6727.1731913978337616
 20
284.2567988916600825
 30
0.0
 40
2.8987139130152442
 50
287.9493181121115981
 51
307.9788773781147029
  0
ARC
  5
34A90
  8
0
 10
6723.4567142023406632
 20
289.4782962112133191
 30
0.0
 40
9.3058319898544646
 50
306.2319323855977018
 51
309.2093047606118716
  0
ARC
  5
34A91
  8
0
 10
6729.4598222342774534
 20
282.1113922051039822
 30
0.0
 40
0.1973276167726672
 50
58.6063103579198881
 51
127.5926620853383042
  0
ARC
  5
34A92
  8
0
 10
6729.4224845624921727
 20
282.0684424040122167
 30
0.0
 40
0.2536176268691843
 50
16.395201423640561
 51
56.4599595933114031
  0
ARC
  5
34A93
  8
0
 10
6728.9847147711716389
 20
281.9034988114320868
 30
0.0
 40
0.7209779540521331
 50
3.0735656239508802
 51
19.1515688730121383
  0
LINE
  5
34A94
  8
0
 10
6734.9784569787198052
 20
281.0020607151939203
 30
0.0
 11
6730.0224841363196902
 21
281.3539910424938739
 31
0.0
  0
ARC
  5
34A95
  8
0
 10
6730.0448250451554486
 20
281.6686014323173026
 30
0.0
 40
0.3154026214101283
 50
182.2200185662937884
 51
265.9381675457535152
  0
LINE
  5
34A96
  8
0
 10
6729.7046556086943383
 20
281.9421562906308054
 30
0.0
 11
6729.7296591513568274
 21
281.65638370017939
 31
0.0
  0
LINE
  5
34A97
  8
0
 10
6730.6984995150396571
 20
291.9986717319832223
 30
0.0
 11
6714.4779730595164438
 21
291.9986717319832223
 31
0.0
  0
LINE
  5
34A98
  8
0
 10
6732.0485747025923047
 20
290.6730106839447103
 30
0.0
 11
6732.2214971977427922
 21
281.1978361540283231
 31
0.0
  0
ARC
  5
34A99
  8
0
 10
6730.6984995150396571
 20
290.6483717319832181
 30
0.0
 40
1.3503000000000001
 50
1.0455352956205151
 51
90.0
  0
ARC
  5
34A9A
  8
0
 10
6719.8403764688664523
 20
292.8164734601252803
 30
0.0
 40
10.7450242746391602
 50
352.2768279021233866
 51
355.5269146262539266
  0
ARC
  5
34A9B
  8
0
 10
6726.1946388384903912
 20
291.9547265087667824
 30
0.0
 40
4.3325943085348522
 50
323.5322952065155846
 51
352.2768279021233866
  0
ARC
  5
34A9C
  8
0
 10
6727.233270661719871
 20
291.1870849927645963
 30
0.0
 40
3.041072120835941
 50
306.1247742864570114
 51
323.5322952065155846
  0
ARC
  5
34A9D
  8
0
 10
6753.2322034006792819
 20
261.1387492634382852
 30
0.0
 40
36.7049096147725606
 50
131.2600772613390063
 51
133.4680713363370899
  0
ARC
  5
34A9E
  8
0
 10
6726.6996883950605479
 20
289.0740594409618893
 30
0.0
 40
1.8228090597746589
 50
286.8891461573236938
 51
314.6650379921005083
  0
ARC
  5
34A9F
  8
0
 10
6724.8248876064935757
 20
297.7852642590186747
 30
0.0
 40
10.7282909663756403
 50
272.3544360067044181
 51
282.9508098382066805
  0
ARC
  5
34AA0
  8
0
 10
6724.1677341969379995
 20
221.2353198589597127
 30
0.0
 40
65.8398643605305267
 50
89.0445454382265353
 51
90.681590756159693
  0
ARC
  5
34AA1
  8
0
 10
6722.8414909379716846
 20
292.4936932826230986
 30
0.0
 40
5.4502871213415922
 50
267.6194435370904898
 51
275.7180591632406959
  0
LINE
  5
34AA3
  8
0
 10
6713.8428948122227666
 20
294.8108658047938775
 30
0.0
 11
6725.6988571969231998
 21
294.8108658047938775
 31
0.0
  0
LINE
  5
34AA4
  8
0
 10
6726.1218759797247913
 20
294.8108658047938775
 30
0.0
 11
6729.335640336623328
 21
294.8108658047938775
 31
0.0
  0
ARC
  5
34AA5
  8
0
 10
6717.3485711461444225
 20
295.2729887326323137
 30
0.0
 40
0.5803943866419398
 50
232.7708536828438923
 51
268.6494140937177235
  0
ARC
  5
34AA6
  8
0
 10
6717.7669448946453485
 20
295.2731596042356159
 30
0.0
 40
0.5805666230433567
 50
271.3560888676943819
 51
307.2236433557845885
  0
ARC
  5
34AA7
  8
0
 10
6729.4951764769421061
 20
301.0601381054831904
 30
0.0
 40
6.2513083485164476
 50
268.537627722301977
 51
276.5981772314545992
  0
ARC
  5
34AA8
  8
0
 10
6729.9322903319589386
 20
296.6250126945348029
 30
0.0
 40
1.796915230940505
 50
279.0031212505601275
 51
289.4650473603472847
  0
ARC
  5
34AA9
  8
0
 10
6726.3484272171735938
 20
305.4630456843920001
 30
0.0
 40
11.3323772657409094
 50
291.6594256387904807
 51
297.5773370983806103
  0
ARC
  5
34AAA
  8
0
 10
6732.2232542349984215
 20
294.2147037853595748
 30
0.0
 40
1.357728642677434
 50
115.9018957151567975
 51
117.5773370983808945
  0
ARC
  5
34AAB
  8
0
 10
6731.5998615948028601
 20
295.4984221601254717
 30
0.0
 40
0.0693492282037456
 50
295.9018957151569111
 51
4.8377207049000139
  0
ARC
  5
34AAC
  8
0
 10
6774.067573702239315
 20
299.0926929285819256
 30
0.0
 40
42.5501926979711484
 50
183.1622792861618052
 51
184.8377207048999935
  0
ARC
  5
34AAD
  8
0
 10
6731.4457514064679344
 20
296.7379098952663981
 30
0.0
 40
0.1366289094785229
 50
3.1622792861618789
 51
84.9538249745786374
  0
ARC
  5
34AAE
  8
0
 10
6713.8428948123892042
 20
294.8817319466588742
 30
0.0
 40
0.0708661418649941
 50
180.0000000525465964
 51
269.9999998665978751
  0
ARC
  5
34AAF
  8
0
 10
6715.3057255213307144
 20
294.8817319480004926
 30
0.0
 40
1.5336968508081901
 50
158.8641356230639872
 51
180.0000000525465964
  0
ARC
  5
34AB0
  8
0
 10
6714.9172648194680733
 20
295.0319058875596738
 30
0.0
 40
1.1172188453681859
 50
95.9362998493123769
 51
158.8641356230639872
  0
ARC
  5
34AB1
  8
0
 10
6802.576903402185053
 20
-1606.2882279178950284
 30
0.0
 40
1904.4551893992379519
 50
92.4527773297243414
 51
92.6416635352306628
  0
LINE
  5
34AB2
  8
0
 10
6721.0739038429237553
 20
296.4221624180939898
 30
0.0
 11
6729.3475089201701849
 21
296.7833958170007804
 31
0.0
  0
LINE
  5
34AB3
  8
0
 10
6729.3475089201701849
 20
296.7833958170007804
 30
0.0
 11
6731.4577690877631539
 21
296.8740092495690988
 31
0.0
  0
ARC
  5
34AB4
  8
0
 10
6731.2847266132457662
 20
295.923396058159085
 30
0.0
 40
0.3918676217562494
 50
359.0968717181648913
 51
30.8838621429118696
  0
ARC
  5
34AB5
  8
0
 10
-266976.9346909392043017
 20
-9262.3952209974613652
 30
0.0
 40
273875.4556394563987851
 50
1.999968181960124
 51
2.000041213038791
  0
ARC
  5
34AB6
  8
0
 10
6731.0732367930841065
 20
295.554764967990593
 30
0.0
 40
0.6157077499746836
 50
312.2223794295604762
 51
358.4827340690503092
  0
ARC
  5
34AB7
  8
0
 10
6730.9402616276947811
 20
295.7719702645043753
 30
0.0
 40
0.8672193611752989
 50
288.6516508369567759
 51
309.083195875164904
  0
ARC
  5
34AB8
  8
0
 10
6730.6601758850320039
 20
296.6017529902717911
 30
0.0
 40
1.7429975267089071
 50
279.7565800146149968
 51
288.6516508369567759
  0
ARC
  5
34AB9
  8
0
 10
6730.6090337188379635
 20
296.8991782094898895
 30
0.0
 40
2.0447876560868141
 50
271.2127898988459265
 51
279.7565800146149968
  0
ARC
  5
34ABA
  8
0
 10
6728.9863077275485921
 20
373.5501005442542919
 30
0.0
 40
78.7128848961573198
 50
271.0425143898085025
 51
271.2127898988459265
  0
LINE
  5
34ABB
  8
0
 10
6730.4184339339572034
 20
294.8502449967082271
 30
0.0
 11
6730.2134864881736576
 21
294.8502357877333111
 31
0.0
  0
LINE
  5
34ABC
  8
0
 10
6730.2864864313241924
 20
294.6927555685938955
 30
0.0
 11
6730.2864864313241924
 21
294.7319886989939164
 31
0.0
  0
ARC
  5
34ABD
  8
0
 10
6730.4439638600906619
 20
294.7319886989939164
 30
0.0
 40
0.1574774287678196
 50
131.3216655181365127
 51
180.0
  0
LINE
  5
34ABE
  8
0
 10
6731.4869984919232593
 20
295.0988074151939031
 30
0.0
 11
6731.4870012639703418
 21
295.0239639127524924
 31
0.0
  0
ARC
  5
34ABF
  8
0
 10
6731.6444916731143167
 20
295.0239697458682144
 30
0.0
 40
0.1574904092519767
 50
180.0021221159761922
 51
247.9720393095078066
  0
ARC
  5
34AC0
  8
0
 10
6731.5263534660161895
 20
294.7319777595055825
 30
0.0
 40
0.1574952349866028
 50
0.0039797173052836
 51
67.972039309507764
  0
ARC
  5
34AC1
  8
0
 10
6272.6824589702237063
 20
294.7001068432513762
 30
0.0
 40
459.0013908376431004
 50
359.9990823622292169
 51
0.0039797173052836
  0
ARC
  5
34AC2
  8
0
 10
6725.910366588323086
 20
295.359330838843789
 30
0.0
 40
0.5878351097253011
 50
248.9114260404739127
 51
291.088573959526002
  0
LINE
  5
34AC3
  8
0
 10
6731.6887286705241422
 20
295.5384621404671748
 30
0.0
 11
6731.6887286705241422
 21
295.5683415030782726
 31
0.0
  0
ENDSEC
  0
EOF
