  0
SECTION
  2
HEADER
  9
$ACADVER
  1
AC1009
  9
$INSBASE
 10
438.0291881745797014
 20
67.4992963116935698
 30
0.0
  9
$EXTMIN
 10
416.6178537230596248
 20
67.4976679374564412
 30
-0.0015258207003583
  9
$EXTMAX
 10
438.0409731257047952
 20
85.4286504897759187
 30
0.0000000349246037
  9
$LIMMIN
 10
0.0
 20
0.0
  9
$LIMMAX
 10
11.6929133858000007
 20
8.2677165353999982
  9
$ORTHOMODE
 70
     0
  9
$REGENMODE
 70
     1
  9
$FILLMODE
 70
     1
  9
$QTEXTMODE
 70
     0
  9
$MIRRTEXT
 70
     0
  9
$DRAGMODE
 70
     2
  9
$LTSCALE
 40
0.6431102362
  9
$OSMODE
 70
  4095
  9
$ATTMODE
 70
     1
  9
$TEXTSIZE
 40
0.2
  9
$TRACEWID
 40
0.05
  9
$TEXTSTYLE
  7
STANDARD
  9
$CLAYER
  8
0
  9
$CELTYPE
  6
BYLAYER
  9
$CECOLOR
 62
   256
  9
$DIMSCALE
 40
1.0
  9
$DIMASZ
 40
0.1875
  9
$DIMEXO
 40
0.0625
  9
$DIMDLI
 40
0.4443307087
  9
$DIMRND
 40
0.0
  9
$DIMDLE
 40
0.0
  9
$DIMEXE
 40
0.125
  9
$DIMTP
 40
0.01
  9
$DIMTM
 40
0.01
  9
$DIMTXT
 40
1.0
  9
$DIMCEN
 40
0.1052362205
  9
$DIMTSZ
 40
0.0
  9
$DIMTOL
 70
     1
  9
$DIMLIM
 70
     0
  9
$DIMTIH
 70
     0
  9
$DIMTOH
 70
     1
  9
$DIMSE1
 70
     0
  9
$DIMSE2
 70
     0
  9
$DIMTAD
 70
     0
  9
$DIMZIN
 70
     0
  9
$DIMBLK
  1

  9
$DIMASO
 70
     1
  9
$DIMSHO
 70
     1
  9
$DIMPOST
  1
\X
  9
$DIMAPOST
  1

  9
$DIMALT
 70
     1
  9
$DIMALTD
 70
     2
  9
$DIMALTF
 40
25.3999999999999986
  9
$DIMLFAC
 40
1.0
  9
$DIMTOFL
 70
     0
  9
$DIMTVP
 40
0.0
  9
$DIMTIX
 70
     0
  9
$DIMSOXD
 70
     0
  9
$DIMSAH
 70
     0
  9
$DIMBLK1
  1

  9
$DIMBLK2
  1

  9
$DIMSTYLE
  2
STANDARD
  9
$DIMCLRD
 70
     0
  9
$DIMCLRE
 70
     0
  9
$DIMCLRT
 70
     0
  9
$DIMTFAC
 40
1.0
  9
$DIMGAP
 40
0.09
  9
$LUNITS
 70
     2
  9
$LUPREC
 70
     4
  9
$SKETCHINC
 40
0.1
  9
$FILLETRAD
 40
0.0
  9
$AUNITS
 70
     0
  9
$AUPREC
 70
     0
  9
$MENU
  1
.
  9
$ELEVATION
 40
0.0
  9
$PELEVATION
 40
0.0
  9
$THICKNESS
 40
0.0
  9
$LIMCHECK
 70
     0
  9
$BLIPMODE
 70
     0
  9
$CHAMFERA
 40
0.0
  9
$CHAMFERB
 40
0.0
  9
$SKPOLY
 70
     0
  9
$TDCREATE
 40
2458172.5207638889551163
  9
$TDUPDATE
 40
2459888.6687152781523764
  9
$TDINDWG
 40
0.2805296065
  9
$TDUSRTIMER
 40
0.2805296065
  9
$USRTIMER
 70
     1
  9
$ANGBASE
 50
0.0
  9
$ANGDIR
 70
     0
  9
$PDMODE
 70
     0
  9
$PDSIZE
 40
0.3125
  9
$PLINEWID
 40
0.0
  9
$COORDS
 70
     1
  9
$SPLFRAME
 70
     0
  9
$SPLINETYPE
 70
     6
  9
$SPLINESEGS
 70
     8
  9
$ATTDIA
 70
     1
  9
$ATTREQ
 70
     1
  9
$HANDLING
 70
     1
  9
$HANDSEED
  5
F020
  9
$SURFTAB1
 70
     6
  9
$SURFTAB2
 70
     6
  9
$SURFTYPE
 70
     6
  9
$SURFU
 70
     6
  9
$SURFV
 70
     6
  9
$UCSNAME
  2

  9
$UCSORG
 10
0.0
 20
0.0
 30
0.0
  9
$UCSXDIR
 10
1.0
 20
0.0
 30
0.0
  9
$UCSYDIR
 10
0.0
 20
1.0
 30
0.0
  9
$PUCSNAME
  2

  9
$PUCSORG
 10
0.0
 20
0.0
 30
0.0
  9
$PUCSXDIR
 10
1.0
 20
0.0
 30
0.0
  9
$PUCSYDIR
 10
0.0
 20
1.0
 30
0.0
  9
$USERI1
 70
     0
  9
$USERI2
 70
     0
  9
$USERI3
 70
     0
  9
$USERI4
 70
     0
  9
$USERI5
 70
     0
  9
$USERR1
 40
0.0
  9
$USERR2
 40
0.0
  9
$USERR3
 40
0.0
  9
$USERR4
 40
0.0
  9
$USERR5
 40
0.0
  9
$WORLDVIEW
 70
     1
  9
$SHADEDGE
 70
     3
  9
$SHADEDIF
 70
    70
  9
$TILEMODE
 70
     1
  9
$MAXACTVP
 70
    64
  9
$PLIMCHECK
 70
     0
  9
$PEXTMIN
 10
1.0000000000000000E+20
 20
1.0000000000000000E+20
 30
1.0000000000000000E+20
  9
$PEXTMAX
 10
-1.0000000000000000E+20
 20
-1.0000000000000000E+20
 30
-1.0000000000000000E+20
  9
$PLIMMIN
 10
0.0
 20
0.0
  9
$PLIMMAX
 10
12.0
 20
9.0
  9
$UNITMODE
 70
     0
  9
$VISRETAIN
 70
     1
  9
$PLINEGEN
 70
     0
  9
$PSLTSCALE
 70
     1
  0
ENDSEC
  0
SECTION
  2
TABLES
  0
TABLE
  2
VPORT
 70
     1
  0
VPORT
  2
*ACTIVE
 70
     0
 10
0.0
 20
0.0
 11
1.0
 21
1.0
 12
-2.2998756836715311
 22
6.760617701397492
 13
0.0
 23
0.0
 14
1.0
 24
1.0
 15
0.0
 25
0.0
 16
0.0
 26
0.0
 36
14.6338572656650907
 17
429.6292891080536833
 27
69.7025415122186871
 37
0.0
 40
18.0708861873180702
 41
2.095052083333333
 42
50.0
 43
0.0
 44
0.0
 50
0.0
 51
0.0
 71
     0
 72
   100
 73
     1
 74
     1
 75
     0
 76
     0
 77
     0
 78
     1
  0
ENDTAB
  0
TABLE
  2
LTYPE
 70
     2
  0
LTYPE
  2
CONTINUOUS
 70
     0
  3
Solid line
 72
    65
 73
     0
 40
0.0
  0
LTYPE
  2
PHANTOM2
 70
     0
  3
___ _ _ ___ _ _ ___ _ _ ___ _ _
 72
    65
 73
     6
 40
1.25
 49
0.625
 49
-0.125
 49
0.125
 49
-0.125
 49
0.125
 49
-0.125
  0
ENDTAB
  0
TABLE
  2
LAYER
 70
     2
  0
LAYER
  2
0
 70
     0
 62
   255
  6
CONTINUOUS
  0
LAYER
  2
DEFPOINTS
 70
     0
 62
     7
  6
CONTINUOUS
  0
ENDTAB
  0
TABLE
  2
STYLE
 70
     1
  0
STYLE
  2
STANDARD
 70
     0
 40
0.0
 41
0.8
 50
0.0
 71
     0
 42
0.2
  3
txt
  4

  0
ENDTAB
  0
TABLE
  2
VIEW
 70
     0
  0
ENDTAB
  0
TABLE
  2
UCS
 70
     0
  0
ENDTAB
  0
TABLE
  2
APPID
 70
    10
  0
APPID
  2
ACAD
 70
     0
  0
APPID
  2
ACAD_MLEADERVER
 70
     0
  0
APPID
  2
ACAD_EXEMPT_FROM_CAD_STANDARDS
 70
     0
  0
APPID
  2
ACAD_DSTYLE_DIMJAG
 70
     0
  0
APPID
  2
ACAD_DSTYLE_DIMTALN
 70
     0
  0
APPID
  2
ACAD_NAV_VCDISPLAY
 70
     0
  0
APPID
  2
ACAECLAYERSTANDARD
 70
     0
  0
APPID
  2
ACCMTRANSPARENCY
 70
     0
  0
APPID
  2
DCO15
 70
     0
  0
APPID
  2
ACDBATTR
 70
     0
  0
ENDTAB
  0
TABLE
  2
DIMSTYLE
 70
     1
  0
DIMSTYLE
  2
STANDARD
 70
     0
  3

  4

  5

  6

  7

 40
1.0
 41
0.1875
 42
0.0625
 43
0.38
 44
0.125
 45
0.0
 46
0.0
 47
0.01
 48
0.01
140
0.15625
141
0.09
142
0.0
143
25.3999999999999986
144
1.0
145
0.0
146
1.0
147
0.09
 71
     1
 72
     0
 73
     1
 74
     1
 75
     0
 76
     0
 77
     0
 78
     4
170
     0
171
     2
172
     0
173
     0
174
     0
175
     0
176
     0
177
     0
178
     0
  0
ENDTAB
  0
ENDSEC
  0
SECTION
  2
BLOCKS
  0
BLOCK
  8
0
  2
$MODEL_SPACE
 70
     0
 10
0.0
 20
0.0
 30
0.0
  3
$MODEL_SPACE
  1

  0
ENDBLK
  5
21
  8
0
  0
BLOCK
 67
     1
  8
0
  2
$PAPER_SPACE
 70
     0
 10
0.0
 20
0.0
 30
0.0
  3
$PAPER_SPACE
  1

  0
ENDBLK
  5
1D
 67
     1
  8
0
  0
ENDSEC
  0
SECTION
  2
ENTITIES
  0
ATTDEF
  5
E8DF
  8
DEFPOINTS
 10
438.0290459149101139
 20
67.5029464405069746
 30
0.0
 40
0.001
  1
K-29171IN-S
  3

  2
MODELNUMBER
 70
     0
1001
ACDBATTR
1070
     0
1070
     1
  0
ATTDEF
  5
E8E0
  8
DEFPOINTS
 10
438.0290459149101139
 20
67.5012797738403094
 30
0.0
 40
0.001
  1
SPAN ROUND
  3

  2
TRADENAME
 70
     0
1001
ACDBATTR
1070
     0
1070
     1
  0
ATTDEF
  5
E8E1
  8
DEFPOINTS
 10
438.0290459149101139
 20
67.4996131071736443
 30
0.0
 40
0.001
  1
TOILET
  3

  2
PRODUCT
 70
     0
1001
ACDBATTR
1070
     0
1070
     1
  0
LINE
  5
EDD5
  8
0
 10
432.5943704789103208
 20
83.3654065478935848
 30
0.0
 11
416.7182866233796972
 21
83.3654065478935848
 31
0.0
  0
LINE
  5
EDD6
  8
0
 10
416.9948980220935937
 20
83.2472963116935745
 30
0.0
 11
438.0291881745797014
 21
83.2472963116935745
 31
0.0
  0
LINE
  5
EDD7
  8
0
 10
416.8290586512969185
 20
81.537461029793306
 30
0.0
 11
438.0291881745797014
 21
81.537461029793306
 31
0.0
  0
ARC
  5
EDD8
  8
0
 10
416.7182866233796972
 20
83.4362726895935651
 30
0.0
 40
0.0708661417000069
 50
175.9999999617834874
 51
269.9999999999968168
  0
LINE
  5
EDD9
  8
0
 10
416.6475931080425994
 20
83.4412160617935541
 30
0.0
 11
416.6593973108126079
 21
83.6100240244161341
 31
0.0
  0
ARC
  5
EDDA
  8
0
 10
417.8375002589643827
 20
83.5276430403209957
 30
0.0
 40
1.180979755535376
 50
94.769314926284494
 51
175.9999999617834874
  0
ARC
  5
EDDB
  8
0
 10
2643.8831755116520981
 20
-50653.1011277558864094
 30
0.0
 40
50786.6187086161007755
 50
92.4959111130188916
 51
92.5122666393565254
  0
ARC
  5
EDDC
  8
0
 10
487.848304939366983
 20
-1176.6708365355239039
 30
0.0
 40
1263.2340752859849999
 50
92.4286429116651505
 51
92.5237854309428656
  0
ARC
  5
EDDD
  8
0
 10
434.3126693678407264
 20
85.2827723699996341
 30
0.0
 40
0.1459137803224641
 50
6.775707809071454
 51
87.6684165416239125
  0
LINE
  5
EDDE
  8
0
 10
434.4575640308187872
 20
85.2999877099166355
 30
0.0
 11
434.5443555813827743
 21
84.058811391751064
 31
0.0
  0
ARC
  5
EDDF
  8
0
 10
434.4736620564270879
 20
84.0538680250923846
 30
0.0
 40
0.0708661509085101
 50
296.7358355889778068
 51
3.9999950609164818
  0
ARC
  5
EDE0
  8
0
 10
425.7647456441903842
 20
101.318014543436604
 30
0.0
 40
19.4072561871272313
 50
293.532148322069304
 51
296.7685876639906155
  0
ARC
  5
EDE1
  8
0
 10
432.7671026913636751
 20
85.350716691339187
 30
0.0
 40
1.9725835967716689
 50
278.7245186279532163
 51
292.2291996557125913
  0
ARC
  5
EDE2
  8
0
 10
432.5040177272650226
 20
87.715118420343714
 30
0.0
 40
4.3506501804975688
 50
271.1899838685503141
 51
277.4258886978104783
  0
ARC
  5
EDE3
  8
0
 10
428.7847839933056093
 20
83.9108975638070831
 30
0.0
 40
0.5848054260026674
 50
248.871368086062887
 51
291.128631913937113
  0
ARC
  5
EDE4
  8
0
 10
417.0157436903588746
 20
83.0102043594978483
 30
0.0
 40
0.2380065874748174
 50
95.0246555245218332
 51
179.7902068997892115
  0
ARC
  5
EDE5
  8
0
 10
4190.2599248649394212
 20
213.6774282240432967
 30
0.0
 40
3775.7438346585809086
 50
181.983218676433097
 51
182.005593786471394
  0
ARC
  5
EDE6
  8
0
 10
426.3081328664600278
 20
87.5549326779821939
 30
0.0
 40
11.2277697368004095
 50
212.4080069736938015
 51
221.4966012339608028
  0
ARC
  5
EDE7
  8
0
 10
425.6030891708140871
 20
87.3100186221954857
 30
0.0
 40
10.5412399268924304
 50
223.0388374944396048
 51
243.1552932104661977
  0
ARC
  5
EDE8
  8
0
 10
428.1582241726831057
 20
91.693806249509052
 30
0.0
 40
15.6093218405160403
 50
242.0534038051434038
 51
256.7190357315366214
  0
ARC
  5
EDE9
  8
0
 10
419.0010677024804977
 20
52.8987411730541623
 30
0.0
 40
24.25181949921663
 50
75.4834989569689156
 51
76.7190357315366498
  0
ARC
  5
EDEA
  8
0
 10
424.8763852664862952
 20
75.5899474427135374
 30
0.0
 40
0.8123186843497737
 50
50.9293380967466121
 51
75.4834989569687167
  0
ARC
  5
EDEB
  8
0
 10
425.0674202585008175
 20
75.8252620318409782
 30
0.0
 40
0.5092224553560433
 50
25.8018246035756995
 51
50.9293380967466121
  0
ARC
  5
EDEC
  8
0
 10
424.1062854867321903
 20
75.3605935681284222
 30
0.0
 40
1.576788299073282
 50
9.7242783682793856
 51
25.8018246035756995
  0
ARC
  5
EDED
  8
0
 10
484.2587070569016987
 20
85.6688707576287385
 30
0.0
 40
59.4525030237903991
 50
189.7242783682793004
 51
191.1385653070070134
  0
ARC
  5
EDEE
  8
0
 10
436.5935026316918766
 20
76.2840070670708599
 30
0.0
 40
10.8721841756458897
 50
191.1385653070070134
 51
198.5662683489711071
  0
ARC
  5
EDEF
  8
0
 10
430.3533783457991717
 20
74.188062234600082
 30
0.0
 40
4.2894692460632511
 50
198.5662683489711071
 51
212.4119233233076898
  0
ARC
  5
EDF0
  8
0
 10
430.9549495181254883
 20
74.5700065386205608
 30
0.0
 40
5.0020485937486461
 50
212.4119233233076898
 51
226.7592198372541077
  0
ARC
  5
EDF1
  8
0
 10
429.4539520471709011
 20
72.9738846681871536
 30
0.0
 40
2.8110217949422451
 50
226.7592198372541077
 51
241.4201327131144978
  0
ARC
  5
EDF2
  8
0
 10
430.7234830608305174
 20
75.3043172715517244
 30
0.0
 40
5.464816269551739
 50
241.4201327131144978
 51
254.2704302760415089
  0
ARC
  5
EDF3
  8
0
 10
430.1758864367984074
 20
73.2594917996362369
 30
0.0
 40
3.3482245014673131
 50
253.8040067193381901
 51
278.4185140358183048
  0
ARC
  5
EDF4
  8
0
 10
430.2876248601202747
 20
72.6565960991158164
 30
0.0
 40
2.7355567921408772
 50
277.9520904791161229
 51
304.694110519412618
  0
ARC
  5
EDF5
  8
0
 10
427.7758181188727917
 20
76.2849025219923647
 30
0.0
 40
7.1484674646633897
 50
304.694110519412618
 51
308.7963840429247284
  0
ARC
  5
EDF6
  8
0
 10
489.2767376861797857
 20
-0.2167008368228949
 30
0.0
 40
91.0088472097604324
 50
128.6848342063478015
 51
128.7963840429245863
  0
ARC
  5
EDF7
  8
0
 10
432.5108523707498875
 20
70.6640192147321073
 30
0.0
 40
0.1990934079012928
 50
34.5164369830942022
 51
126.3214433917489998
  0
ARC
  5
EDF8
  8
0
 10
432.2832105616506055
 20
70.5306232674258524
 30
0.0
 40
0.462643351112132
 50
11.4659521977384191
 51
32.1530461684954929
  0
ARC
  5
EDF9
  8
0
 10
426.6363210340846877
 20
69.7602599085360424
 30
0.0
 40
6.160947355387707
 50
3.9970909668295578
 51
8.0459448420750395
  0
ARC
  5
EDFA
  8
0
 10
433.0955668221811834
 20
70.2227603854685043
 30
0.0
 40
0.3150225021355471
 50
186.0215327277174993
 51
265.9313196832814015
  0
LINE
  5
EDFB
  8
0
 10
433.0732152822798184
 20
69.9085318292935654
 30
0.0
 11
438.0291881745797014
 21
69.5566015082935536
 31
0.0
  0
LINE
  5
EDFC
  8
0
 10
438.0291881745797014
 20
83.2472963116935745
 30
0.0
 11
438.0291881745797014
 21
69.5566015082935536
 31
0.0
  0
ARC
  5
EDFD
  8
0
 10
433.0993442370107118
 20
112.4997966743879942
 30
0.0
 40
29.0950676604269987
 50
269.981480582229608
 51
270.6965613599056155
  0
ARC
  5
EDFE
  8
0
 10
433.4487261027015848
 20
85.6550258769328252
 30
0.0
 40
2.248150931862162
 50
270.1102659418767757
 51
284.4095486057594258
  0
ARC
  5
EDFF
  8
0
 10
433.7322378689927973
 20
84.495650658589966
 30
0.0
 40
1.0547872544714449
 50
285.1656506476134041
 51
304.062467971374474
  0
ARC
  5
EE00
  8
0
 10
434.0406982132519147
 20
84.0394131576242671
 30
0.0
 40
0.5040600613277914
 50
304.062467971374474
 51
332.907041897756983
  0
ARC
  5
EE01
  8
0
 10
433.9740718007536771
 20
84.0981845598115143
 30
0.0
 40
0.5905511800634513
 50
330.7741947680767112
 51
2.000000032597316
  0
LINE
  5
EE02
  8
0
 10
434.5642632329827961
 20
84.1187944991085601
 30
0.0
 11
434.5519299436272149
 21
84.4719725949080953
 31
0.0
  0
ARC
  5
EE03
  8
0
 10
433.9699693867289056
 20
84.451984893774835
 30
0.0
 40
0.5823036990968645
 50
1.967076498694952
 51
24.4626159800464116
  0
LINE
  5
EE04
  8
0
 10
434.3623903030796782
 20
83.6513529241965301
 30
0.0
 11
434.3623930751268176
 21
83.5785046561421439
 31
0.0
  0
ARC
  5
EE05
  8
0
 10
434.5198836462022882
 20
83.5785106490267538
 30
0.0
 40
0.157490571189478
 50
180.0021802384302987
 51
247.9720067617959955
  0
ARC
  5
EE06
  8
0
 10
434.4017450626416235
 20
83.2865182092729555
 30
0.0
 40
0.1574956345387884
 50
0.0040864193804371
 51
67.9720067617930823
  0
LINE
  5
EE07
  8
0
 10
434.5592406967797956
 20
83.2865294420935669
 30
0.0
 11
434.5592434949443827
 21
83.2472963116935745
 31
0.0
  0
LINE
  5
EE08
  8
0
 10
433.1618785588797778
 20
83.2472963116935745
 30
0.0
 11
433.161878932280672
 21
83.2865294420462874
 31
0.0
  0
ARC
  5
EE09
  8
0
 10
433.3193135838172907
 20
83.2865279436636143
 30
0.0
 40
0.1574346515437634
 50
131.2126494808680945
 51
179.9994546880076882
  0
LINE
  5
EE0A
  8
0
 10
434.2642856268863056
 20
83.584881019484726
 30
0.0
 11
434.2641030139798204
 21
83.4441417370935739
 31
0.0
  0
ARC
  5
EE0B
  8
0
 10
434.224687356434174
 20
83.4441928799420083
 30
0.0
 40
0.0394156907251046
 50
270.0774129411191211
 51
359.9256572665365184
  0
LINE
  5
EE0C
  8
0
 10
434.2247406113797865
 20
83.4047772251935839
 30
0.0
 11
433.4963813060797975
 21
83.4047766266935753
 31
0.0
  0
ARC
  5
EE0D
  8
0
 10
433.4964030384830949
 20
83.444272403762497
 30
0.0
 40
0.0394958479689264
 50
250.0972403264865989
 51
269.9684731850384765
  0
ARC
  5
EE0E
  8
0
 10
420.3408316054816964
 20
84.0383265871509195
 30
0.0
 40
0.8198949891192441
 50
235.1588691126225967
 51
246.7972371615761915
  0
ARC
  5
EE0F
  8
0
 10
420.2045915234011204
 20
83.7204969874922256
 30
0.0
 40
0.4740958937118955
 50
246.7972371615761915
 51
266.4784222808895038
  0
ARC
  5
EE10
  8
0
 10
420.6250409907430026
 20
83.8652486629461009
 30
0.0
 40
0.6221607417847347
 50
276.667905754884714
 51
306.5442661248807212
  0
ARC
  5
EE11
  8
0
 10
417.7198655844821928
 20
25096.5019328742710059
 30
0.0
 40
25015.9487186456099153
 50
269.9995673365062885
 51
270.0223774446432117
  0
ARC
  5
EE12
  8
0
 10
428.1687402642270968
 20
-1657.0617066114100453
 30
0.0
 40
1737.6169612967969442
 50
89.8335344093748347
 51
90.0223774446432401
  0
ARC
  5
EE13
  8
0
 10
433.3069703825372017
 20
77.8507472959286986
 30
0.0
 40
2.6986685221606108
 50
76.0711130576607815
 51
91.9071714380404785
  0
ARC
  5
EE14
  8
0
 10
433.6916893091141105
 20
79.1139757008050566
 30
0.0
 40
1.3817167299985851
 50
14.6379127029582801
 51
78.9470384119041881
  0
ARC
  5
EE15
  8
0
 10
432.9591864365957008
 20
78.8915863847783498
 30
0.0
 40
2.1468545334921219
 50
359.8248077718697004
 51
15.4402010285353004
  0
LINE
  5
EE16
  8
0
 10
435.1060309341792731
 20
78.8850219982507497
 30
0.0
 11
435.1989274551797848
 21
73.5970545659935738
 31
0.0
  0
ARC
  5
EE17
  8
0
 10
567.6185113741491932
 20
74.846056172073034
 30
0.0
 40
132.4254741742878139
 50
180.5404064597597937
 51
181.4813193322135874
  0
ARC
  5
EE18
  8
0
 10
345.3947034278648971
 20
69.0994236951380287
 30
0.0
 40
89.8726243397841245
 50
0.4166035227570008
 51
1.4813193322136311
  0
ARC
  5
EE19
  8
0
 10
425.8023262803769171
 20
66.3171993721389867
 30
0.0
 40
9.2864548230329902
 50
87.1152803562741553
 51
90.8423589849816153
  0
ARC
  5
EE1A
  8
0
 10
426.618066404449678
 20
74.2744552196683401
 30
0.0
 40
1.3627167930105999
 50
92.2866483815644898
 51
104.8123649063087015
  0
ARC
  5
EE1B
  8
0
 10
415.3920011634538128
 20
82.0763156059896062
 30
0.0
 40
18.2768086737801312
 50
352.8048339203592718
 51
355.1563329974886187
  0
ARC
  5
EE1C
  8
0
 10
429.9030280048690997
 20
80.2443903931962552
 30
0.0
 40
3.65060445062164
 50
320.7427855558869965
 51
352.8048339203592718
  0
ARC
  5
EE1D
  8
0
 10
429.2695815069229184
 20
80.7620709087737936
 30
0.0
 40
4.468679986234922
 50
308.9194520257220802
 51
320.7427855558869965
  0
ARC
  5
EE1E
  8
0
 10
456.2729190893127793
 20
49.7040788438435897
 30
0.0
 40
36.6901891390668311
 50
131.2592818412319104
 51
133.4683105749894878
  0
ARC
  5
EE1F
  8
0
 10
429.8185901122739097
 20
77.5116097182616244
 30
0.0
 40
1.6920178508771431
 50
283.6508630273129938
 51
315.8081403904953959
  0
ARC
  5
EE20
  8
0
 10
428.5077520808633267
 20
82.9089957452922164
 30
0.0
 40
7.2463019874133181
 50
270.8701274839121993
 51
283.6508630273129938
  0
ARC
  5
EE21
  8
0
 10
420.0827101085604909
 20
637.634878251690111
 30
0.0
 40
562.0361595503801482
 50
270.660707198084026
 51
270.8701274839121993
  0
ENDSEC
  0
EOF
