  0
SECTION
  2
HEADER
  9
$ACADVER
  1
AC1009
  9
$INSBASE
 10
3083.7168144761699295
 20
8.8803207392517862
 30
0.0
  9
$EXTMIN
 10
3082.7719325863699851
 20
8.8803207392517862
 30
0.0
  9
$EXTMAX
 10
3084.6617713106329575
 20
15.4448155358847501
 30
0.0
  9
$LIMMIN
 10
0.0
 20
0.0
  9
$LIMMAX
 10
11.6929133858000007
 20
8.2677165353999982
  9
$ORTHOMODE
 70
     0
  9
$REGENMODE
 70
     1
  9
$FILLMODE
 70
     1
  9
$QTEXTMODE
 70
     0
  9
$MIRRTEXT
 70
     0
  9
$DRAGMODE
 70
     2
  9
$LTSCALE
 40
0.6431102362
  9
$OSMODE
 70
  3839
  9
$ATTMODE
 70
     1
  9
$TEXTSIZE
 40
0.2
  9
$TRACEWID
 40
0.05
  9
$TEXTSTYLE
  7
STANDARD
  9
$CLAYER
  8
0
  9
$CELTYPE
  6
BYLAYER
  9
$CECOLOR
 62
   256
  9
$DIMSCALE
 40
1.0
  9
$DIMASZ
 40
0.1875
  9
$DIMEXO
 40
0.0625
  9
$DIMDLI
 40
0.4443307087
  9
$DIMRND
 40
0.0
  9
$DIMDLE
 40
0.0
  9
$DIMEXE
 40
0.125
  9
$DIMTP
 40
0.01
  9
$DIMTM
 40
0.01
  9
$DIMTXT
 40
2.0
  9
$DIMCEN
 40
0.1052362205
  9
$DIMTSZ
 40
0.0
  9
$DIMTOL
 70
     1
  9
$DIMLIM
 70
     0
  9
$DIMTIH
 70
     1
  9
$DIMTOH
 70
     1
  9
$DIMSE1
 70
     0
  9
$DIMSE2
 70
     0
  9
$DIMTAD
 70
     0
  9
$DIMZIN
 70
     0
  9
$DIMBLK
  1

  9
$DIMASO
 70
     1
  9
$DIMSHO
 70
     1
  9
$DIMPOST
  1
\X
  9
$DIMAPOST
  1

  9
$DIMALT
 70
     1
  9
$DIMALTD
 70
     2
  9
$DIMALTF
 40
25.3999999999999986
  9
$DIMLFAC
 40
1.0
  9
$DIMTOFL
 70
     0
  9
$DIMTVP
 40
0.0
  9
$DIMTIX
 70
     0
  9
$DIMSOXD
 70
     0
  9
$DIMSAH
 70
     0
  9
$DIMBLK1
  1

  9
$DIMBLK2
  1

  9
$DIMSTYLE
  2
STANDARD
  9
$DIMCLRD
 70
     0
  9
$DIMCLRE
 70
     0
  9
$DIMCLRT
 70
     0
  9
$DIMTFAC
 40
1.0
  9
$DIMGAP
 40
0.09
  9
$LUNITS
 70
     2
  9
$LUPREC
 70
     4
  9
$SKETCHINC
 40
0.1
  9
$FILLETRAD
 40
0.0
  9
$AUNITS
 70
     0
  9
$AUPREC
 70
     0
  9
$MENU
  1
.
  9
$ELEVATION
 40
0.0
  9
$PELEVATION
 40
0.0
  9
$THICKNESS
 40
0.0
  9
$LIMCHECK
 70
     0
  9
$BLIPMODE
 70
     0
  9
$CHAMFERA
 40
0.0
  9
$CHAMFERB
 40
0.0
  9
$SKPOLY
 70
     0
  9
$TDCREATE
 40
2458060.468368056230247
  9
$TDUPDATE
 40
2460431.4184375000186265
  9
$TDINDWG
 40
0.5144399306
  9
$TDUSRTIMER
 40
0.5144399306
  9
$USRTIMER
 70
     1
  9
$ANGBASE
 50
0.0
  9
$ANGDIR
 70
     0
  9
$PDMODE
 70
     0
  9
$PDSIZE
 40
0.3125
  9
$PLINEWID
 40
0.0
  9
$COORDS
 70
     1
  9
$SPLFRAME
 70
     0
  9
$SPLINETYPE
 70
     6
  9
$SPLINESEGS
 70
     8
  9
$ATTDIA
 70
     1
  9
$ATTREQ
 70
     1
  9
$HANDLING
 70
     1
  9
$HANDSEED
  5
32E35
  9
$SURFTAB1
 70
     6
  9
$SURFTAB2
 70
     6
  9
$SURFTYPE
 70
     6
  9
$SURFU
 70
     6
  9
$SURFV
 70
     6
  9
$UCSNAME
  2

  9
$UCSORG
 10
0.0
 20
0.0
 30
0.0
  9
$UCSXDIR
 10
1.0
 20
0.0
 30
0.0
  9
$UCSYDIR
 10
0.0
 20
1.0
 30
0.0
  9
$PUCSNAME
  2

  9
$PUCSORG
 10
0.0
 20
0.0
 30
0.0
  9
$PUCSXDIR
 10
1.0
 20
0.0
 30
0.0
  9
$PUCSYDIR
 10
0.0
 20
1.0
 30
0.0
  9
$USERI1
 70
     0
  9
$USERI2
 70
     0
  9
$USERI3
 70
     0
  9
$USERI4
 70
     0
  9
$USERI5
 70
     0
  9
$USERR1
 40
0.0
  9
$USERR2
 40
0.0
  9
$USERR3
 40
0.0
  9
$USERR4
 40
0.0
  9
$USERR5
 40
0.0
  9
$WORLDVIEW
 70
     1
  9
$SHADEDGE
 70
     3
  9
$SHADEDIF
 70
    70
  9
$TILEMODE
 70
     1
  9
$MAXACTVP
 70
    64
  9
$PLIMCHECK
 70
     0
  9
$PEXTMIN
 10
1.0000000000000000E+20
 20
1.0000000000000000E+20
 30
1.0000000000000000E+20
  9
$PEXTMAX
 10
-1.0000000000000000E+20
 20
-1.0000000000000000E+20
 30
-1.0000000000000000E+20
  9
$PLIMMIN
 10
0.0
 20
0.0
  9
$PLIMMAX
 10
12.0
 20
9.0
  9
$UNITMODE
 70
     0
  9
$VISRETAIN
 70
     1
  9
$PLINEGEN
 70
     0
  9
$PSLTSCALE
 70
     1
  0
ENDSEC
  0
SECTION
  2
TABLES
  0
TABLE
  2
VPORT
 70
     1
  0
VPORT
  2
*ACTIVE
 70
     0
 10
0.0
 20
0.0
 11
1.0
 21
1.0
 12
-719.8272154343112561
 22
-113.8326940591816054
 13
0.0
 23
0.0
 14
1.0
 24
1.0
 15
0.0
 25
0.0
 16
0.0
 26
0.0
 36
17.1152628219792007
 17
3803.5440673828129547
 27
125.9952621967499056
 37
0.0
 40
6.608209523358596
 41
2.1211111111111101
 42
50.0
 43
0.0
 44
0.0
 50
0.0
 51
0.0
 71
     0
 72
   100
 73
     1
 74
     1
 75
     0
 76
     0
 77
     0
 78
     1
  0
ENDTAB
  0
TABLE
  2
LTYPE
 70
     2
  0
LTYPE
  2
CONTINUOUS
 70
     0
  3
Solid line
 72
    65
 73
     0
 40
0.0
  0
LTYPE
  2
PHANTOM2
 70
     0
  3
___ _ _ ___ _ _ ___ _ _ ___ _ _
 72
    65
 73
     6
 40
1.25
 49
0.625
 49
-0.125
 49
0.125
 49
-0.125
 49
0.125
 49
-0.125
  0
ENDTAB
  0
TABLE
  2
LAYER
 70
     2
  0
LAYER
  2
0
 70
     0
 62
   255
  6
CONTINUOUS
  0
LAYER
  2
DEFPOINTS
 70
     0
 62
     7
  6
CONTINUOUS
  0
ENDTAB
  0
TABLE
  2
STYLE
 70
     1
  0
STYLE
  2
STANDARD
 70
     0
 40
0.0
 41
0.8
 50
0.0
 71
     0
 42
0.2
  3
txt
  4

  0
ENDTAB
  0
TABLE
  2
VIEW
 70
     0
  0
ENDTAB
  0
TABLE
  2
UCS
 70
     0
  0
ENDTAB
  0
TABLE
  2
APPID
 70
    10
  0
APPID
  2
ACAD
 70
     0
  0
APPID
  2
ACAD_MLEADERVER
 70
     0
  0
APPID
  2
ACAD_EXEMPT_FROM_CAD_STANDARDS
 70
     0
  0
APPID
  2
ACAD_NAV_VCDISPLAY
 70
     0
  0
APPID
  2
ACAECLAYERSTANDARD
 70
     0
  0
APPID
  2
ACCMTRANSPARENCY
 70
     0
  0
APPID
  2
ACAD_DSTYLE_DIMJAG
 70
     0
  0
APPID
  2
ACAD_DSTYLE_DIMTALN
 70
     0
  0
APPID
  2
ACDBATTR
 70
     0
  0
APPID
  2
DCO15
 70
     0
  0
ENDTAB
  0
TABLE
  2
DIMSTYLE
 70
     1
  0
DIMSTYLE
  2
STANDARD
 70
     0
  3

  4

  5

  6

  7

 40
1.0
 41
0.1875
 42
0.0625
 43
0.38
 44
0.125
 45
0.0
 46
0.0
 47
0.01
 48
0.01
140
0.15625
141
0.09
142
0.0
143
25.3999999999999986
144
1.0
145
0.0
146
1.0
147
0.09
 71
     1
 72
     0
 73
     1
 74
     1
 75
     0
 76
     0
 77
     0
 78
     4
170
     0
171
     2
172
     0
173
     0
174
     0
175
     0
176
     0
177
     0
178
     0
  0
ENDTAB
  0
ENDSEC
  0
SECTION
  2
BLOCKS
  0
BLOCK
  8
0
  2
$MODEL_SPACE
 70
     0
 10
0.0
 20
0.0
 30
0.0
  3
$MODEL_SPACE
  1

  0
ENDBLK
  5
21
  8
0
  0
BLOCK
 67
     1
  8
0
  2
$PAPER_SPACE
 70
     0
 10
0.0
 20
0.0
 30
0.0
  3
$PAPER_SPACE
  1

  0
ENDBLK
  5
1D
 67
     1
  8
0
  0
BLOCK
  8
0
  2
_FILLED
 70
     0
 10
0.0
 20
0.0
 30
0.0
  3
_FILLED
  1

  0
SOLID
  5
2F55F
  8
0
  6
BYBLOCK
 62
     0
 10
0.0
 20
0.0
 30
0.0
 11
-1.0
 21
0.1666666667
 31
0.0
 12
-1.0
 22
-0.1666666667
 32
0.0
 13
-1.0
 23
-0.1666666667
 33
0.0
  0
ENDBLK
  5
2F560
  8
0
  6
BYBLOCK
 62
     0
  0
ENDSEC
  0
SECTION
  2
ENTITIES
  0
ATTDEF
  5
3059E
  8
DEFPOINTS
 10
3083.7173576946870526
 20
8.8851132834413278
 30
0.0
 40
0.001
  1
K-29176T-4
  3

  2
MODELNUMBER
 70
     0
1001
ACDBATTR
1070
     0
1070
     1
  0
ATTDEF
  5
3059F
  8
DEFPOINTS
 10
3083.7173576946870526
 20
8.8834466167746626
 30
0.0
 40
0.001
  1
FORE ARC
  3

  2
TRADENAME
 70
     0
1001
ACDBATTR
1070
     0
1070
     1
  0
ATTDEF
  5
305A0
  8
DEFPOINTS
 10
3083.7173576946870526
 20
8.8817799501079975
 30
0.0
 40
0.001
  1
BATHROOM SINK FAUCET
  3

  2
PRODUCT
 70
     0
1001
ACDBATTR
1070
     0
1070
     1
  0
LINE
  5
326AC
  8
0
 10
3084.661696365969874
 20
8.8803207392517862
 30
0.0
 11
3082.7719325863699851
 21
8.8803207392517862
 31
0.0
  0
LINE
  5
326AE
  8
0
 10
3084.5324787547560845
 20
9.1423740256517867
 30
0.0
 11
3082.901300086909032
 21
9.1423740256517867
 31
0.0
  0
LINE
  5
326B0
  8
0
 10
3084.6617713106329575
 20
8.9984309754517842
 30
0.0
 11
3082.7720075310330685
 21
8.9984309754517842
 31
0.0
  0
LINE
  5
326B2
  8
0
 10
3082.7720075310330685
 20
8.9984309754517842
 30
0.0
 11
3082.7720075310330685
 21
8.8803207392517862
 31
0.0
  0
LINE
  5
326B3
  8
0
 10
3082.901300086909032
 20
14.1451860783745502
 30
0.0
 11
3082.901300086909032
 21
9.1423740256517867
 31
0.0
  0
ARC
  5
326B4
  8
0
 10
3082.8401242000481943
 20
8.9964816294050838
 30
0.0
 40
0.0681445562591103
 50
135.8317690863688938
 51
178.3607709009347104
  0
ARC
  5
326B5
  8
0
 10
3082.8640950453991536
 20
8.9735552550421271
 30
0.0
 40
0.10131345153147
 50
119.9528554051471048
 51
135.977158356554213
  0
ARC
  5
326B6
  8
0
 10
3084.5330639474791496
 20
5.8171291092888699
 30
0.0
 40
3.671750036812667
 50
117.1164678111140063
 51
117.9252893362617982
  0
ARC
  5
326B7
  8
0
 10
3082.8164668063791396
 20
9.1683331593286006
 30
0.0
 40
0.093523075432357
 50
297.380278037449898
 51
322.6225348825709034
  0
ARC
  5
326B8
  8
0
 10
3082.8418496447511643
 20
9.1454582082764695
 30
0.0
 40
0.059530389342519
 50
325.2882360990075767
 51
357.0302597131708922
  0
LINE
  5
326B9
  8
0
 10
3084.3139449863729169
 20
14.7162391279517895
 30
0.0
 11
3083.1198338552921996
 21
14.7162391279517806
 31
0.0
  0
ARC
  5
326BA
  8
0
 10
3083.3945863676299268
 20
15.1655723141404604
 30
0.0
 40
0.5638124786793955
 50
211.2192994785837072
 51
219.1700695025305947
  0
ARC
  5
326BB
  8
0
 10
3083.204017157142971
 20
15.0076787900275601
 30
0.0
 40
0.3163462135360551
 50
218.8001044316469006
 51
233.7723556667428113
  0
ARC
  5
326BC
  8
0
 10
3083.1280307155598166
 20
14.9032940877489697
 30
0.0
 40
0.1872344693238628
 50
233.6516499527108977
 51
267.4908698834727261
  0
LINE
  5
326BD
  8
0
 10
3082.9086707040428337
 20
14.8877291045656897
 30
0.0
 11
3082.9214228668110991
 21
15.2506079666747691
 31
0.0
  0
ARC
  5
326BE
  8
0
 10
3082.9346546647329887
 20
14.88681598525603
 30
0.0
 40
0.026
 50
177.9873598641750903
 51
211.2192994785058886
  0
LINE
  5
326BF
  8
0
 10
3083.7864623677860436
 20
15.4448155358847501
 30
0.0
 11
3083.6473164738799824
 21
15.4448155358847501
 31
0.0
  0
ARC
  5
326C0
  8
0
 10
3083.6824015112078996
 20
12.8428771537339994
 30
0.0
 40
2.6021749180932372
 50
90.7725404854740958
 51
93.6701358489589637
  0
ARC
  5
326C1
  8
0
 10
3083.6476375892661963
 20
13.3098256440138094
 30
0.0
 40
2.133964173509229
 50
93.5411980786590931
 51
100.4268479109153986
  0
ARC
  5
326C2
  8
0
 10
3083.5126374511009999
 20
14.0395299410754397
 30
0.0
 40
1.3918775021171259
 50
100.3976640822846065
 51
107.1003693611002063
  0
ARC
  5
326C3
  8
0
 10
3083.2779759402428681
 20
14.7879477174423997
 30
0.0
 40
0.6075596855089027
 50
106.7026102869601942
 51
118.9581593293270032
  0
ARC
  5
326C4
  8
0
 10
3083.0819243071618985
 20
15.1477731504999706
 30
0.0
 40
0.1978176027364158
 50
119.7335419661926039
 51
135.2391816701702965
  0
ARC
  5
326C5
  8
0
 10
3083.0008336385421899
 20
15.2306940920084806
 30
0.0
 40
0.0818696101806814
 50
136.4838215314111949
 51
165.9222174154164975
  0
LINE
  5
326C6
  8
0
 10
3082.9574769041701074
 20
14.8094545975517899
 30
0.0
 11
3082.9437258253428809
 21
14.8094545975517899
 31
0.0
  0
ARC
  5
326C8
  8
0
 10
3082.9557322381979247
 20
14.8172483716519103
 30
0.0
 40
0.0078914056809139
 50
154.6071256235682085
 51
260.9779676842279059
  0
ARC
  5
326C9
  8
0
 10
3070.4865875777259134
 20
15.0510795442874699
 30
0.0
 40
12.4477198577593509
 50
355.8265610848907272
 51
358.8336300566052728
  0
ARC
  5
326CA
  8
0
 10
3082.9437258253428809
 20
14.7974545975517895
 30
0.0
 40
0.012
 50
90.0
 51
178.8336300566016916
  0
ARC
  5
326CB
  8
0
 10
3098.6088632793471334
 20
16.8936103592200908
 30
0.0
 40
15.9571694047629808
 50
190.1474084145806103
 51
191.3637737283991953
  0
ARC
  5
326CC
  8
0
 10
3085.0147546340122062
 20
14.1615006683737601
 30
0.0
 40
2.0912322484076848
 50
191.3637737283991953
 51
196.825925391996492
  0
ARC
  5
326CD
  8
0
 10
3083.5725543278290388
 20
13.7392444577808508
 30
0.0
 40
0.5886961407548501
 50
198.1192703358642007
 51
213.3993410768551087
  0
ARC
  5
326CE
  8
0
 10
3083.3835068130661057
 20
13.6123482199337396
 30
0.0
 40
0.3610211808644175
 50
213.1018229763417935
 51
225.3445027327969115
  0
ARC
  5
326CF
  8
0
 10
3080.3538059656239056
 20
12.4622915835387609
 30
0.0
 40
2.894755248900919
 50
15.9901140302936895
 51
18.8510261027077703
  0
ARC
  5
326D0
  8
0
 10
3080.7237586199498764
 20
12.5683047223895894
 30
0.0
 40
2.5099127459835828
 50
10.6311644356218498
 51
15.9901140302936895
  0
ARC
  5
326D1
  8
0
 10
3081.2643392305249108
 20
12.6715280359215505
 30
0.0
 40
1.959568625406183
 50
0.490683042170266
 51
10.5808159107313102
  0
LINE
  5
326D2
  8
0
 10
3083.7522716684179613
 20
13.3481408656517804
 30
0.0
 11
3083.6815071732489741
 21
13.3481408656517804
 31
0.0
  0
ARC
  5
326D3
  8
0
 10
3083.704046313408071
 20
-9.0721639370352989
 30
0.0
 40
22.4203161319869189
 50
90.0575994475237565
 51
90.9126313849075558
  0
ARC
  5
326D4
  8
0
 10
3083.3000522446468494
 20
16.2887844669743096
 30
0.0
 40
2.9438498341636832
 50
268.9655243494893284
 51
270.9126313849075132
  0
ARC
  5
326D5
  8
0
 10
3083.2758768988851443
 20
14.9499469940652805
 30
0.0
 40
1.604794112317836
 50
265.6891686379883026
 51
268.9655243494893284
  0
ARC
  5
326D6
  8
0
 10
3083.1618152796859249
 20
13.4368019347390106
 30
0.0
 40
0.087356132188881
 50
248.476502573538113
 51
265.6891686379883026
  0
ARC
  5
326D7
  8
0
 10
3083.765719237031135
 20
10.3012562942365697
 30
0.0
 40
2.5214804967456379
 50
91.1096327279655327
 51
96.3155750544990354
  0
ARC
  5
326D8
  8
0
 10
3083.5906581500689754
 20
11.9693557016642007
 30
0.0
 40
0.8443005744806715
 50
96.9602615441455242
 51
109.4444307560153931
  0
ARC
  5
326D9
  8
0
 10
3083.3674074714617745
 20
12.58858959812558
 30
0.0
 40
0.1861178681843577
 50
108.096174145622399
 51
135.9537478532081991
  0
ARC
  5
326DA
  8
0
 10
3083.2712415363389482
 20
12.6891189534155497
 30
0.0
 40
0.0474124477570017
 50
142.4936864490495907
 51
180.0263327284064019
  0
ARC
  5
326DB
  8
0
 10
3083.2712415363389482
 20
12.6891189534155497
 30
0.0
 40
0.0474124477570017
 50
180.9780604768533863
 51
184.2509310919751897
  0
ARC
  5
326DC
  8
0
 10
3083.2921973651568806
 20
12.7076378023737409
 30
0.0
 40
0.0717068259098373
 50
197.8947225277512985
 51
238.9812909977086974
  0
ARC
  5
326DD
  8
0
 10
3083.4809744574140495
 20
13.0306217892216498
 30
0.0
 40
0.4458083587391922
 50
239.5799080830772141
 51
259.6304339712443721
  0
ARC
  5
326DE
  8
0
 10
3083.7431814469400706
 20
14.5022724246733894
 30
0.0
 40
1.9406317412929679
 50
259.8361537300290252
 51
269.2237227768050047
  0
ARC
  5
326DF
  8
0
 10
3083.7238776907638567
 20
11.0289999387806201
 30
0.0
 40
1.787851589690193
 50
90.2239556096521937
 51
94.3197121451517262
  0
ARC
  5
326E0
  8
0
 10
3083.697892186784884
 20
11.4598154463326996
 30
0.0
 40
1.356318392628924
 50
94.5959066102598172
 51
97.6495209081152069
  0
ARC
  5
326E1
  8
0
 10
3083.6536525951992189
 20
11.7892038638263799
 30
0.0
 40
1.0239723816062971
 50
97.6495209081152069
 51
103.9357465342636004
  0
ARC
  5
326E2
  8
0
 10
3083.5259710690288557
 20
12.3037640855561907
 30
0.0
 40
0.4938075073342935
 50
103.9357465342636004
 51
111.6940117019065042
  0
ARC
  5
326E3
  8
0
 10
3083.444698178660019
 20
12.5080559891527408
 30
0.0
 40
0.2739428567331037
 50
111.6940117019065042
 51
122.3105563675657947
  0
ARC
  5
326E4
  8
0
 10
3083.3463492046062129
 20
12.6620614965886098
 30
0.0
 40
0.0912182638737805
 50
121.8056923309219002
 51
146.2299495550020083
  0
ARC
  5
326E5
  8
0
 10
3083.3009181909328618
 20
12.6920506224575895
 30
0.0
 40
0.0367842290073182
 50
145.7250855183509941
 51
180.0146780672461091
  0
ARC
  5
326E6
  8
0
 10
3083.3056843906838367
 20
12.6931691606237198
 30
0.0
 40
0.0415657350112472
 50
181.5550157394995949
 51
217.581983638760704
  0
ARC
  5
326E7
  8
0
 10
3083.3668194317187954
 20
12.7443320317889004
 30
0.0
 40
0.1212619705068816
 50
219.1223213110091876
 51
243.4110080739087891
  0
ARC
  5
326E8
  8
0
 10
3083.5082187184730174
 20
13.0206627017208199
 30
0.0
 40
0.4316653421128806
 50
243.0442887293424121
 51
256.6282366766313885
  0
ARC
  5
326E9
  8
0
 10
3083.6496195156078102
 20
13.5714365956465794
 30
0.0
 40
1.0002611993588471
 50
256.044490242661027
 51
263.3605046696623049
  0
ARC
  5
326EA
  8
0
 10
3083.7074093408959925
 20
14.0203069965329306
 30
0.0
 40
1.4528133518590709
 50
263.143477580276226
 51
267.3152502546438996
  0
ARC
  5
326EB
  8
0
 10
3083.7987910516158081
 20
17.6434331427504603
 30
0.0
 40
5.0768488655064079
 50
268.2003991424821834
 51
269.0756428894571854
  0
ARC
  5
326EC
  8
0
 10
3083.7379077460627741
 20
10.48460928926451
 30
0.0
 40
2.3306955405436471
 50
90.5167031174056973
 51
92.8007965107062063
  0
ARC
  5
326ED
  8
0
 10
3083.7062394239537753
 20
11.4014526050923894
 30
0.0
 40
1.4134613582226441
 50
93.3346534544772481
 51
97.8472190554031442
  0
ARC
  5
326EE
  8
0
 10
3083.6409304892617911
 20
11.8753147440412992
 30
0.0
 40
0.9351198654794725
 50
97.8472190554031442
 51
105.0260949626285054
  0
ARC
  5
326EF
  8
0
 10
3083.5033220053492187
 20
12.3879425924155004
 30
0.0
 40
0.4043436360065887
 50
105.0260949626285054
 51
118.2159861807692067
  0
ARC
  5
326F0
  8
0
 10
3083.362921797150193
 20
12.6496125398008505
 30
0.0
 40
0.1073867707434078
 50
118.2159861807692067
 51
136.2602936804786111
  0
ARC
  5
326F1
  8
0
 10
3083.3195925333579908
 20
12.6871028861722497
 30
0.0
 40
0.050243773265683
 50
132.9847813719783005
 51
166.9977078815375933
  0
ARC
  5
326F2
  8
0
 10
3083.3059632175641127
 20
12.69201796811614
 30
0.0
 40
0.0358994068712725
 50
169.7480560495197892
 51
207.2532851451881015
  0
ARC
  5
326F3
  8
0
 10
3083.3523227945711369
 20
12.7215995673226203
 30
0.0
 40
0.0908003755014058
 50
210.4532563362321014
 51
240.8911241432795975
  0
ARC
  5
326F4
  8
0
 10
3083.5011508225779835
 20
12.9856971877469398
 30
0.0
 40
0.3939451888017988
 50
240.6649890452908949
 51
257.0673737756378046
  0
ARC
  5
326F5
  8
0
 10
3083.6296809504888188
 20
13.4617887667199501
 30
0.0
 40
0.8869234293010407
 50
255.8580851079246941
 51
260.8889923489455782
  0
ARC
  5
326F6
  8
0
 10
3083.6912104825742063
 20
13.8411745688165606
 30
0.0
 40
1.271265918648216
 50
260.8584194515971717
 51
265.4093722761141976
  0
ARC
  5
326F7
  8
0
 10
3083.7131379405218468
 20
14.0889481279057502
 30
0.0
 40
1.5200009500705951
 50
265.3329901976338761
 51
267.8710493977127953
  0
ARC
  5
326F8
  8
0
 10
3083.9089075320380289
 20
24.4737017685446006
 30
0.0
 40
11.90637750536645
 50
268.7861030838674878
 51
269.0759318419607098
  0
ARC
  5
326F9
  8
0
 10
3083.7315463287418424
 20
11.0823353856038
 30
0.0
 40
1.714677151197386
 50
90.489765195910195
 51
94.1482263850205641
  0
ARC
  5
326FA
  8
0
 10
3083.6948596000488578
 20
11.7251286717843293
 30
0.0
 40
1.070959840757004
 50
94.6782586432316151
 51
100.7715254161364982
  0
ARC
  5
326FB
  8
0
 10
3083.5832281896468885
 20
12.2913407221814204
 30
0.0
 40
0.4938761155789411
 50
100.3256436317082034
 51
112.762652023662497
  0
ARC
  5
326FC
  8
0
 10
3083.4675462401000914
 20
12.5756443634397694
 30
0.0
 40
0.1869859091168476
 50
113.7828015332720071
 51
123.583520697180802
  0
ARC
  5
326FD
  8
0
 10
3083.4172351383358546
 20
12.6525015907401208
 30
0.0
 40
0.0951298724665591
 50
123.9452192620842936
 51
138.981603380067213
  0
ARC
  5
326FE
  8
0
 10
3083.3735528522779532
 20
12.69029683400524
 30
0.0
 40
0.037366878272728
 50
138.7481182796908001
 51
175.0760180108410964
  0
ARC
  5
326FF
  8
0
 10
3083.3745408534650778
 20
12.6936845030708501
 30
0.0
 40
0.0382174007792824
 50
180.2703413591885067
 51
226.4977176358331121
  0
ARC
  5
32700
  8
0
 10
3083.4920199963530649
 20
12.83843631982751
 30
0.0
 40
0.224547627831677
 50
230.1826428781166953
 51
256.9149191996467039
  0
ARC
  5
32701
  8
0
 10
3083.6542339958991761
 20
13.3915429408661897
 30
0.0
 40
0.8006889687280516
 50
254.5685857463205082
 51
263.6659592030844124
  0
ARC
  5
32702
  8
0
 10
3083.7196543426198332
 20
13.9640633401396705
 30
0.0
 40
1.376933207212224
 50
263.5886548392766144
 51
269.8849483368272786
  0
ARC
  5
32703
  8
0
 10
3083.7959730102220419
 20
9.5322804708077307
 30
0.0
 40
3.263269023190031
 50
91.3886686992838833
 51
93.2817945558313681
  0
ARC
  5
32704
  8
0
 10
3083.6911488483769972
 20
11.7931727050823199
 30
0.0
 40
1.000390542354936
 50
94.7009802524121085
 51
102.5763172595027015
  0
ARC
  5
32705
  8
0
 10
3083.5616992032491908
 20
12.3734236249719007
 30
0.0
 40
0.4058753275315777
 50
102.5763172595027015
 51
114.1048665231840999
  0
ARC
  5
32706
  8
0
 10
3083.4554003927000849
 20
12.6110034522288306
 30
0.0
 40
0.1455992982021988
 50
114.1048665231840999
 51
131.0696090671850982
  0
ARC
  5
32707
  8
0
 10
3083.3912051121428703
 20
12.6846707267355399
 30
0.0
 40
0.047885934842654
 50
131.0696090671852119
 51
156.9229888081603974
  0
ARC
  5
32708
  8
0
 10
3083.374086141882799
 20
12.6919644694388207
 30
0.0
 40
0.0292779305060606
 50
156.9229888081598858
 51
208.2516781747671075
  0
ARC
  5
32709
  8
0
 10
3083.4027128639791044
 20
12.7080626792501494
 30
0.0
 40
0.0621177596150446
 50
208.8329786462900017
 51
233.764681898140708
  0
ARC
  5
3270A
  8
0
 10
3083.4791188747290107
 20
12.8133400571296008
 30
0.0
 40
0.1921988421766677
 50
233.9438388561592888
 51
249.9621964292790892
  0
ARC
  5
3270B
  8
0
 10
3083.591116816819067
 20
13.1099892032459309
 30
0.0
 40
0.5092783795040721
 50
249.5600529157688925
 51
256.8255241652177006
  0
ARC
  5
3270C
  8
0
 10
3083.6701102711981548
 20
13.4649672732777397
 30
0.0
 40
0.8729267019190261
 50
257.0874929195679783
 51
263.8105280491640769
  0
ARC
  5
3270D
  8
0
 10
3083.7106841098188852
 20
13.8044899448918805
 30
0.0
 40
1.2148504914319631
 50
263.6345577027021818
 51
267.6477724827364
  0
ARC
  5
3270E
  8
0
 10
3083.7422503905850135
 20
15.1459028982674102
 30
0.0
 40
2.5565368805836171
 50
268.1747942038251722
 51
269.4316137680222027
  0
ARC
  5
3270F
  8
0
 10
3083.7255341955251424
 20
11.6718316605238108
 30
0.0
 40
1.103531332494134
 50
90.4488446827629531
 51
99.5093885295880085
  0
ARC
  5
32710
  8
0
 10
3083.620326710567042
 20
12.3389486002372308
 30
0.0
 40
0.4282489119710796
 50
100.3726512275867009
 51
111.3063250414618039
  0
ARC
  5
32711
  8
0
 10
3083.5138043828737864
 20
12.6120751494095096
 30
0.0
 40
0.1350849336928298
 50
111.3063250414618039
 51
129.7584675707088877
  0
ARC
  5
32712
  8
0
 10
3083.4514059496577829
 20
12.6870785611738395
 30
0.0
 40
0.0375191802537123
 50
129.7584675707088024
 51
163.3913490779926008
  0
ARC
  5
32713
  8
0
 10
3083.4411288167289058
 20
12.6920698080779903
 30
0.0
 40
0.0263089575117235
 50
167.4137150176437103
 51
220.7597405975940035
  0
ARC
  5
32714
  8
0
 10
3083.5026831146569748
 20
12.7508689737494301
 30
0.0
 40
0.1114077478048264
 50
222.9972442512527948
 51
250.3301612096148006
  0
ARC
  5
32715
  8
0
 10
3083.6376028162458169
 20
13.1021294202694794
 30
0.0
 40
0.4876649514041838
 50
249.2946979652494974
 51
262.6810283842805802
  0
ARC
  5
32716
  8
0
 10
3083.7924504128391163
 20
14.7494207049759005
 30
0.0
 40
2.1420002942591658
 50
264.1862851932207263
 51
267.9784202892145117
  0
ARC
  5
32717
  8
0
 10
3083.7514100479252193
 20
11.3020361448913906
 30
0.0
 40
1.4587801336409969
 50
91.3559760225460025
 51
95.297112803908945
  0
ARC
  5
32718
  8
0
 10
3083.6833280310502232
 20
12.1935989315997002
 30
0.0
 40
0.564926122355166
 50
96.7697338347187781
 51
104.1656563351434954
  0
ARC
  5
32719
  8
0
 10
3083.601319273891022
 20
12.5185132129699692
 30
0.0
 40
0.2298220691280018
 50
104.1656563351434954
 51
119.2897970576070037
  0
ARC
  5
3271A
  8
0
 10
3083.5109101799030213
 20
12.6796875680190002
 30
0.0
 40
0.0450222395796416
 50
119.2897970576068047
 51
155.7284323197469007
  0
ARC
  5
3271B
  8
0
 10
3083.4924467913278932
 20
12.6921193751748902
 30
0.0
 40
0.0233822197226905
 50
164.9407248376832911
 51
230.4973137167326911
  0
ARC
  5
3271C
  8
0
 10
3083.5513071701261651
 20
12.7578845721423999
 30
0.0
 40
0.1116257278452573
 50
228.6583242362544866
 51
251.0044009323634953
  0
ARC
  5
3271D
  8
0
 10
3083.6386531124421708
 20
12.9878323108941593
 30
0.0
 40
0.3575658834624445
 50
249.7636687732658913
 51
259.5895046455987085
  0
ARC
  5
3271E
  8
0
 10
3083.7026443252070749
 20
13.3211370401722906
 30
0.0
 40
0.696952315659946
 50
259.3667275267574723
 51
266.6437893153272967
  0
ARC
  5
3271F
  8
0
 10
3084.1053314837981816
 20
26.0514312975993789
 30
0.0
 40
13.4333738706171495
 50
268.1080944856291239
 51
268.3429930757814077
  0
LINE
  5
32720
  8
0
 10
3083.4540941452328298
 20
12.7332470390195098
 30
0.0
 11
3083.4540941452328298
 21
12.7139137091139194
 31
0.0
  0
ARC
  5
32721
  8
0
 10
3083.508503205479883
 20
12.72078531679667
 30
0.0
 40
0.0548412693978213
 50
187.1980771752697024
 51
229.9830932198470919
  0
ARC
  5
32722
  8
0
 10
3083.4465703658988787
 20
12.7107776121923592
 30
0.0
 40
0.0161867791403729
 50
139.8886358726524861
 51
172.7911925442411984
  0
ARC
  5
32723
  8
0
 10
3083.4529451250791681
 20
12.7118283094523896
 30
0.0
 40
0.0224550062673683
 50
177.4973462078629041
 51
201.6834062067223954
  0
ARC
  5
32724
  8
0
 10
3083.4726311305348645
 20
12.7218464877678201
 30
0.0
 40
0.0444961087720802
 50
204.3056706565458001
 51
234.3167922905041962
  0
ARC
  5
32725
  8
0
 10
3083.534795103731085
 20
12.8068622821256799
 30
0.0
 40
0.1498137363353343
 50
233.9714465850950091
 51
253.4340227675216966
  0
LINE
  5
32726
  8
0
 10
3083.2881662425629656
 20
14.8446510551517807
 30
0.0
 11
3084.1456125991021509
 21
14.8446510551517807
 31
0.0
  0
ARC
  5
32727
  8
0
 10
3083.3523897200880128
 20
14.6666021460304901
 30
0.0
 40
0.748140029365668
 50
113.3866706970456022
 51
118.3837893200034017
  0
ARC
  5
32728
  8
0
 10
3083.1227396806930301
 20
15.0973112749733502
 30
0.0
 40
0.2600535370115606
 50
118.9800517380821958
 51
126.2244766026887959
  0
ARC
  5
32729
  8
0
 10
3083.0453309675181117
 20
15.2029821211944096
 30
0.0
 40
0.1290633212837557
 50
126.2244766026887959
 51
141.9543547515494026
  0
ARC
  5
3272A
  8
0
 10
3082.9818771894329075
 20
15.2526391045010303
 30
0.0
 40
0.0484891446242624
 50
141.9543547515490047
 51
168.5675346890934918
  0
ARC
  5
3272B
  8
0
 10
3082.9686907710238302
 20
15.2553057292905798
 30
0.0
 40
0.0350357986379143
 50
168.5675346890932076
 51
194.1142720880449986
  0
ARC
  5
3272C
  8
0
 10
3084.8567396957751043
 20
15.7008214727787294
 30
0.0
 40
1.9749323845446991
 50
193.2918550935137034
 51
195.8243590898503896
  0
ARC
  5
3272D
  8
0
 10
3084.0853869764559931
 20
15.4713322806383697
 30
0.0
 40
1.1702797072109801
 50
195.3126123967975047
 51
204.7763315680790015
  0
ARC
  5
3272E
  8
0
 10
3083.4167628926888938
 20
15.1584568394979495
 30
0.0
 40
0.4321004376979491
 50
204.2631085595367892
 51
221.7372138286048084
  0
ARC
  5
3272F
  8
0
 10
3083.2377291857537784
 20
15.0077892010801506
 30
0.0
 40
0.198317811137233
 50
223.6895651512367067
 51
231.074692082357501
  0
ARC
  5
32730
  8
0
 10
3083.1625846183360409
 20
15.0698208703776508
 30
0.0
 40
0.2218984954389619
 50
257.1209289888245735
 51
269.0807947010183057
  0
ARC
  5
32731
  8
0
 10
3083.2998861514311102
 20
17.8319527580575894
 30
0.0
 40
2.9873246928393642
 50
267.297329725073098
 51
269.7752159185836263
  0
LINE
  5
32732
  8
0
 10
3084.6617713106329575
 20
8.9984309754517842
 30
0.0
 11
3084.6617713106329575
 21
8.8803207392517862
 31
0.0
  0
LINE
  5
32733
  8
0
 10
3084.5324787547560845
 20
14.1451860783745502
 30
0.0
 11
3084.5324787547560845
 21
9.1423740256517867
 31
0.0
  0
ARC
  5
32734
  8
0
 10
3084.5936546416169222
 20
8.9964816294050838
 30
0.0
 40
0.0681445562591103
 50
1.6392290990653691
 51
44.1682309136310565
  0
ARC
  5
32735
  8
0
 10
3084.5696837962668724
 20
8.9735552550421271
 30
0.0
 40
0.10131345153147
 50
44.0228416434458296
 51
60.047144594852881
  0
ARC
  5
32736
  8
0
 10
3082.9007148941868763
 20
5.8171291092888699
 30
0.0
 40
3.671750036812667
 50
62.0747106637382089
 51
62.8835321888860221
  0
ARC
  5
32737
  8
0
 10
3084.6173120352859769
 20
9.1683331593286006
 30
0.0
 40
0.093523075432357
 50
217.3774651174288977
 51
242.619721962550102
  0
ARC
  5
32738
  8
0
 10
3084.5919291969148617
 20
9.1454582082764695
 30
0.0
 40
0.059530389342519
 50
182.9697402868289942
 51
214.7117639009921959
  0
ARC
  5
32739
  8
0
 10
3084.0391924740360992
 20
15.1655723141404604
 30
0.0
 40
0.5638124786793955
 50
320.82993049746932
 51
328.7807005214162928
  0
ARC
  5
3273A
  8
0
 10
3084.2297616845221455
 20
15.0076787900275601
 30
0.0
 40
0.3163462135360551
 50
306.2276443332571034
 51
321.1998955683529857
  0
ARC
  5
3273B
  8
0
 10
3084.3057481261048451
 20
14.9032940877489697
 30
0.0
 40
0.1872344693238628
 50
272.5091301165272171
 51
306.348350047289216
  0
LINE
  5
3273C
  8
0
 10
3084.5251081376231923
 20
14.8877291045656897
 30
0.0
 11
3084.5123559748549269
 21
15.2506079666747691
 31
0.0
  0
ARC
  5
3273D
  8
0
 10
3084.4991241769330372
 20
14.88681598525603
 30
0.0
 40
0.026
 50
328.7807005214942251
 51
2.0126401358248489
  0
ARC
  5
3273E
  8
0
 10
3083.7513773304572169
 20
12.8428771537339994
 30
0.0
 40
2.6021749180932372
 50
86.3298641510410363
 51
89.2274595145259042
  0
ARC
  5
3273F
  8
0
 10
3083.7861412523989202
 20
13.3098256440138094
 30
0.0
 40
2.133964173509229
 50
79.5731520890845729
 51
86.4588019213409069
  0
ARC
  5
32740
  8
0
 10
3083.9211413905650261
 20
14.0395299410754397
 30
0.0
 40
1.3918775021171259
 50
72.8996306388997652
 51
79.6023359177153651
  0
ARC
  5
32741
  8
0
 10
3084.1558029014231579
 20
14.7879477174423997
 30
0.0
 40
0.6075596855089027
 50
61.0418406706730607
 51
73.2973897130398342
  0
ARC
  5
32742
  8
0
 10
3084.3518545345041275
 20
15.1477731504999706
 30
0.0
 40
0.1978176027364158
 50
44.760818329829732
 51
60.26645803380746
  0
ARC
  5
32743
  8
0
 10
3084.4329452031238361
 20
15.2306940920084806
 30
0.0
 40
0.0818696101806814
 50
14.0777825845834901
 51
43.5161784685887696
  0
LINE
  5
32744
  8
0
 10
3084.476301937495009
 20
14.8094545975517899
 30
0.0
 11
3084.4900530163231451
 21
14.8094545975517899
 31
0.0
  0
ARC
  5
32745
  8
0
 10
3084.4780466034681012
 20
14.8172483716519103
 30
0.0
 40
0.0078914056809139
 50
279.0220323157720941
 51
25.3928743764316884
  0
ARC
  5
32746
  8
0
 10
3096.9471912639392031
 20
15.0510795442874699
 30
0.0
 40
12.4477198577593509
 50
181.1663699433944998
 51
184.1734389151091023
  0
ARC
  5
32747
  8
0
 10
3084.4900530163231451
 20
14.7974545975517895
 30
0.0
 40
0.012
 50
1.1663699433983199
 51
90.0
  0
ARC
  5
32748
  8
0
 10
3068.8249155623179831
 20
16.8936103592200908
 30
0.0
 40
15.9571694047629808
 50
348.6362262716007194
 51
349.8525915854193045
  0
ARC
  5
32749
  8
0
 10
3082.4190242076529103
 20
14.1615006683737601
 30
0.0
 40
2.0912322484076848
 50
343.1740746080034228
 51
348.6362262716007194
  0
ARC
  5
3274A
  8
0
 10
3083.8612245138360777
 20
13.7392444577808508
 30
0.0
 40
0.5886961407548501
 50
326.6006589231449198
 51
341.8807296641356857
  0
ARC
  5
3274B
  8
0
 10
3084.0502720285999203
 20
13.6123482199337396
 30
0.0
 40
0.3610211808644175
 50
314.6554972671843871
 51
326.8981770236582065
  0
ARC
  5
3274C
  8
0
 10
3083.7297325282570455
 20
-9.0721639370352989
 30
0.0
 40
22.4203161319869189
 50
89.0873686150924442
 51
89.9424005524762435
  0
ARC
  5
3274D
  8
0
 10
3084.1337265970191766
 20
16.2887844669743096
 30
0.0
 40
2.9438498341636832
 50
269.0873686150923731
 51
271.0344756505106716
  0
ARC
  5
3274E
  8
0
 10
3084.1579019427799722
 20
14.9499469940652805
 30
0.0
 40
1.604794112317836
 50
271.0344756505106716
 51
274.3108313620118111
  0
ARC
  5
3274F
  8
0
 10
3084.2719635619801011
 20
13.4368019347390106
 30
0.0
 40
0.087356132188881
 50
274.3108313620118111
 51
291.5234974264619154
  0
ARC
  5
32750
  8
0
 10
3084.0813891215780131
 20
14.6666021460304901
 30
0.0
 40
0.748140029365668
 50
61.6162106799965983
 51
66.6133293029543978
  0
ARC
  5
32751
  8
0
 10
3084.3110391609729959
 20
15.0973112749733502
 30
0.0
 40
0.2600535370115606
 50
53.7755233973112183
 51
61.0199482619178184
  0
ARC
  5
32752
  8
0
 10
3084.3884478741479143
 20
15.2029821211944096
 30
0.0
 40
0.1290633212837557
 50
38.0456452484506471
 51
53.7755233973112183
  0
ARC
  5
32753
  8
0
 10
3084.451901652232209
 20
15.2526391045010303
 30
0.0
 40
0.0484891446242624
 50
11.4324653109064691
 51
38.0456452484509668
  0
ARC
  5
32754
  8
0
 10
3084.4650880706421958
 20
15.2553057292905798
 30
0.0
 40
0.0350357986379143
 50
345.8857279119549162
 51
11.4324653109067693
  0
ARC
  5
32755
  8
0
 10
3082.5770391458909216
 20
15.7008214727787294
 30
0.0
 40
1.9749323845446991
 50
344.1756409101495251
 51
346.7081449064862113
  0
ARC
  5
32756
  8
0
 10
3083.3483918652100328
 20
15.4713322806383697
 30
0.0
 40
1.1702797072109801
 50
335.2236684319208848
 51
344.6873876032025237
  0
ARC
  5
32757
  8
0
 10
3084.0170159489771322
 20
15.1584568394979495
 30
0.0
 40
0.4321004376979491
 50
318.2627861713950779
 51
335.7368914404631255
  0
ARC
  5
32758
  8
0
 10
3084.1960496559117928
 20
15.0077892010801506
 30
0.0
 40
0.198317811137233
 50
308.9253079176426127
 51
316.3104348487631796
  0
ARC
  5
32759
  8
0
 10
3084.2711942233299851
 20
15.0698208703776508
 30
0.0
 40
0.2218984954389619
 50
270.9192052989815807
 51
282.8790710111754265
  0
ARC
  5
3275A
  8
0
 10
3084.1338926902349158
 20
17.8319527580575894
 30
0.0
 40
2.9873246928393642
 50
270.2247840814163737
 51
272.7026702749267884
  0
ARC
  5
3275B
  8
0
 10
3083.7419236647961043
 20
11.2900251605429194
 30
0.0
 40
1.4681543336375791
 50
90.9770267376339348
 51
93.6650192201740452
  0
ARC
  5
3275C
  8
0
 10
3083.7008194740910767
 20
12.1094003931251208
 30
0.0
 40
0.6479268955500118
 50
94.6693481275120945
 51
102.3281073738889972
  0
ARC
  5
3275D
  8
0
 10
3083.6198472615619721
 20
12.4798991708105191
 30
0.0
 40
0.2686831171327472
 50
102.3281073738889972
 51
114.2500242073497958
  0
ARC
  5
3275E
  8
0
 10
3083.5461546736710261
 20
12.6434904651925102
 30
0.0
 40
0.0892598491108168
 50
114.2500242073498953
 51
129.8124425182948016
  0
ARC
  5
3275F
  8
0
 10
3083.5082533557811075
 20
12.6873400957495708
 30
0.0
 40
0.0313268673794519
 50
127.9139948130682995
 51
163.8391619075987933
  0
ARC
  5
32760
  8
0
 10
3083.4971230075348103
 20
12.6920108723017204
 30
0.0
 40
0.0193860754841429
 50
167.9456515076394112
 51
209.9516988340834018
  0
ARC
  5
32761
  8
0
 10
3083.522423870188959
 20
12.7088178250707795
 30
0.0
 40
0.0497365999171632
 50
212.1760153548723054
 51
240.2222590033821916
  0
ARC
  5
32762
  8
0
 10
3083.5910918106637837
 20
12.8260252799144805
 30
0.0
 40
0.1855760443174107
 50
239.792671304928291
 51
254.8348273609452121
  0
ARC
  5
32763
  8
0
 10
3083.6718057630992007
 20
13.1053023011973409
 30
0.0
 40
0.4762670406147471
 50
254.2521276768327994
 51
262.6197490039317017
  0
ARC
  5
32764
  8
0
 10
3083.7096872342581264
 20
13.3678641811660501
 30
0.0
 40
0.7415296897125885
 50
262.322997752808476
 51
266.8886390481246735
  0
ARC
  5
32765
  8
0
 10
3083.8065502424569786
 20
16.731145317692409
 30
0.0
 40
4.1060076506427086
 50
268.0863808081244883
 51
268.7487614601553787
  0
ARC
  5
32766
  8
0
 10
3087.0799728760421203
 20
12.4622915835387609
 30
0.0
 40
2.894755248900919
 50
161.1489738972921941
 51
164.0098859697062892
  0
ARC
  5
32767
  8
0
 10
3086.7100202217161495
 20
12.5683047223895894
 30
0.0
 40
2.5099127459835828
 50
164.0098859697062892
 51
169.3688355643780881
  0
ARC
  5
32768
  8
0
 10
3086.1694396111402057
 20
12.6715280359215505
 30
0.0
 40
1.959568625406183
 50
169.4191840892686116
 51
179.5093169578296965
  0
ARC
  5
32769
  8
0
 10
3083.6680596046339815
 20
10.3012562942365697
 30
0.0
 40
2.5214804967456379
 50
83.6844249455009503
 51
88.8903672720344815
  0
ARC
  5
3276A
  8
0
 10
3083.8431206915970506
 20
11.9693557016642007
 30
0.0
 40
0.8443005744806715
 50
70.5555692439845501
 51
83.03973845585449
  0
ARC
  5
3276B
  8
0
 10
3084.0663713702037967
 20
12.58858959812558
 30
0.0
 40
0.1861178681843577
 50
44.0462521467916872
 51
71.9038258543775584
  0
ARC
  5
3276C
  8
0
 10
3084.1625373053261683
 20
12.6891189534155497
 30
0.0
 40
0.0474124477570017
 50
359.9736672715935129
 51
37.5063135509503311
  0
ARC
  5
3276D
  8
0
 10
3084.1625373053261683
 20
12.6891189534155497
 30
0.0
 40
0.0474124477570017
 50
355.7490689080246966
 51
359.0219395231465001
  0
ARC
  5
3276E
  8
0
 10
3084.1415814765077812
 20
12.7076378023737409
 30
0.0
 40
0.0717068259098373
 50
301.0187090022913026
 51
342.1052774722487015
  0
ARC
  5
3276F
  8
0
 10
3083.9528043842510669
 20
13.0306217892216498
 30
0.0
 40
0.4458083587391922
 50
280.3695660287555143
 51
300.4200919169226722
  0
ARC
  5
32770
  8
0
 10
3083.6905973947259554
 20
14.5022724246733894
 30
0.0
 40
1.9406317412929679
 50
270.7762772231689041
 51
280.1638462699709748
  0
ARC
  5
32771
  8
0
 10
3083.7099011509021693
 20
11.0289999387806201
 30
0.0
 40
1.787851589690193
 50
85.6802878548482738
 51
89.7760443903478347
  0
ARC
  5
32772
  8
0
 10
3083.7358866548797778
 20
11.4598154463326996
 30
0.0
 40
1.356318392628924
 50
82.3504790918847931
 51
85.4040933897401686
  0
ARC
  5
32773
  8
0
 10
3083.7801262464658976
 20
11.7892038638263799
 30
0.0
 40
1.0239723816062971
 50
76.0642534657364138
 51
82.3504790918847931
  0
ARC
  5
32774
  8
0
 10
3083.907807772635806
 20
12.3037640855561907
 30
0.0
 40
0.4938075073342935
 50
68.3059882980934532
 51
76.0642534657364138
  0
ARC
  5
32775
  8
0
 10
3083.9890806630050974
 20
12.5080559891527408
 30
0.0
 40
0.2739428567331037
 50
57.6894436324341982
 51
68.3059882980934532
  0
ARC
  5
32776
  8
0
 10
3084.0874296370589036
 20
12.6620614965886098
 30
0.0
 40
0.0912182638737805
 50
33.7700504449979633
 51
58.1943076690780998
  0
ARC
  5
32777
  8
0
 10
3084.1328606507318
 20
12.6920506224575895
 30
0.0
 40
0.0367842290073182
 50
359.9853219327537772
 51
34.2749144816489775
  0
ARC
  5
32778
  8
0
 10
3084.1280944509808251
 20
12.6931691606237198
 30
0.0
 40
0.0415657350112472
 50
322.4180163612393244
 51
358.4449842605002914
  0
ARC
  5
32779
  8
0
 10
3084.0669594099467758
 20
12.7443320317889004
 30
0.0
 40
0.1212619705068816
 50
296.5889919260911824
 51
320.8776786889907271
  0
ARC
  5
3277A
  8
0
 10
3083.9255601231930086
 20
13.0206627017208199
 30
0.0
 40
0.4316653421128806
 50
283.3717633233684978
 51
296.9557112706576163
  0
ARC
  5
3277B
  8
0
 10
3083.7841593260568516
 20
13.5714365956465794
 30
0.0
 40
1.0002611993588471
 50
276.6394953303376951
 51
283.955509757338973
  0
ARC
  5
3277C
  8
0
 10
3083.726369500769124
 20
14.0203069965329306
 30
0.0
 40
1.4528133518590709
 50
272.6847497453562141
 51
276.856522419723774
  0
ARC
  5
3277D
  8
0
 10
3083.6349877900488536
 20
17.6434331427504603
 30
0.0
 40
5.0768488655064079
 50
270.9243571105428146
 51
271.7996008575178166
  0
ARC
  5
3277E
  8
0
 10
3083.6958710956027971
 20
10.48460928926451
 30
0.0
 40
2.3306955405436471
 50
87.1992034892937653
 51
89.4832968825943169
  0
ARC
  5
3277F
  8
0
 10
3083.727539417711796
 20
11.4014526050923894
 30
0.0
 40
1.4134613582226441
 50
82.1527809445968558
 51
86.6653465455227376
  0
ARC
  5
32780
  8
0
 10
3083.7928483524037802
 20
11.8753147440412992
 30
0.0
 40
0.9351198654794725
 50
74.973905037371452
 51
82.1527809445968558
  0
ARC
  5
32781
  8
0
 10
3083.9304568363158978
 20
12.3879425924155004
 30
0.0
 40
0.4043436360065887
 50
61.7840138192307791
 51
74.973905037371452
  0
ARC
  5
32782
  8
0
 10
3084.0708570445149235
 20
12.6496125398008505
 30
0.0
 40
0.1073867707434078
 50
43.7397063195213889
 51
61.7840138192307791
  0
ARC
  5
32783
  8
0
 10
3084.1141863083080352
 20
12.6871028861722497
 30
0.0
 40
0.050243773265683
 50
13.0022921184623907
 51
47.0152186280216426
  0
ARC
  5
32784
  8
0
 10
3084.1278156241019133
 20
12.69201796811614
 30
0.0
 40
0.0358994068712725
 50
332.7467148548118985
 51
10.2519439504802108
  0
ARC
  5
32785
  8
0
 10
3084.0814560470939796
 20
12.7215995673226203
 30
0.0
 40
0.0908003755014058
 50
299.1088758567204877
 51
329.546743663767927
  0
ARC
  5
32786
  8
0
 10
3083.9326280190880425
 20
12.9856971877469398
 30
0.0
 40
0.3939451888017988
 50
282.9326262243621954
 51
299.3350109547092188
  0
ARC
  5
32787
  8
0
 10
3083.8040978911772072
 20
13.4617887667199501
 30
0.0
 40
0.8869234293010407
 50
279.1110076510544218
 51
284.1419148920753059
  0
ARC
  5
32788
  8
0
 10
3083.7425683590918197
 20
13.8411745688165606
 30
0.0
 40
1.271265918648216
 50
274.5906277238856887
 51
279.1415805484028283
  0
ARC
  5
32789
  8
0
 10
3083.7206409011441792
 20
14.0889481279057502
 30
0.0
 40
1.5200009500705951
 50
272.1289506022872047
 51
274.6670098023661239
  0
ARC
  5
3278A
  8
0
 10
3083.5248713096270876
 20
24.4737017685446006
 30
0.0
 40
11.90637750536645
 50
270.9240681580392902
 51
271.2138969161326258
  0
ARC
  5
3278B
  8
0
 10
3083.7022325129228193
 20
11.0823353856038
 30
0.0
 40
1.714677151197386
 50
85.8517736149794359
 51
89.510234804089805
  0
ARC
  5
3278C
  8
0
 10
3083.7389192416158039
 20
11.7251286717843293
 30
0.0
 40
1.070959840757004
 50
79.2284745838634592
 51
85.3217413567684133
  0
ARC
  5
3278D
  8
0
 10
3083.8505506520177732
 20
12.2913407221814204
 30
0.0
 40
0.4938761155789411
 50
67.2373479763374462
 51
79.6743563682917539
  0
ARC
  5
3278E
  8
0
 10
3083.9662326015659346
 20
12.5756443634397694
 30
0.0
 40
0.1869859091168476
 50
56.4164793028191127
 51
66.2171984667279219
  0
ARC
  5
3278F
  8
0
 10
3084.0165437033301714
 20
12.6525015907401208
 30
0.0
 40
0.0951298724665591
 50
41.0183966199327301
 51
56.0547807379156211
  0
ARC
  5
32790
  8
0
 10
3084.0602259893880728
 20
12.69029683400524
 30
0.0
 40
0.037366878272728
 50
4.9239819891588841
 51
41.2518817203092425
  0
ARC
  5
32791
  8
0
 10
3084.0592379882000387
 20
12.6936845030708501
 30
0.0
 40
0.0382174007792824
 50
313.5022823641667742
 51
359.7296586408114081
  0
ARC
  5
32792
  8
0
 10
3083.9417588453129611
 20
12.83843631982751
 30
0.0
 40
0.224547627831677
 50
283.0850808003532961
 51
309.8173571218832762
  0
ARC
  5
32793
  8
0
 10
3083.7795448457659404
 20
13.3915429408661897
 30
0.0
 40
0.8006889687280516
 50
276.3340407969155876
 51
285.4314142536795202
  0
ARC
  5
32794
  8
0
 10
3083.7141244990448286
 20
13.9640633401396705
 30
0.0
 40
1.376933207212224
 50
270.1150516631727214
 51
276.4113451607233856
  0
ARC
  5
32795
  8
0
 10
3083.6378058314430746
 20
9.5322804708077307
 30
0.0
 40
3.263269023190031
 50
86.7182054441686176
 51
88.6113313007161167
  0
ARC
  5
32796
  8
0
 10
3083.7426299932890288
 20
11.7931727050823199
 30
0.0
 40
1.000390542354936
 50
77.4236827404972843
 51
85.2990197475879057
  0
ARC
  5
32797
  8
0
 10
3083.8720796384168352
 20
12.3734236249719007
 30
0.0
 40
0.4058753275315777
 50
65.8951334768158716
 51
77.4236827404972843
  0
ARC
  5
32798
  8
0
 10
3083.9783784489650316
 20
12.6110034522288306
 30
0.0
 40
0.1455992982021988
 50
48.9303909328149302
 51
65.8951334768158716
  0
ARC
  5
32799
  8
0
 10
3084.0425737295217914
 20
12.6846707267355399
 30
0.0
 40
0.047885934842654
 50
23.0770111918395386
 51
48.9303909328148023
  0
ARC
  5
3279A
  8
0
 10
3084.0596926997818628
 20
12.6919644694388207
 30
0.0
 40
0.0292779305060606
 50
331.7483218252327788
 51
23.0770111918400893
  0
ARC
  5
3279B
  8
0
 10
3084.0310659776869215
 20
12.7080626792501494
 30
0.0
 40
0.0621177596150446
 50
306.2353181018592068
 51
331.1670213537100267
  0
ARC
  5
3279C
  8
0
 10
3083.9546599669361058
 20
12.8133400571296008
 30
0.0
 40
0.1921988421766677
 50
290.0378035707208824
 51
306.0561611438407112
  0
ARC
  5
3279D
  8
0
 10
3083.8426620248460495
 20
13.1099892032459309
 30
0.0
 40
0.5092783795040721
 50
283.1744758347824131
 51
290.4399470842311075
  0
ARC
  5
3279E
  8
0
 10
3083.7636685704678712
 20
13.4649672732777397
 30
0.0
 40
0.8729267019190261
 50
276.1894719508359231
 51
282.9125070804320217
  0
ARC
  5
3279F
  8
0
 10
3083.7230947318457766
 20
13.8044899448918805
 30
0.0
 40
1.2148504914319631
 50
272.3522275172636
 51
276.3654422972978182
  0
ARC
  5
327A0
  8
0
 10
3083.6915284510810125
 20
15.1459028982674102
 30
0.0
 40
2.5565368805836171
 50
270.5683862319777973
 51
271.8252057961748278
  0
ARC
  5
327A1
  8
0
 10
3083.7082446461399741
 20
11.6718316605238108
 30
0.0
 40
1.103531332494134
 50
80.4906114704120057
 51
89.5511553172370469
  0
ARC
  5
327A2
  8
0
 10
3083.813452131098984
 20
12.3389486002372308
 30
0.0
 40
0.4282489119710796
 50
68.6936749585381108
 51
79.6273487724132707
  0
ARC
  5
327A3
  8
0
 10
3083.9199744587917849
 20
12.6120751494095096
 30
0.0
 40
0.1350849336928298
 50
50.2415324292910483
 51
68.6936749585381534
  0
ARC
  5
327A4
  8
0
 10
3083.9823728920077883
 20
12.6870785611738395
 30
0.0
 40
0.0375191802537123
 50
16.6086509220074703
 51
50.2415324292911691
  0
ARC
  5
327A5
  8
0
 10
3083.9926500249362107
 20
12.6920698080779903
 30
0.0
 40
0.0263089575117235
 50
319.2402594024059113
 51
12.5862849823563003
  0
ARC
  5
327A6
  8
0
 10
3083.9310957270090512
 20
12.7508689737494301
 30
0.0
 40
0.1114077478048264
 50
289.6698387903851994
 51
317.0027557487471768
  0
ARC
  5
327A7
  8
0
 10
3083.7961760254188448
 20
13.1021294202694794
 30
0.0
 40
0.4876649514041838
 50
277.3189716157194198
 51
290.7053020347506163
  0
ARC
  5
327A8
  8
0
 10
3083.6413284288260002
 20
14.7494207049759005
 30
0.0
 40
2.1420002942591658
 50
272.0215797107854883
 51
275.8137148067792737
  0
ARC
  5
327A9
  8
0
 10
3083.6823687937398972
 20
11.3020361448913906
 30
0.0
 40
1.4587801336409969
 50
84.702887196091055
 51
88.6440239774540117
  0
ARC
  5
327AA
  8
0
 10
3083.7504508106158028
 20
12.1935989315997002
 30
0.0
 40
0.564926122355166
 50
75.8343436648565046
 51
83.2302661652812503
  0
ARC
  5
327AB
  8
0
 10
3083.832459567775004
 20
12.5185132129699692
 30
0.0
 40
0.2298220691280018
 50
60.7102029423930034
 51
75.8343436648565046
  0
ARC
  5
327AC
  8
0
 10
3083.9228686617630046
 20
12.6796875680190002
 30
0.0
 40
0.0450222395796416
 50
24.2715676802530389
 51
60.710202942393181
  0
ARC
  5
327AD
  8
0
 10
3083.9413320503381328
 20
12.6921193751748902
 30
0.0
 40
0.0233822197226905
 50
309.5026862832672805
 51
15.0592751623166805
  0
ARC
  5
327AE
  8
0
 10
3083.8824716715398608
 20
12.7578845721423999
 30
0.0
 40
0.1116257278452573
 50
288.9955990676364763
 51
311.3416757637453998
  0
ARC
  5
327AF
  8
0
 10
3083.7951257292238552
 20
12.9878323108941593
 30
0.0
 40
0.3575658834624445
 50
280.4104953544012915
 51
290.2363312267340802
  0
ARC
  5
327B0
  8
0
 10
3083.7311345164589511
 20
13.3211370401722906
 30
0.0
 40
0.696952315659946
 50
273.3562106846727033
 51
280.633272473242414
  0
ARC
  5
327B1
  8
0
 10
3083.3284473578669349
 20
26.0514312975993789
 30
0.0
 40
13.4333738706171495
 50
271.657006924218706
 51
271.8919055143708761
  0
LINE
  5
327B2
  8
0
 10
3083.9796846964331962
 20
12.7332470390195098
 30
0.0
 11
3083.9796846964331962
 21
12.7139137091139194
 31
0.0
  0
ARC
  5
327B3
  8
0
 10
3083.9252756361847787
 20
12.72078531679667
 30
0.0
 40
0.0548412693978213
 50
310.0169067801526808
 51
352.8019228247302976
  0
ARC
  5
327B4
  8
0
 10
3083.9872084757671473
 20
12.7107776121923592
 30
0.0
 40
0.0161867791403729
 50
7.2088074557588477
 51
40.1113641273474428
  0
ARC
  5
327B5
  8
0
 10
3083.9808337165868579
 20
12.7118283094523896
 30
0.0
 40
0.0224550062673683
 50
338.3165937932773772
 51
2.502653792137095
  0
ARC
  5
327B6
  8
0
 10
3083.9611477111311615
 20
12.7218464877678201
 30
0.0
 40
0.0444961087720802
 50
305.6832077094957754
 51
335.6943293434542284
  0
ARC
  5
327B7
  8
0
 10
3083.898983737934941
 20
12.8068622821256799
 30
0.0
 40
0.1498137363353343
 50
286.5659772324781898
 51
306.0285534149048772
  0
ARC
  5
327B8
  8
0
 10
3083.6918551768699217
 20
11.2900251605429194
 30
0.0
 40
1.4681543336375791
 50
86.3349807798259548
 51
89.0229732623660652
  0
ARC
  5
327B9
  8
0
 10
3083.7329593675740398
 20
12.1094003931251208
 30
0.0
 40
0.6479268955500118
 50
77.6718926261109601
 51
85.3306518724879339
  0
ARC
  5
327BA
  8
0
 10
3083.8139315801031444
 20
12.4798991708105191
 30
0.0
 40
0.2686831171327472
 50
65.7499757926501331
 51
77.6718926261109601
  0
ARC
  5
327BB
  8
0
 10
3083.8876241679940904
 20
12.6434904651925102
 30
0.0
 40
0.0892598491108168
 50
50.1875574817052126
 51
65.7499757926501047
  0
ARC
  5
327BC
  8
0
 10
3083.9255254858849185
 20
12.6873400957495708
 30
0.0
 40
0.0313268673794519
 50
16.1608380924011712
 51
52.0860051869316223
  0
ARC
  5
327BD
  8
0
 10
3083.9366558341312157
 20
12.6920108723017204
 30
0.0
 40
0.0193860754841429
 50
330.0483011659164845
 51
12.0543484923604307
  0
ARC
  5
327BE
  8
0
 10
3083.911354971477067
 20
12.7088178250707795
 30
0.0
 40
0.0497365999171632
 50
299.7777409966178084
 51
327.8239846451276094
  0
ARC
  5
327BF
  8
0
 10
3083.8426870310017875
 20
12.8260252799144805
 30
0.0
 40
0.1855760443174107
 50
285.1651726390547879
 51
300.2073286950716806
  0
ARC
  5
327C0
  8
0
 10
3083.7619730785668253
 20
13.1053023011973409
 30
0.0
 40
0.4762670406147471
 50
277.380250996068412
 51
285.7478723231672006
  0
ARC
  5
327C1
  8
0
 10
3083.7240916074069901
 20
13.3678641811660501
 30
0.0
 40
0.7415296897125885
 50
273.1113609518753265
 51
277.6770022471914103
  0
ARC
  5
327C2
  8
0
 10
3083.6272285992090474
 20
16.731145317692409
 30
0.0
 40
4.1060076506427086
 50
271.2512385398445076
 51
271.9136191918755117
  0
LINE
  5
328B2
  8
0
 10
3083.6109832191768874
 20
12.7510690843357697
 30
0.0
 11
3083.6287547055108007
 21
12.7381923136998907
 31
0.0
  0
LINE
  5
328B3
  8
0
 10
3083.6287547055108007
 20
12.7381923136998907
 30
0.0
 11
3083.6565721033330192
 21
12.7414269228517902
 31
0.0
  0
LINE
  5
328B4
  8
0
 10
3083.6565721033330192
 20
12.7414269228517902
 30
0.0
 11
3083.6591846797168728
 21
12.7558462300213495
 31
0.0
  0
LINE
  5
328B5
  8
0
 10
3083.6612595891961064
 20
12.7559618761914297
 30
0.0
 11
3083.6585418114850654
 21
12.7409994579338708
 31
0.0
  0
LINE
  5
328B6
  8
0
 10
3083.6585418114850654
 20
12.7409994579338708
 30
0.0
 11
3083.6826133336330713
 21
12.7266135381517795
 31
0.0
  0
LINE
  5
328B7
  8
0
 10
3083.6826133336330713
 20
12.7266135381517795
 30
0.0
 11
3083.7104307314330072
 21
12.7329460389517894
 31
0.0
  0
LINE
  5
328B8
  8
0
 10
3083.7104307314330072
 20
12.7329460389517894
 30
0.0
 11
3083.7141766070499216
 21
12.7538296737542893
 31
0.0
  0
LINE
  5
328B9
  8
0
 10
3083.7141766070499216
 20
12.7538296737542893
 30
0.0
 11
3083.7073320603340107
 21
12.7577719262622509
 31
0.0
  0
LINE
  5
328BA
  8
0
 10
3083.7287069124231493
 20
12.7577169187011208
 30
0.0
 11
3083.71614728848499
 21
12.7536404366045399
 31
0.0
  0
LINE
  5
328BB
  8
0
 10
3083.71614728848499
 20
12.7536404366045399
 30
0.0
 11
3083.7124004396550845
 21
12.7327601414623093
 31
0.0
  0
LINE
  5
328BC
  8
0
 10
3083.7124004396550845
 20
12.7327601414623093
 30
0.0
 11
3083.7364719617557967
 21
12.7215655287160097
 31
0.0
  0
LINE
  5
328BD
  8
0
 10
3083.7364719617557967
 20
12.7215655287160097
 30
0.0
 11
3083.7642893594497764
 21
12.7309717933780799
 31
0.0
  0
LINE
  5
328BE
  8
0
 10
3083.7642893594497764
 20
12.7309717933780799
 30
0.0
 11
3083.7680344169780255
 21
12.7518521407927192
 31
0.0
  0
LINE
  5
328BF
  8
0
 10
3083.7680344169780255
 20
12.7518521407927192
 30
0.0
 11
3083.7572092984391929
 21
12.7567241706239596
 31
0.0
  0
LINE
  5
328C0
  8
0
 10
3083.778526556082852
 20
12.7556189717347994
 30
0.0
 11
3083.7700049431928164
 21
12.7519055538530797
 31
0.0
  0
LINE
  5
328C1
  8
0
 10
3083.7700049431928164
 20
12.7519055538530797
 30
0.0
 11
3083.7662590676450236
 21
12.7310219192255296
 31
0.0
  0
LINE
  5
328C2
  8
0
 10
3083.7662590676450236
 20
12.7310219192255296
 30
0.0
 11
3083.7903305897439168
 21
12.7229010702795708
 31
0.0
  0
LINE
  5
328C3
  8
0
 10
3083.7903305897439168
 20
12.7229010702795708
 30
0.0
 11
3083.8181479875320292
 21
12.7354986418517804
 31
0.0
  0
LINE
  5
328C4
  8
0
 10
3083.8181479875320292
 20
12.7354986418517804
 30
0.0
 11
3083.8210070031100258
 21
12.7513169576829899
 31
0.0
  0
LINE
  5
328C5
  8
0
 10
3083.822884015415184
 20
12.75105670275493
 30
0.0
 11
3083.8201176957281859
 21
12.7357903351883408
 31
0.0
  0
LINE
  5
328C6
  8
0
 10
3083.8201176957281859
 20
12.7357903351883408
 30
0.0
 11
3083.8441892178930175
 21
12.7307673778224402
 31
0.0
  0
LINE
  5
328C7
  8
0
 10
3083.8441892178930175
 20
12.7307673778224402
 30
0.0
 11
3083.8665097953421537
 21
12.7434142298985797
 31
0.0
  0
LINE
  5
328C8
  8
0
 10
3083.8681474724148757
 20
12.7430670549328298
 30
0.0
 11
3083.8449607812472095
 21
12.7299036689246794
 31
0.0
  0
LINE
  5
328C9
  8
0
 10
3083.8449607812472095
 20
12.7299036689246794
 30
0.0
 11
3083.8412149056480303
 21
12.7122831399588794
 31
0.0
  0
LINE
  5
328CA
  8
0
 10
3083.8412149056480303
 20
12.7122831399588794
 30
0.0
 11
3083.8652864277960362
 21
12.7103580741976696
 31
0.0
  0
LINE
  5
328CB
  8
0
 10
3083.8652864277960362
 20
12.7103580741976696
 30
0.0
 11
3083.8931038255309431
 21
12.72621875165202
 31
0.0
  0
LINE
  5
328CC
  8
0
 10
3083.8931038255309431
 20
12.72621875165202
 30
0.0
 11
3083.8952037435228704
 21
12.7359957402626804
 31
0.0
  0
LINE
  5
328CD
  8
0
 10
3083.8969205324751783
 20
12.7354445703314596
 30
0.0
 11
3083.8950735337330116
 21
12.7268815416517906
 31
0.0
  0
LINE
  5
328CE
  8
0
 10
3083.8950735337330116
 20
12.7268815416517906
 30
0.0
 11
3083.9169584591199964
 21
12.7280444500973005
 31
0.0
  0
LINE
  5
328CF
  8
0
 10
3083.8938647605200458
 20
12.72558644327483
 30
0.0
 11
3083.8660621241770059
 21
12.7097381124488802
 31
0.0
  0
LINE
  5
328D0
  8
0
 10
3083.8660621241770059
 20
12.7097381124488802
 30
0.0
 11
3083.8623121155878835
 21
12.6953067107906694
 31
0.0
  0
LINE
  5
328D1
  8
0
 10
3083.8623121155878835
 20
12.6953067107906694
 30
0.0
 11
3083.8863836376499421
 21
12.6964554089632795
 31
0.0
  0
LINE
  5
328D2
  8
0
 10
3083.8863836376499421
 20
12.6964554089632795
 30
0.0
 11
3083.9142010354739796
 21
12.7123124454214604
 31
0.0
  0
LINE
  5
328D3
  8
0
 10
3083.9142010354739796
 20
12.7123124454214604
 30
0.0
 11
3083.9179469110717946
 21
12.7270295303388608
 31
0.0
  0
LINE
  5
328D4
  8
0
 10
3083.9179469110717946
 20
12.7270295303388608
 30
0.0
 11
3083.8938647605200458
 21
12.72558644327483
 31
0.0
  0
LINE
  5
328D5
  8
0
 10
3083.9197061154918629
 20
12.7268857394645707
 30
0.0
 11
3083.9161707437538098
 21
12.7130968880258806
 31
0.0
  0
LINE
  5
328D6
  8
0
 10
3083.9161707437538098
 20
12.7130968880258806
 30
0.0
 11
3083.9379628652491192
 21
12.7172016327450894
 31
0.0
  0
LINE
  5
328D7
  8
0
 10
3083.9388950553138784
 20
12.7165563038364393
 30
0.0
 11
3083.9149725988108912
 21
12.7119299680613391
 31
0.0
  0
LINE
  5
328D8
  8
0
 10
3083.9149725988108912
 20
12.7119299680613391
 30
0.0
 11
3083.8871552012251414
 21
12.6960692907647807
 31
0.0
  0
LINE
  5
328D9
  8
0
 10
3083.8871552012251414
 20
12.6960692907647807
 30
0.0
 11
3083.8834093257410132
 21
12.6847138326705
 31
0.0
  0
LINE
  5
328DA
  8
0
 10
3083.8834093257410132
 20
12.6847138326705
 30
0.0
 11
3083.9074808475188547
 21
12.6890538376913309
 31
0.0
  0
LINE
  5
328DB
  8
0
 10
3083.9074808475188547
 20
12.6890538376913309
 30
0.0
 11
3083.9352982454138328
 21
12.7051109142634893
 31
0.0
  0
LINE
  5
328DC
  8
0
 10
3083.9352982454138328
 20
12.7051109142634893
 30
0.0
 11
3083.9390069353039507
 21
12.7164776687759495
 31
0.0
  0
LINE
  5
328DD
  8
0
 10
3083.842991072967834
 20
12.7294925990261802
 30
0.0
 11
3083.8189195515928986
 21
12.7345155565388808
 31
0.0
  0
LINE
  5
328DE
  8
0
 10
3083.8189195515928986
 20
12.7345155565388808
 30
0.0
 11
3083.7911021531658662
 21
12.7219285284814205
 31
0.0
  0
LINE
  5
328DF
  8
0
 10
3083.7911021531658662
 20
12.7219285284814205
 30
0.0
 11
3083.7873562775789651
 21
12.7045198149742706
 31
0.0
  0
LINE
  5
328E0
  8
0
 10
3083.7873562775789651
 20
12.7045198149742706
 30
0.0
 11
3083.8114277996710371
 21
12.6994968576826093
 31
0.0
  0
LINE
  5
328E1
  8
0
 10
3083.8114277996710371
 20
12.6994968576826093
 30
0.0
 11
3083.8391049592328272
 21
12.7118147411517892
 31
0.0
  0
LINE
  5
328E2
  8
0
 10
3083.8391049592328272
 20
12.7118147411517892
 30
0.0
 11
3083.8429910735721933
 21
12.7294925992630592
 31
0.0
  0
LINE
  5
328E3
  8
0
 10
3083.8121993630970792
 20
12.6987636413408005
 30
0.0
 11
3083.808453487432871
 21
12.6845140380517805
 31
0.0
  0
LINE
  5
328E4
  8
0
 10
3083.808453487432871
 20
12.6845140380517805
 30
0.0
 11
3083.8325250095799674
 21
12.6824768455250805
 31
0.0
  0
LINE
  5
328E5
  8
0
 10
3083.8325250095799674
 20
12.6824768455250805
 30
0.0
 11
3083.8603424073908172
 21
12.6947935218301602
 31
0.0
  0
LINE
  5
328E6
  8
0
 10
3083.8603424073908172
 20
12.6947935218301602
 30
0.0
 11
3083.864088289126812
 21
12.7092142546784803
 31
0.0
  0
LINE
  5
328E7
  8
0
 10
3083.864088289126812
 20
12.7092142546784803
 30
0.0
 11
3083.8400167609538585
 21
12.7111444714617701
 31
0.0
  0
LINE
  5
328E8
  8
0
 10
3083.8400167609538585
 20
12.7111444714617701
 30
0.0
 11
3083.8121993633158127
 21
12.6987636414302703
 31
0.0
  0
LINE
  5
328E9
  8
0
 10
3083.8332965729659918
 20
12.6819727156265092
 30
0.0
 11
3083.8295506973440752
 21
12.6707293843272097
 31
0.0
  0
LINE
  5
328EA
  8
0
 10
3083.8295506973440752
 20
12.6707293843272097
 30
0.0
 11
3083.8536222194948095
 21
12.6716984639736996
 31
0.0
  0
LINE
  5
328EB
  8
0
 10
3083.8536222194948095
 20
12.6716984639736996
 30
0.0
 11
3083.8814396172388115
 21
12.6840792940520704
 31
0.0
  0
LINE
  5
328EC
  8
0
 10
3083.8814396172388115
 20
12.6840792940520704
 30
0.0
 11
3083.8851854999738862
 21
12.6954296019547108
 31
0.0
  0
LINE
  5
328ED
  8
0
 10
3083.8851854999738862
 20
12.6954296019547108
 30
0.0
 11
3083.8611139707559232
 21
12.6942893919707007
 31
0.0
  0
LINE
  5
328EE
  8
0
 10
3083.8611139707559232
 20
12.6942893919707007
 30
0.0
 11
3083.8332965729850912
 21
12.6819727156924404
 31
0.0
  0
LINE
  5
328EF
  8
0
 10
3083.8531140388331551
 20
12.6683843378517906
 30
0.0
 11
3083.8543937828881099
 21
12.6714234204034994
 31
0.0
  0
LINE
  5
328F0
  8
0
 10
3083.8543937828881099
 20
12.6714234204034994
 30
0.0
 11
3083.8822111802828658
 21
12.6838091766634307
 31
0.0
  0
LINE
  5
328F1
  8
0
 10
3083.8822111802828658
 20
12.6838091766634307
 30
0.0
 11
3083.9062827028387801
 21
12.6881386384806998
 31
0.0
  0
LINE
  5
328F2
  8
0
 10
3083.9062827028387801
 20
12.6881386384806998
 30
0.0
 11
3083.9025368271959451
 21
12.6798810719888806
 31
0.0
  0
LINE
  5
328F3
  8
0
 10
3083.9025368271959451
 20
12.6798810719888806
 30
0.0
 11
3083.8930332679328785
 21
12.6753314583517795
 31
0.0
  0
LINE
  5
328F4
  8
0
 10
3083.8930332679328785
 20
12.6753314583517795
 30
0.0
 11
3083.8531140388149652
 21
12.6683843378361392
 31
0.0
  0
LINE
  5
328F5
  8
0
 10
3083.7372435250640592
 20
12.7204803240234003
 30
0.0
 11
3083.7650609301299482
 21
12.7298780970905998
 31
0.0
  0
LINE
  5
328F6
  8
0
 10
3083.7650609301299482
 20
12.7298780970905998
 30
0.0
 11
3083.7891324450520187
 21
12.72176240184581
 31
0.0
  0
LINE
  5
328F7
  8
0
 10
3083.7891324450520187
 20
12.72176240184581
 30
0.0
 11
3083.7853865693391526
 21
12.7043586143775205
 31
0.0
  0
LINE
  5
328F8
  8
0
 10
3083.7853865693391526
 20
12.7043586143775205
 30
0.0
 11
3083.7575691717279369
 21
12.6951319683220802
 31
0.0
  0
LINE
  5
328F9
  8
0
 10
3083.7575691717279369
 20
12.6951319683220802
 30
0.0
 11
3083.733497649500805
 21
12.7031406904396906
 31
0.0
  0
LINE
  5
328FA
  8
0
 10
3083.733497649500805
 20
12.7031406904396906
 30
0.0
 11
3083.7372435250640592
 21
12.7204803240234003
 31
0.0
  0
LINE
  5
328FB
  8
0
 10
3083.7583407350489324
 20
12.6942891007957801
 30
0.0
 11
3083.7861581327670137
 21
12.7035110813191707
 31
0.0
  0
LINE
  5
328FC
  8
0
 10
3083.7861581327670137
 20
12.7035110813191707
 30
0.0
 11
3083.8102296549709536
 21
12.6984881239817806
 31
0.0
  0
LINE
  5
328FD
  8
0
 10
3083.8102296549709536
 20
12.6984881239817806
 30
0.0
 11
3083.8064837794258892
 21
12.6842431861314697
 31
0.0
  0
LINE
  5
328FE
  8
0
 10
3083.8064837794258892
 20
12.6842431861314697
 30
0.0
 11
3083.7786663815891188
 21
12.6751014071495405
 31
0.0
  0
LINE
  5
328FF
  8
0
 10
3083.7786663815891188
 20
12.6751014071495405
 30
0.0
 11
3083.7545948594079164
 21
12.6801243645074493
 31
0.0
  0
LINE
  5
32900
  8
0
 10
3083.7545948594079164
 20
12.6801243645074493
 30
0.0
 11
3083.7583407349798108
 21
12.6942891007250207
 31
0.0
  0
LINE
  5
32901
  8
0
 10
3083.7781582008328769
 20
12.6704524074517799
 30
0.0
 11
3083.7794371921199854
 21
12.6744834753511704
 31
0.0
  0
LINE
  5
32902
  8
0
 10
3083.7794371921199854
 20
12.6744834753511704
 30
0.0
 11
3083.8072553426559352
 21
12.6836262015516308
 31
0.0
  0
LINE
  5
32903
  8
0
 10
3083.8072553426559352
 20
12.6836262015516308
 30
0.0
 11
3083.8313268653550949
 21
12.6815859317336308
 31
0.0
  0
LINE
  5
32904
  8
0
 10
3083.8313268653550949
 20
12.6815859317336308
 30
0.0
 11
3083.8275809892397774
 21
12.6703456777735397
 31
0.0
  0
LINE
  5
32905
  8
0
 10
3083.8275809892397774
 20
12.6703456777735397
 30
0.0
 11
3083.8180827643677731
 21
12.6670022595518592
 31
0.0
  0
LINE
  5
32906
  8
0
 10
3083.8180827643677731
 20
12.6670022595518592
 30
0.0
 11
3083.778158200866983
 21
12.6704524073592104
 31
0.0
  0
LINE
  5
32907
  8
0
 10
3083.6282465246890752
 20
12.7305839887121603
 30
0.0
 11
3083.6295262689400261
 21
12.7368496493850092
 31
0.0
  0
LINE
  5
32908
  8
0
 10
3083.6295262689400261
 20
12.7368496493850092
 30
0.0
 11
3083.6573436671978925
 21
12.7400842582288192
 31
0.0
  0
LINE
  5
32909
  8
0
 10
3083.6573436671978925
 20
12.7400842582288192
 30
0.0
 11
3083.6814151888329434
 21
12.7257088822517801
 31
0.0
  0
LINE
  5
3290A
  8
0
 10
3083.6814151888329434
 20
12.7257088822517801
 30
0.0
 11
3083.6776693132328546
 21
12.70830016865178
 31
0.0
  0
LINE
  5
3290B
  8
0
 10
3083.6776693132328546
 20
12.70830016865178
 30
0.0
 11
3083.6681657543940673
 21
12.7069771334061503
 31
0.0
  0
LINE
  5
3290C
  8
0
 10
3083.6681657543940673
 20
12.7069771334061503
 30
0.0
 11
3083.6282465249328197
 21
12.7305839887517802
 31
0.0
  0
LINE
  5
3290D
  8
0
 10
3083.6796390214121857
 20
12.7080031965484608
 30
0.0
 11
3083.6833848970009058
 21
12.7254069837469999
 31
0.0
  0
LINE
  5
3290E
  8
0
 10
3083.6833848970009058
 20
12.7254069837469999
 30
0.0
 11
3083.7112023226331985
 21
12.73173431965178
 31
0.0
  0
LINE
  5
3290F
  8
0
 10
3083.7112023226331985
 20
12.73173431965178
 30
0.0
 11
3083.7352738169329314
 21
12.7205482098517795
 31
0.0
  0
LINE
  5
32910
  8
0
 10
3083.7352738169329314
 20
12.7205482098517795
 30
0.0
 11
3083.7315279412591735
 21
12.7032085763221794
 31
0.0
  0
LINE
  5
32911
  8
0
 10
3083.7315279412591735
 20
12.7032085763221794
 30
0.0
 11
3083.7037105436011188
 21
12.6969882022781295
 31
0.0
  0
LINE
  5
32912
  8
0
 10
3083.7037105436011188
 20
12.6969882022781295
 30
0.0
 11
3083.679639021408093
 21
12.7080031965317897
 31
0.0
  0
LINE
  5
32913
  8
0
 10
3083.7032069645929369
 20
12.6909693755090203
 30
0.0
 11
3083.7044821069330283
 21
12.6960324799517803
 31
0.0
  0
LINE
  5
32914
  8
0
 10
3083.7044821069330283
 20
12.6960324799517803
 30
0.0
 11
3083.7322995051331418
 21
12.7022497764517901
 31
0.0
  0
LINE
  5
32915
  8
0
 10
3083.7322995051331418
 20
12.7022497764517901
 30
0.0
 11
3083.7563710268332215
 21
12.6942441318517805
 31
0.0
  0
LINE
  5
32916
  8
0
 10
3083.7563710268332215
 20
12.6942441318517805
 30
0.0
 11
3083.7526259140331604
 21
12.6800835711517799
 31
0.0
  0
LINE
  5
32917
  8
0
 10
3083.7526259140331604
 20
12.6800835711517799
 30
0.0
 11
3083.7431215922870251
 21
12.6777634278142699
 31
0.0
  0
LINE
  5
32918
  8
0
 10
3083.7431215922870251
 20
12.6777634278142699
 30
0.0
 11
3083.7032069645929369
 21
12.6909693755090203
 31
0.0
  0
LINE
  5
32919
  8
0
 10
3083.904506535307064
 20
12.6806517205940992
 30
0.0
 11
3083.908252410957175
 21
12.6889092870742601
 31
0.0
  0
LINE
  5
3291A
  8
0
 10
3083.908252410957175
 20
12.6889092870742601
 30
0.0
 11
3083.9360698095329099
 21
12.7049778243517792
 31
0.0
  0
LINE
  5
3291B
  8
0
 10
3083.9360698095329099
 20
12.7049778243517792
 30
0.0
 11
3083.9452122232328293
 21
12.7076084512517902
 31
0.0
  0
LINE
  5
3291C
  8
0
 10
3083.9452122232328293
 20
12.7076084512517902
 30
0.0
 11
3083.9502686458099561
 21
12.7065533374522097
 31
0.0
  0
LINE
  5
3291D
  8
0
 10
3083.9045065355398947
 20
12.6806517206577603
 30
0.0
 11
3083.9285780574450655
 21
12.6884626912196907
 31
0.0
  0
LINE
  5
3291E
  8
0
 10
3083.9285780574450655
 20
12.6884626912196907
 30
0.0
 11
3083.93948982483289
 21
12.6949937545517795
 31
0.0
  0
LINE
  5
3291F
  8
0
 10
3083.93948982483289
 20
12.6949937545517795
 30
0.0
 11
3083.9553768438058796
 21
12.6968410983302693
 31
0.0
  0
LINE
  5
32920
  8
0
 10
3083.6534501774331147
 20
12.7555112878783596
 30
0.0
 11
3083.6534501774331147
 21
12.7465133687196701
 31
0.0
  0
ARC
  5
32921
  8
0
 10
3083.659453765840226
 20
12.7466969117516005
 30
0.0
 40
0.0060063934113104
 50
181.7511138072921142
 51
241.329888843361914
  0
LINE
  5
32922
  8
0
 10
3083.6300531968331597
 20
12.7534511644002304
 30
0.0
 11
3083.6300531968331597
 21
12.7433861235159398
 31
0.0
  0
LINE
  5
32923
  8
0
 10
3083.6300531968331597
 20
12.7433861235159398
 30
0.0
 11
3083.6287547055108007
 21
12.7381923136998907
 31
0.0
  0
LINE
  5
32924
  8
0
 10
3083.6652406393859565
 20
12.7561755146992297
 30
0.0
 11
3083.663150124033109
 21
12.7446640393517807
 31
0.0
  0
LINE
  5
32925
  8
0
 10
3083.7068599835311034
 20
12.7577607244763396
 30
0.0
 11
3083.7068599835420173
 21
12.7376826385935509
 31
0.0
  0
ARC
  5
32926
  8
0
 10
3083.6579898754589522
 20
12.7464233637509192
 30
0.0
 40
0.0054519159650542
 50
275.8104112155559164
 51
341.1738103547834839
  0
ARC
  5
32927
  8
0
 10
3083.7128124159939944
 20
12.7384557305674893
 30
0.0
 40
0.0060024264302495
 50
187.400055979989304
 51
246.6225308577162991
  0
LINE
  5
32928
  8
0
 10
3083.6534501774331147
 20
12.7465133687196506
 30
0.0
 11
3083.6300531968331597
 21
12.7433861235159398
 31
0.0
  0
LINE
  5
32929
  8
0
 10
3083.6181255769670315
 20
12.7520285759457792
 30
0.0
 11
3083.6300531968331597
 21
12.7433861235159398
 31
0.0
  0
LINE
  5
3292A
  8
0
 10
3083.663150124033109
 20
12.7446640393517807
 30
0.0
 11
3083.6834630030330118
 21
12.7316505998517808
 31
0.0
  0
LINE
  5
3292B
  8
0
 10
3083.6834630030330118
 20
12.7316505998517808
 30
0.0
 11
3083.7068599835538407
 21
12.7376826386587592
 31
0.0
  0
LINE
  5
3292C
  8
0
 10
3083.6834630030330118
 20
12.7316505998517808
 30
0.0
 11
3083.6826133336330713
 21
12.7266135381517795
 31
0.0
  0
LINE
  5
3292D
  8
0
 10
3083.7198836632228449
 20
12.7548531532273
 30
0.0
 11
3083.7164080827328689
 21
12.7359337202517793
 31
0.0
  0
ARC
  5
3292E
  8
0
 10
3083.7112087981981858
 20
12.7383822096591803
 30
0.0
 40
0.0057469696511952
 50
281.9671749080584959
 51
334.7829329960827067
  0
LINE
  5
3292F
  8
0
 10
3083.7602697897327744
 20
12.7553467441479693
 30
0.0
 11
3083.7602697897327744
 21
12.7359474183525396
 31
0.0
  0
ARC
  5
32930
  8
0
 10
3083.7661614824810385
 20
12.7365956137999099
 30
0.0
 40
0.0059272422577943
 50
186.2783481767947933
 51
251.5878285476250085
  0
LINE
  5
32931
  8
0
 10
3083.7164080826942154
 20
12.7359337201448302
 30
0.0
 11
3083.7368728091519188
 21
12.72640926217748
 31
0.0
  0
LINE
  5
32932
  8
0
 10
3083.7368728091519188
 20
12.72640926217748
 30
0.0
 11
3083.7606479528158161
 21
12.7344200239017606
 31
0.0
  0
LINE
  5
32933
  8
0
 10
3083.7368728091519188
 20
12.72640926217748
 30
0.0
 11
3083.7364719617557967
 21
12.7215655287160097
 31
0.0
  0
LINE
  5
32934
  8
0
 10
3083.7733201119481237
 20
12.7533501872918897
 30
0.0
 11
3083.7699688704328764
 21
12.7347533222517804
 31
0.0
  0
LINE
  5
32935
  8
0
 10
3083.8136795959321717
 20
12.7522794693990704
 30
0.0
 11
3083.8136795959321717
 21
12.7402270833742008
 31
0.0
  0
ARC
  5
32936
  8
0
 10
3083.8195008522288845
 20
12.7412526456766102
 30
0.0
 40
0.0059109054215327
 50
189.9915781226665956
 51
256.7690907363311794
  0
ARC
  5
32937
  8
0
 10
3083.764707084957081
 20
12.7362747831484793
 30
0.0
 40
0.0054773378256751
 50
286.4600164696969955
 51
343.8726175236693052
  0
LINE
  5
32938
  8
0
 10
3083.7698271223048323
 20
12.7343289036011402
 30
0.0
 11
3083.7903087303170651
 21
12.7274962074576408
 31
0.0
  0
LINE
  5
32939
  8
0
 10
3083.7903087303170651
 20
12.7274962074576408
 30
0.0
 11
3083.8141434779849988
 21
12.7387551781365502
 31
0.0
  0
LINE
  5
3293A
  8
0
 10
3083.7903087303170651
 20
12.7274962074576408
 30
0.0
 11
3083.7903305897439168
 21
12.7229010702795708
 31
0.0
  0
LINE
  5
3293B
  8
0
 10
3083.8254120157062061
 20
12.75069733669371
 30
0.0
 11
3083.8233795950591229
 21
12.7394992733739194
 31
0.0
  0
ARC
  5
3293C
  8
0
 10
3083.8180436755978917
 20
12.7409032135324196
 30
0.0
 40
0.0055175252117231
 50
292.0797520611699269
 51
345.2589394659909772
  0
LINE
  5
3293D
  8
0
 10
3083.8233131821461939
 20
12.7392675530520805
 30
0.0
 11
3083.843796986533107
 21
12.7350527619517795
 31
0.0
  0
LINE
  5
3293E
  8
0
 10
3083.843796986533107
 20
12.7350527619517795
 30
0.0
 11
3083.8592494937788615
 21
12.7449002483575402
 31
0.0
  0
LINE
  5
3293F
  8
0
 10
3083.843796986533107
 20
12.7350527619517795
 30
0.0
 11
3083.8441892178930175
 21
12.7307673778224402
 31
0.0
  0
LINE
  5
32940
  8
0
 10
3083.8476066775501749
 20
12.7314057786530892
 30
0.0
 11
3083.844361225906141
 21
12.7162190328957401
 31
0.0
  0
ARC
  5
32941
  8
0
 10
3083.8389932568647964
 20
12.7172846291590798
 30
0.0
 40
0.0054727157370323
 50
293.9506707934496035
 51
348.7733744479431266
  0
LINE
  5
32942
  8
0
 10
3083.8880108012667733
 20
12.7381681902919599
 30
0.0
 11
3083.8880108056368954
 21
12.7307964937801206
 31
0.0
  0
ARC
  5
32943
  8
0
 10
3083.8934993505831699
 20
12.7317808177449194
 30
0.0
 40
0.0055761114845425
 50
190.1674251479196016
 51
265.9324768319236796
  0
LINE
  5
32944
  8
0
 10
3083.8443449139567747
 20
12.71613990914895
 30
0.0
 11
3083.8647699116331751
 21
12.7145918294517806
 31
0.0
  0
LINE
  5
32945
  8
0
 10
3083.8647699116331751
 20
12.7145918294517806
 30
0.0
 11
3083.8884463063559451
 21
12.7294229027056698
 31
0.0
  0
LINE
  5
32946
  8
0
 10
3083.8647699116331751
 20
12.7145918294517806
 30
0.0
 11
3083.8652864277960362
 21
12.7103580741976696
 31
0.0
  0
LINE
  5
32947
  8
0
 10
3083.8684126743360139
 20
12.7110779960511504
 30
0.0
 11
3083.8652585522731897
 21
12.6989613990432204
 31
0.0
  0
LINE
  5
32948
  8
0
 10
3083.9089322017330232
 20
12.7264893372857202
 30
0.0
 11
3083.9089322017330232
 21
12.7167643037517895
 31
0.0
  0
ARC
  5
32949
  8
0
 10
3083.9140765754950735
 20
12.7175089419972398
 30
0.0
 40
0.0051979868168887
 50
188.2362504823055076
 51
271.3720144615625145
  0
ARC
  5
3294A
  8
0
 10
3083.8593340312950204
 20
12.7007227280055197
 30
0.0
 40
0.0061807951366931
 50
298.8049035035253951
 51
343.4430629033777223
  0
LINE
  5
3294B
  8
0
 10
3083.9298536014530328
 20
12.7148077876901304
 30
0.0
 11
3083.9298536013720877
 21
12.7093841459021792
 31
0.0
  0
LINE
  5
3294C
  8
0
 10
3083.8891697560979992
 20
12.6972179318134799
 30
0.0
 11
3083.8859576570330319
 21
12.6875389469517792
 31
0.0
  0
ARC
  5
3294D
  8
0
 10
3083.8811115778248677
 20
12.6893483547285904
 30
0.0
 40
0.0051728560962649
 50
296.3717365960504821
 51
339.5255945841872176
  0
ARC
  5
3294E
  8
0
 10
3083.9346643131539167
 20
12.70990840584337
 30
0.0
 40
0.0048391936900654
 50
186.2194126337008129
 51
277.5273570664115823
  0
LINE
  5
3294F
  8
0
 10
3083.8653625342458326
 20
12.6993608470146402
 30
0.0
 11
3083.8855352212431171
 21
12.7019829052878901
 31
0.0
  0
LINE
  5
32950
  8
0
 10
3083.8855352212431171
 20
12.7019829052878901
 30
0.0
 11
3083.9092944729441115
 21
12.7154716491517092
 31
0.0
  0
LINE
  5
32951
  8
0
 10
3083.8855352212431171
 20
12.7019829052878901
 30
0.0
 11
3083.8863836376499421
 21
12.6964554089632795
 31
0.0
  0
LINE
  5
32952
  8
0
 10
3083.8865537121191664
 20
12.6893350335736699
 30
0.0
 11
3083.9067530406878177
 21
12.6930405355157294
 31
0.0
  0
LINE
  5
32953
  8
0
 10
3083.9067530406878177
 20
12.6930405355157294
 30
0.0
 11
3083.9300715668491648
 21
12.70838378229897
 31
0.0
  0
LINE
  5
32954
  8
0
 10
3083.9067530406878177
 20
12.6930405355157294
 30
0.0
 11
3083.9074808475188547
 21
12.6890538376913309
 31
0.0
  0
LINE
  5
32955
  8
0
 10
3083.6091098094811969
 20
12.7508040097303095
 30
0.0
 11
3083.627556560794801
 21
12.7373964905347208
 31
0.0
  0
LINE
  5
32956
  8
0
 10
3083.627556560794801
 20
12.7373964905347208
 30
0.0
 11
3083.6238106851769771
 21
12.7197759616311696
 31
0.0
  0
LINE
  5
32957
  8
0
 10
3083.6238106851769771
 20
12.7197759616311696
 30
0.0
 11
3083.6133565371442273
 21
12.71942445689346
 31
0.0
  0
LINE
  5
32958
  8
0
 10
3083.6115502532961727
 20
12.7490302395560793
 30
0.0
 11
3083.6115502532961727
 21
12.7227692452941206
 31
0.0
  0
ARC
  5
32959
  8
0
 10
3083.8393991579719113
 20
13.0640746686195204
 30
0.0
 40
0.4121638446947921
 50
236.740694973578286
 51
245.3193490067862967
  0
ARC
  5
3295A
  8
0
 10
3083.6155502532960782
 20
12.7227692452941206
 30
0.0
 40
0.004
 50
180.0
 51
236.7406949735787975
  0
ARC
  5
3295B
  8
0
 10
3083.8213626952961022
 20
13.0248256778758194
 30
0.0
 40
0.3689689693011027
 50
245.3193490067862967
 51
253.5517499532716101
  0
ARC
  5
3295C
  8
0
 10
3083.8113684466497944
 20
12.9909734114739308
 30
0.0
 40
0.3336722138336554
 50
253.5517499532716101
 51
262.4681747307782871
  0
ARC
  5
3295D
  8
0
 10
3083.8075693439809584
 20
12.9622397025322105
 30
0.0
 40
0.3046884388786508
 50
262.4681747307782871
 51
272.4634199058534136
  0
ARC
  5
3295E
  8
0
 10
3083.8084381873450184
 20
12.9420440470315707
 30
0.0
 40
0.284474102632009
 50
272.4634199058534136
 51
278.2170220590589906
  0
ARC
  5
3295F
  8
0
 10
3083.8079669929388729
 20
12.9453070424802998
 30
0.0
 40
0.287770944069938
 50
278.2170220590589906
 51
283.2347696067869833
  0
ARC
  5
32960
  8
0
 10
3083.8726121500139925
 20
12.6696112280110693
 30
0.0
 40
0.0046015275905582
 50
285.6019707617624022
 51
335.411924700669374
  0
ARC
  5
32961
  8
0
 10
3083.6480155027988985
 20
13.2063086643780707
 30
0.0
 40
0.5851868903003219
 50
293.013848133421277
 51
295.0169774535464171
  0
ARC
  5
32962
  8
0
 10
3084.3675514585779638
 20
11.7222889889249995
 30
0.0
 40
1.064169164300879
 50
115.8648163446394932
 51
116.3339645256966008
  0
ARC
  5
32963
  8
0
 10
3083.8483773554230538
 20
12.8904343698252397
 30
0.0
 40
0.2176251632934385
 50
284.6202423703825843
 51
291.2858572038683747
  0
ARC
  5
32964
  8
0
 10
3083.843107599727773
 20
12.7470462111633793
 30
0.0
 40
0.1030974795949863
 50
321.3040986088877844
 51
324.8257820865123904
  0
ARC
  5
32965
  8
0
 10
3083.4329375804968549
 20
13.6745691242397704
 30
0.0
 40
1.106681205257747
 50
295.2266436710925177
 51
296.4344987151969235
  0
ARC
  5
32966
  8
0
 10
3083.9005410192489762
 20
12.6841139513791408
 30
0.0
 40
0.0114277785838914
 50
273.1654727690897175
 51
290.8322691272275051
  0
ARC
  5
32967
  8
0
 10
3083.9001318273390098
 20
12.6920855316020695
 30
0.0
 40
0.0194098172049672
 50
265.7409577516268087
 51
273.0721288581967769
  0
ARC
  5
32968
  8
0
 10
3083.8925083468520825
 20
12.6750293926649302
 30
0.0
 40
0.0065960139799056
 50
300.4019809804834722
 51
339.5917374978714065
  0
ARC
  5
32969
  8
0
 10
3083.8335560923769663
 20
12.8049383204570209
 30
0.0
 40
0.1492209238568175
 50
285.9507005019464145
 51
294.6728471210273028
  0
ARC
  5
3296A
  8
0
 10
3083.8697965496348843
 20
12.6763124551747204
 30
0.0
 40
0.0155961995129273
 50
268.5860104822118046
 51
287.7972290488372096
  0
ARC
  5
3296B
  8
0
 10
3083.8693685834427924
 20
12.6926539509033791
 30
0.0
 40
0.0319329752136081
 50
264.2237698176144249
 51
270.0773505473021032
  0
ARC
  5
3296C
  8
0
 10
3083.8616811065357979
 20
12.6630869160926505
 30
0.0
 40
0.0049869930640754
 50
294.9286064716599185
 51
333.7741879713991011
  0
ARC
  5
3296D
  8
0
 10
3083.8573741821141994
 20
12.6760717456006304
 30
0.0
 40
0.0186433892065406
 50
274.7250610516064739
 51
290.106230575000609
  0
ARC
  5
3296E
  8
0
 10
3083.8593264012138206
 20
12.6618993147194896
 30
0.0
 40
0.0044272310802544
 50
186.5573852336538039
 51
264.6020625851796808
  0
LINE
  5
3296F
  8
0
 10
3083.8646210023839558
 20
12.65905862709762
 30
0.0
 11
3083.8726708578328726
 21
12.6573810904517803
 31
0.0
  0
LINE
  5
32970
  8
0
 10
3083.87769369387388
 20
12.6623944456297703
 30
0.0
 11
3083.8788054670330894
 21
12.6621624541517903
 31
0.0
  0
ARC
  5
32971
  8
0
 10
3083.8733567638250861
 20
12.6628271662695706
 30
0.0
 40
0.0054890990921618
 50
262.821678620842988
 51
353.0445960447930247
  0
ARC
  5
32972
  8
0
 10
3083.898853179022808
 20
12.6734546238203905
 30
0.0
 40
0.0024282799154253
 50
294.0959971038865888
 51
341.9712219917998937
  0
ARC
  5
32973
  8
0
 10
3084.0113281047679266
 20
12.4219666421861703
 30
0.0
 40
0.2730654837672511
 50
114.095997103886603
 51
114.9231938234068053
  0
LINE
  5
32974
  8
0
 10
3083.9152310263921208
 20
12.6785087234015599
 30
0.0
 11
3083.9151850218331674
 21
12.6731795120517798
 31
0.0
  0
ARC
  5
32975
  8
0
 10
3083.9099428197009729
 20
12.6733532916811793
 30
0.0
 40
0.0052450817490938
 50
274.5713034952894986
 51
358.1013333346742797
  0
LINE
  5
32976
  8
0
 10
3083.8984476833797999
 20
12.67060849082009
 30
0.0
 11
3083.9103608510331469
 21
12.6681248949517808
 31
0.0
  0
LINE
  5
32977
  8
0
 10
3083.9256037453728823
 20
12.68359821646456
 30
0.0
 11
3083.9293496208101715
 21
12.6885777226959195
 31
0.0
  0
LINE
  5
32978
  8
0
 10
3083.9293496208101715
 20
12.6885777226959195
 30
0.0
 11
3083.9393304821328456
 21
12.6942074207517805
 31
0.0
  0
LINE
  5
32979
  8
0
 10
3083.9393304821328456
 20
12.6942074207517805
 30
0.0
 11
3083.9556028296151453
 21
12.6960994344211908
 31
0.0
  0
LINE
  5
3297A
  8
0
 10
3083.9420522716332016
 20
12.6945238878715401
 30
0.0
 11
3083.9420522716332016
 21
12.6861892806080103
 31
0.0
  0
LINE
  5
3297B
  8
0
 10
3083.9256037453728823
 20
12.68359821646456
 30
0.0
 11
3083.9384803486332203
 21
12.6808634029517808
 31
0.0
  0
ARC
  5
3297C
  8
0
 10
3083.9363230450521769
 20
12.6861709836859404
 30
0.0
 40
0.005729255797035
 50
292.1196299245190175
 51
0.1829798200566963
  0
LINE
  5
3297D
  8
0
 10
3083.8222260190332236
 20
12.6579042737409608
 30
0.0
 11
3083.8222260190332236
 21
12.6491745653607808
 31
0.0
  0
LINE
  5
3297E
  8
0
 10
3083.8222260190332236
 20
12.6494070416304005
 30
0.0
 11
3083.8566485116721196
 21
12.6583737959432998
 31
0.0
  0
ARC
  5
3297F
  8
0
 10
3083.7008672049319102
 20
13.0266353607075196
 30
0.0
 40
0.3910494074948758
 50
262.3380026122532058
 51
266.3848288463535141
  0
ARC
  5
32980
  8
0
 10
3083.7099148964762207
 20
12.8984903352857003
 30
0.0
 40
0.26428431196277
 50
262.6728872219551931
 51
269.0056307993048108
  0
ARC
  5
32981
  8
0
 10
3083.7101055955831725
 20
13.5432946960021496
 30
0.0
 40
0.9090614249247577
 50
269.6989086828381801
 51
272.0147889680303024
  0
ARC
  5
32982
  8
0
 10
3083.7195759367750725
 20
13.0862803526046605
 30
0.0
 40
0.4520996629897281
 50
272.8513866639855792
 51
282.7179667707831072
  0
ARC
  5
32983
  8
0
 10
3083.8182260190328634
 20
12.6491745653607808
 30
0.0
 40
0.004
 50
282.7179667707829935
 51
0.0
  0
LINE
  5
32984
  8
0
 10
3083.8346009957331262
 20
12.7312433401123606
 30
0.0
 11
3083.8346009957331262
 21
12.7174680735956702
 31
0.0
  0
LINE
  5
32985
  8
0
 10
3083.7941628428961849
 20
12.7233134526544394
 30
0.0
 11
3083.790823828026987
 21
12.70788439608239
 31
0.0
  0
ARC
  5
32986
  8
0
 10
3083.785615104478893
 20
12.7097834008609194
 30
0.0
 40
0.0055440977760984
 50
288.3040081796464733
 51
339.9690748501881217
  0
ARC
  5
32987
  8
0
 10
3083.8402868179500729
 20
12.7173771198551098
 30
0.0
 40
0.0056865496450934
 50
179.0835413366955891
 51
258.0045470753822769
  0
LINE
  5
32988
  8
0
 10
3083.7909029529669169
 20
12.7082500198397792
 30
0.0
 11
3083.8113025914472018
 21
12.7037818406417191
 31
0.0
  0
LINE
  5
32989
  8
0
 10
3083.8113025914472018
 20
12.7037818406417191
 30
0.0
 11
3083.8349719953189378
 21
12.7153548668354706
 31
0.0
  0
LINE
  5
3298A
  8
0
 10
3083.8113025914472018
 20
12.7037818406417191
 30
0.0
 11
3083.8114277996710371
 21
12.6994968576826093
 31
0.0
  0
LINE
  5
3298B
  8
0
 10
3083.8149566089891778
 20
12.6999908227241605
 30
0.0
 11
3083.8116871038519093
 21
12.6876482692520192
 31
0.0
  0
LINE
  5
3298C
  8
0
 10
3083.8555223955331712
 20
12.7099011255518501
 30
0.0
 11
3083.8555223955331712
 21
12.6990016665459304
 31
0.0
  0
ARC
  5
3298D
  8
0
 10
3083.8607988236608435
 20
12.7001807961506099
 30
0.0
 40
0.0054065738148282
 50
192.5969819674531891
 51
265.1573977270011824
  0
ARC
  5
3298E
  8
0
 10
3083.8066162612299195
 20
12.6896447141150492
 30
0.0
 40
0.0054497006328476
 50
289.7017639760284737
 51
338.5099107946181789
  0
LINE
  5
3298F
  8
0
 10
3083.8119372968540119
 20
12.6885927609662694
 30
0.0
 11
3083.8322224450721478
 21
12.68695601365628
 31
0.0
  0
LINE
  5
32990
  8
0
 10
3083.8322224450721478
 20
12.68695601365628
 30
0.0
 11
3083.8557184963651707
 21
12.6983311164541597
 31
0.0
  0
LINE
  5
32991
  8
0
 10
3083.8322224450721478
 20
12.68695601365628
 30
0.0
 11
3083.8325250095799674
 21
12.6824768455250805
 31
0.0
  0
LINE
  5
32992
  8
0
 10
3083.8764437954318964
 20
12.6950155286025392
 30
0.0
 11
3083.8764437954318964
 21
12.6883945425841507
 31
0.0
  0
ARC
  5
32993
  8
0
 10
3083.8813266685328927
 20
12.6889980214302192
 30
0.0
 40
0.0049200240274593
 50
187.0455111199231055
 51
271.3154514468216121
  0
LINE
  5
32994
  8
0
 10
3083.835693009400984
 20
12.6830337830067705
 30
0.0
 11
3083.8325545588331806
 21
12.6736992459517808
 31
0.0
  0
ARC
  5
32995
  8
0
 10
3083.8278077789291274
 20
12.6754963123025295
 30
0.0
 40
0.0050755656754231
 50
290.0837857344686199
 51
339.264015419605812
  0
LINE
  5
32996
  8
0
 10
3083.8330436322398782
 20
12.6751538726048008
 30
0.0
 11
3083.8531964662270184
 21
12.6760547822449698
 31
0.0
  0
LINE
  5
32997
  8
0
 10
3083.8531964662270184
 20
12.6760547822449698
 30
0.0
 11
3083.8765837400342207
 21
12.6876898678907306
 31
0.0
  0
LINE
  5
32998
  8
0
 10
3083.8531964662270184
 20
12.6760547822449698
 30
0.0
 11
3083.8536222194948095
 21
12.6716984639736996
 31
0.0
  0
LINE
  5
32999
  8
0
 10
3083.897365195232851
 20
12.6865347512069899
 30
0.0
 11
3083.897365195232851
 21
12.6838641978963107
 31
0.0
  0
ARC
  5
3299A
  8
0
 10
3083.9018915520259725
 20
12.6843922045268904
 30
0.0
 40
0.0045570491351451
 50
186.6535717463061133
 51
278.1404039899528016
  0
ARC
  5
3299B
  8
0
 10
3083.8510740738270215
 20
12.6732812649742606
 30
0.0
 40
0.005304842367792
 50
292.6156644581577098
 51
348.9380095176027794
  0
LINE
  5
3299C
  8
0
 10
3083.8581203171511333
 20
12.6730826678315704
 30
0.0
 11
3083.892393028233073
 21
12.6794066232517793
 31
0.0
  0
LINE
  5
3299D
  8
0
 10
3083.892393028233073
 20
12.6794066232517793
 30
0.0
 11
3083.8976682668999274
 21
12.6826803168076001
 31
0.0
  0
LINE
  5
3299E
  8
0
 10
3083.892393028233073
 20
12.6794066232517793
 30
0.0
 11
3083.8930332679328785
 21
12.6753314583517795
 31
0.0
  0
LINE
  5
3299F
  8
0
 10
3083.8230339892329539
 20
12.6822888247357906
 30
0.0
 11
3083.8230339892329539
 21
12.6744911439243708
 31
0.0
  0
ARC
  5
329A0
  8
0
 10
3083.8280356651389411
 20
12.67541084050543
 30
0.0
 40
0.0050855288489718
 50
190.4190296684762131
 51
264.8705744674645075
  0
LINE
  5
329A1
  8
0
 10
3083.7822036706411382
 20
12.6753927074592596
 30
0.0
 11
3083.7816529517967865
 21
12.6736736393030807
 31
0.0
  0
ARC
  5
329A2
  8
0
 10
3083.7767982607911108
 20
12.6754341850691503
 30
0.0
 40
0.0051640629509969
 50
285.2687496645788201
 51
340.0669062115634915
  0
LINE
  5
329A3
  8
0
 10
3083.8021125902450876
 20
12.7001818959616593
 30
0.0
 11
3083.8021125902450876
 21
12.6888360341125406
 31
0.0
  0
ARC
  5
329A4
  8
0
 10
3083.8074180417370371
 20
12.6895088973245205
 30
0.0
 40
0.0053479491802515
 50
187.2279421182398096
 51
259.9390651710875204
  0
LINE
  5
329A5
  8
0
 10
3083.7614860286362273
 20
12.6953318236446506
 30
0.0
 11
3083.7584883297740816
 21
12.6840939130613801
 31
0.0
  0
ARC
  5
329A6
  8
0
 10
3083.7534011879101854
 20
12.68518935815578
 30
0.0
 40
0.0052037498309936
 50
283.2609725337241002
 51
347.8477169086015124
  0
LINE
  5
329A7
  8
0
 10
3083.7584666966399709
 20
12.6839978743712596
 30
0.0
 11
3083.7787217246591354
 21
12.6800922811265995
 31
0.0
  0
LINE
  5
329A8
  8
0
 10
3083.7787217246591354
 20
12.6800922811265995
 30
0.0
 11
3083.80227829634714
 21
12.6880312039333703
 31
0.0
  0
LINE
  5
329A9
  8
0
 10
3083.7787217246591354
 20
12.6800922811265995
 30
0.0
 11
3083.7787217246591354
 21
12.67511959483606
 31
0.0
  0
LINE
  5
329AA
  8
0
 10
3083.7819454431778468
 20
12.6745866507713707
 30
0.0
 11
3083.817877412002872
 21
12.6715680701738602
 31
0.0
  0
LINE
  5
329AB
  8
0
 10
3083.817877412002872
 20
12.6715680701738602
 30
0.0
 11
3083.823305343732045
 21
12.6735435796611693
 31
0.0
  0
LINE
  5
329AC
  8
0
 10
3083.817877412002872
 20
12.6715680701738602
 30
0.0
 11
3083.8180827643677731
 21
12.6670022595518592
 31
0.0
  0
LINE
  5
329AD
  8
0
 10
3083.7811911895328194
 20
12.7244397908619096
 30
0.0
 11
3083.7811911895328194
 21
12.7088880913742699
 31
0.0
  0
ARC
  5
329AE
  8
0
 10
3083.7868856934360338
 20
12.7099548635191208
 30
0.0
 40
0.0057935634555137
 50
190.6104469695794137
 51
255.0036905541576004
  0
LINE
  5
329AF
  8
0
 10
3083.7407023440518969
 20
12.7216488440867508
 30
0.0
 11
3083.7376021218951792
 21
12.7073968345534407
 31
0.0
  0
ARC
  5
329B0
  8
0
 10
3083.732423445385848
 20
12.7082837891520395
 30
0.0
 40
0.0052540821124504
 50
281.7973827513037008
 51
350.281219046360718
  0
LINE
  5
329B1
  8
0
 10
3083.7374155391307795
 20
12.7066453817282294
 30
0.0
 11
3083.757804753020082
 21
12.6999573457208008
 31
0.0
  0
LINE
  5
329B2
  8
0
 10
3083.757804753020082
 20
12.6999573457208008
 30
0.0
 11
3083.7814385557121568
 21
12.7079815241843708
 31
0.0
  0
LINE
  5
329B3
  8
0
 10
3083.757804753020082
 20
12.6999573457208008
 30
0.0
 11
3083.7575691717279369
 21
12.6951319683220802
 31
0.0
  0
LINE
  5
329B4
  8
0
 10
3083.7487027832330568
 20
12.6967944165297908
 30
0.0
 11
3083.7487027832330568
 21
12.6844151071116293
 31
0.0
  0
ARC
  5
329B5
  8
0
 10
3083.7541374256838935
 20
12.6853949520686502
 30
0.0
 40
0.005522267171842
 50
190.2204069229854895
 51
254.1147182531773012
  0
LINE
  5
329B6
  8
0
 10
3083.7079888304979249
 20
12.6968162462836904
 30
0.0
 11
3083.7074110281700996
 21
12.6945468859329402
 31
0.0
  0
ARC
  5
329B7
  8
0
 10
3083.7024039156658546
 20
12.6961719975104401
 30
0.0
 40
0.0052642343478681
 50
278.7746214478643196
 51
342.0186105156556096
  0
LINE
  5
329B8
  8
0
 10
3083.7074191089659507
 20
12.6945786238425704
 30
0.0
 11
3083.7434737520620729
 21
12.6826856198096696
 31
0.0
  0
LINE
  5
329B9
  8
0
 10
3083.7434737520620729
 20
12.6826856198096696
 30
0.0
 11
3083.7487617753749873
 21
12.6841309036250003
 31
0.0
  0
LINE
  5
329BA
  8
0
 10
3083.7277813834330118
 20
12.7240299705915092
 30
0.0
 11
3083.7277813834330118
 21
12.7073920547548198
 31
0.0
  0
LINE
  5
329BB
  8
0
 10
3083.6872384957978284
 20
12.7262835211503695
 30
0.0
 11
3083.6840480939818008
 21
12.7115881954734906
 31
0.0
  0
ARC
  5
329BC
  8
0
 10
3083.6790019931449933
 20
12.7132904427416893
 30
0.0
 40
0.0053254837800904
 50
276.8701060386101176
 51
341.3587552934960172
  0
ARC
  5
329BD
  8
0
 10
3083.7337279932939964
 20
12.7089482296336307
 30
0.0
 40
0.0061468568465813
 50
194.664936467690012
 51
249.0277982003968873
  0
LINE
  5
329BE
  8
0
 10
3083.6839537509740694
 20
12.7113306284911101
 30
0.0
 11
3083.7043719372331907
 21
12.7017987886517805
 31
0.0
  0
LINE
  5
329BF
  8
0
 10
3083.7043719372331907
 20
12.7017987886517805
 30
0.0
 11
3083.7278944618660717
 21
12.7070107673326902
 31
0.0
  0
LINE
  5
329C0
  8
0
 10
3083.6337951876121224
 20
12.7373460395203999
 30
0.0
 11
3083.6329102313361545
 21
12.7335523892622806
 31
0.0
  0
LINE
  5
329C1
  8
0
 10
3083.6743715772331598
 20
12.7299152870866692
 30
0.0
 11
3083.6743715772331598
 21
12.7125675606813697
 31
0.0
  0
ARC
  5
329C2
  8
0
 10
3083.6803793133199179
 20
12.7138022911221604
 30
0.0
 40
0.0061333067874475
 50
191.6139032751925981
 51
243.77803768941709
  0
ARC
  5
329C3
  8
0
 10
3083.6279083944741615
 20
12.7362630474327396
 30
0.0
 40
0.0056891158986854
 50
273.4073611340606931
 51
331.5452947665214083
  0
LINE
  5
329C4
  8
0
 10
3083.6328477762472176
 20
12.7334401858677708
 30
0.0
 11
3083.6690951394330114
 21
12.7115726512517799
 31
0.0
  0
LINE
  5
329C5
  8
0
 10
3083.6690951394330114
 20
12.7115726512517799
 30
0.0
 11
3083.6744289786970512
 21
12.7123153580271406
 31
0.0
  0
ARC
  5
329C6
  8
0
 10
3083.8040214059860773
 20
12.9792783087011294
 30
0.0
 40
0.324551769663488
 50
284.6529413031552735
 51
287.5706711589269844
  0
ARC
  5
329C7
  8
0
 10
3083.8544165337298182
 20
12.8370991547221998
 30
0.0
 40
0.1736285465286012
 50
290.4906680939250236
 51
296.7844999528978747
  0
ARC
  5
329C8
  8
0
 10
3083.9061056492478201
 20
12.7449792506516495
 30
0.0
 40
0.0678076685741726
 50
302.0139827600766012
 51
313.4693140390181156
  0
ARC
  5
329C9
  8
0
 10
3083.7701804254629678
 20
13.0764994641205394
 30
0.0
 40
0.4352471202381826
 50
274.9687539888014953
 51
288.974687221604313
  0
ARC
  5
329CA
  8
0
 10
3083.8687770719679975
 20
12.7897425266976903
 30
0.0
 40
0.1320131513922658
 50
288.974687221604313
 51
304.2450757843627116
  0
ARC
  5
329CB
  8
0
 10
3083.9149467154738886
 20
12.7219207940796402
 30
0.0
 40
0.0499678992636297
 50
304.2450757843624842
 51
321.6598130564004236
  0
ARC
  5
329CC
  8
0
 10
3083.9358128131798367
 20
12.6996231348674797
 30
0.0
 40
0.0202856011349021
 50
334.6072331251405103
 51
348.6443060113688261
  0
ARC
  5
329CD
  8
0
 10
3083.5128808618042058
 20
12.7068984490401196
 30
0.0
 40
0.0366732527362641
 50
198.2034512673874076
 51
236.5020485733917042
  0
ARC
  5
329CE
  8
0
 10
3083.5673703580141591
 20
12.7837487116724198
 30
0.0
 40
0.1308672207887987
 50
235.1775882153212081
 51
250.3321594044269034
  0
ARC
  5
329CF
  8
0
 10
3083.6386766107489166
 20
12.9760430134300595
 30
0.0
 40
0.3359510739832635
 50
249.9183474266378937
 51
258.8392650369073067
  0
ARC
  5
329D0
  8
0
 10
3083.6945001079338908
 20
13.2463028651860508
 30
0.0
 40
0.6119100191414646
 50
258.6093253625509192
 51
264.6186117177040273
  0
ARC
  5
329D1
  8
0
 10
3083.7161278664771089
 20
13.4619600524581298
 30
0.0
 40
0.8286460817362035
 50
264.5282376970230871
 51
270.0526568067360813
  0
ARC
  5
329D2
  8
0
 10
3083.7195792986271954
 20
13.4112633560839107
 30
0.0
 40
0.7779536857326148
 50
269.8018918671504025
 51
278.599739037814004
  0
ARC
  5
329D3
  8
0
 10
3083.787888270440817
 20
12.9907465583403994
 30
0.0
 40
0.3519812932118534
 50
277.8410367557559084
 51
292.3330331273887168
  0
ARC
  5
329D4
  8
0
 10
3083.8883538828858946
 20
12.7440552104919398
 30
0.0
 40
0.0856220230647641
 50
292.8753098188893773
 51
316.7843159416976846
  0
ARC
  5
329D5
  8
0
 10
3083.9292334838060015
 20
12.7024654706521893
 30
0.0
 40
0.027449323002322
 50
321.627786178055203
 51
335.1366272312861838
  0
LINE
  5
329D6
  8
0
 10
3083.9293496208101715
 20
12.6885777226959195
 30
0.0
 11
3083.9420522716332016
 21
12.6861892806080103
 31
0.0
  0
LINE
  5
329D7
  8
0
 10
3083.9074720177168274
 20
12.6747889694242701
 30
0.0
 11
3083.9151850218331674
 21
12.6731795120517798
 31
0.0
  0
ARC
  5
329D8
  8
0
 10
3083.607073760133062
 20
13.0799999299639502
 30
0.0
 40
0.3622709388474637
 50
255.8451441490512934
 51
257.1402128128884215
  0
ARC
  5
329D9
  8
0
 10
3083.6559159191970139
 20
12.3927967116987894
 30
0.0
 40
0.3582337822930732
 50
104.5979625213467017
 51
111.1871668666559998
  0
ARC
  5
329DA
  8
0
 10
3084.072699401814134
 20
11.1273326036861704
 30
0.0
 40
1.6899985577658001
 50
106.4857593421514963
 51
107.4601388080877058
  0
LINE
  5
329DB
  8
0
 10
3083.5931166400741859
 20
12.7478558216289493
 30
0.0
 11
3083.5937883258179681
 21
12.7484258975272908
 31
0.0
  0
ARC
  5
329DC
  8
0
 10
3083.7399081196617772
 20
12.2622509545516998
 30
0.0
 40
0.5095745557053725
 50
108.3915451736500017
 51
110.6779776015187053
  0
ARC
  5
329DD
  8
0
 10
3083.4588098486201488
 20
13.0070215591408793
 30
0.0
 40
0.2864778869406657
 50
289.4031035037073138
 51
290.6779776015187053
  0
ARC
  5
329DE
  8
0
 10
3083.5486803099602184
 20
12.7518646665046607
 30
0.0
 40
0.0159566499161973
 50
266.7600407871782977
 51
289.4031035037074275
  0
ARC
  5
329DF
  8
0
 10
3083.5420534871691416
 20
12.7396194040216493
 30
0.0
 40
0.0068089067495593
 50
290.8529526719992191
 51
327.2256093940472965
  0
LINE
  5
329E0
  8
0
 10
3083.5277301905571221
 20
12.73229778939141
 30
0.0
 11
3083.5350863297230717
 21
12.7300379504043093
 31
0.0
  0
LINE
  5
329E1
  8
0
 10
3083.5350863297230717
 20
12.7300379504043093
 30
0.0
 11
3083.5363307633638215
 21
12.7352726462556394
 31
0.0
  0
LINE
  5
329E2
  8
0
 10
3083.5569278718330679
 20
12.7370826528218508
 30
0.0
 11
3083.5569278718330679
 21
12.7033058566509691
 31
0.0
  0
ARC
  5
329E3
  8
0
 10
3083.7833160698669417
 20
13.0401888353205102
 30
0.0
 40
0.4076665108007106
 50
236.5698067874143078
 51
246.7845965181334122
  0
ARC
  5
329E4
  8
0
 10
3083.5609278718329733
 20
12.7033058566509691
 30
0.0
 40
0.004
 50
180.0
 51
236.5698067874157005
  0
ARC
  5
329E5
  8
0
 10
3083.762913736497012
 20
12.9926219466014707
 30
0.0
 40
0.3559087663623938
 50
246.7845965181334122
 51
258.4283453881690207
  0
ARC
  5
329E6
  8
0
 10
3083.7533334023878524
 20
12.9458326921511695
 30
0.0
 40
0.3081487712445323
 50
258.4283453881690207
 51
267.0156146042479008
  0
ARC
  5
329E7
  8
0
 10
3083.7530856802090966
 20
12.9410810950608006
 30
0.0
 40
0.3033907210990501
 50
267.0156146042479008
 51
274.5314693676124875
  0
ARC
  5
329E8
  8
0
 10
3083.7479307825910837
 20
12.9888585925464604
 30
0.0
 40
0.3514287887778371
 50
274.7538592117468284
 51
278.090512714190595
  0
LINE
  5
329E9
  8
0
 10
3083.5078631097389916
 20
12.7241197203976792
 30
0.0
 11
3083.506398928919225
 21
12.7198929000542496
 31
0.0
  0
LINE
  5
329EA
  8
0
 10
3083.506398928919225
 20
12.7198929000542496
 30
0.0
 11
3083.5304704510290321
 21
12.7020474754878592
 31
0.0
  0
LINE
  5
329EB
  8
0
 10
3083.5304704510290321
 20
12.7020474754878592
 30
0.0
 11
3083.5582878488330607
 21
12.6959191221517802
 31
0.0
  0
LINE
  5
329EC
  8
0
 10
3083.5582878488330607
 20
12.6959191221517802
 30
0.0
 11
3083.5587241894158979
 21
12.6999676260110093
 31
0.0
  0
LINE
  5
329ED
  8
0
 10
3083.5135343030578952
 20
12.7266544590744797
 30
0.0
 11
3083.5121753522062136
 21
12.72267969973222
 31
0.0
  0
ARC
  5
329EE
  8
0
 10
3083.5076774533122261
 20
12.7246228278096396
 30
0.0
 40
0.0048996776620381
 50
254.8741239620296994
 51
336.6352716978897774
  0
LINE
  5
329EF
  8
0
 10
3083.5122057877979387
 20
12.7227687199878794
 30
0.0
 11
3083.5322490098928938
 21
12.7059645667544707
 31
0.0
  0
LINE
  5
329F0
  8
0
 10
3083.5322490098928938
 20
12.7059645667544707
 30
0.0
 11
3083.5584234938701229
 21
12.70018686786924
 31
0.0
  0
LINE
  5
329F1
  8
0
 10
3083.5322490098928938
 20
12.7059645667544707
 30
0.0
 11
3083.5304704510290321
 21
12.7020474754878592
 31
0.0
  0
LINE
  5
329F2
  8
0
 10
3083.5027472452748043
 20
12.7214847971869904
 30
0.0
 11
3083.5044292207330727
 21
12.7209509870517792
 31
0.0
  0
LINE
  5
329F3
  8
0
 10
3083.5044292207330727
 20
12.7209509870517792
 30
0.0
 11
3083.5050594488347997
 21
12.7227274714393097
 31
0.0
  0
LINE
  5
329F4
  8
0
 10
3083.5017594860360077
 20
12.7209268131056703
 30
0.0
 11
3083.5052007841782142
 21
12.7198276957391698
 31
0.0
  0
LINE
  5
329F5
  8
0
 10
3083.5052007841782142
 20
12.7198276957391698
 30
0.0
 11
3083.5292723063448648
 21
12.7019708105383309
 31
0.0
  0
LINE
  5
329F6
  8
0
 10
3083.5292723063448648
 20
12.7019708105383309
 30
0.0
 11
3083.5255264307270409
 21
12.6937132440970295
 31
0.0
  0
LINE
  5
329F7
  8
0
 10
3083.5255264307270409
 20
12.6937132440970295
 30
0.0
 11
3083.4977090329398379
 21
12.7033125629444097
 31
0.0
  0
LINE
  5
329F8
  8
0
 10
3083.4977090329398379
 20
12.7033125629444097
 30
0.0
 11
3083.4874508035968574
 21
12.7107628718969092
 31
0.0
  0
LINE
  5
329F9
  8
0
 10
3083.5234965520330661
 20
12.7062554162643497
 30
0.0
 11
3083.5234965520330661
 21
12.6972710123200692
 31
0.0
  0
ARC
  5
329FA
  8
0
 10
3083.5283026824481567
 20
12.6976551859158207
 30
0.0
 40
0.0048214602479645
 50
184.5701680401199098
 51
234.8435259313565098
  0
LINE
  5
329FB
  8
0
 10
3083.5000995715331555
 20
12.7199512278771092
 30
0.0
 11
3083.5000995715331555
 21
12.7088637448417892
 31
0.0
  0
LINE
  5
329FC
  8
0
 10
3083.4977090329398379
 20
12.7033125629444097
 30
0.0
 11
3083.4996377707461761
 21
12.7069979618095203
 31
0.0
  0
ARC
  5
329FD
  8
0
 10
3083.4960995715327954
 20
12.7088637448417892
 30
0.0
 40
0.004
 50
332.1961707791293748
 51
0.0
  0
LINE
  5
329FE
  8
0
 10
3083.4870284464291217
 20
12.7103808388545492
 30
0.0
 11
3083.4965108881051492
 21
12.7034954802074402
 31
0.0
  0
LINE
  5
329FF
  8
0
 10
3083.4965108881051492
 20
12.7034954802074402
 30
0.0
 11
3083.4927650123431704
 21
12.6985159739768303
 31
0.0
  0
LINE
  5
32A00
  8
0
 10
3083.4927650123431704
 20
12.6985159739768303
 30
0.0
 11
3083.4911645088459409
 21
12.6992212841571401
 31
0.0
  0
LINE
  5
32A01
  8
0
 10
3083.4910162206451787
 20
12.7074852496576192
 30
0.0
 11
3083.4909678712620007
 21
12.7018945352243104
 31
0.0
  0
ARC
  5
32A02
  8
0
 10
3083.4953620124520057
 20
12.7020646359031399
 30
0.0
 40
0.0043974323225711
 50
182.216858018083002
 51
233.8023951612053963
  0
LINE
  5
32A03
  8
0
 10
3083.4787150174079216
 20
12.6977736563109609
 30
0.0
 11
3083.4911645088459409
 21
12.6992212841571401
 31
0.0
  0
LINE
  5
32A04
  8
0
 10
3083.4786968804319258
 20
12.6971826487476296
 30
0.0
 11
3083.4913653517328385
 21
12.6986557395517803
 31
0.0
  0
LINE
  5
32A05
  8
0
 10
3083.4913653517328385
 20
12.6986557395517803
 30
0.0
 11
3083.4935365759938577
 21
12.6977620276017706
 31
0.0
  0
LINE
  5
32A06
  8
0
 10
3083.4935365759938577
 20
12.6977620276017706
 30
0.0
 11
3083.5176080980381812
 21
12.6829898312495892
 31
0.0
  0
LINE
  5
32A07
  8
0
 10
3083.4892140506699434
 20
12.6984055861009306
 30
0.0
 11
3083.4892140506699434
 21
12.6875229618230101
 31
0.0
  0
ARC
  5
32A08
  8
0
 10
3083.4953058144469651
 20
12.6879596599068094
 30
0.0
 40
0.0061073964286292
 50
184.1003277983330122
 51
243.1342647264056893
  0
LINE
  5
32A09
  8
0
 10
3083.4925458740331123
 20
12.6825114473517804
 30
0.0
 11
3083.5067685138828892
 21
12.6842114526517804
 31
0.0
  0
LINE
  5
32A0A
  8
0
 10
3083.5067685138828892
 20
12.6842114526517804
 30
0.0
 11
3083.5146312585329724
 21
12.6806891191331701
 31
0.0
  0
LINE
  5
32A0B
  8
0
 10
3083.5146312585329724
 20
12.6806891191331701
 30
0.0
 11
3083.5399026331629102
 21
12.6687894474837606
 31
0.0
  0
ARC
  5
32A0C
  8
0
 10
3083.5119654698369231
 20
12.6900113437192008
 30
0.0
 40
0.0090078236973521
 50
280.4345762871333818
 51
308.7860563526493252
  0
LINE
  5
32A0D
  8
0
 10
3083.5274961388331576
 20
12.6928068237517806
 30
0.0
 11
3083.5312420140248832
 21
12.7010643903831202
 31
0.0
  0
LINE
  5
32A0E
  8
0
 10
3083.5312420140248832
 20
12.7010643903831202
 30
0.0
 11
3083.5407455749332257
 21
12.6987249255517796
 31
0.0
  0
LINE
  5
32A0F
  8
0
 10
3083.5407455749332257
 20
12.6987249255517796
 30
0.0
 11
3083.5806648028328709
 21
12.6751180707517808
 31
0.0
  0
LINE
  5
32A10
  8
0
 10
3083.5806648028328709
 20
12.6751180707517808
 30
0.0
 11
3083.5793850587338056
 21
12.6725149095903404
 31
0.0
  0
LINE
  5
32A11
  8
0
 10
3083.5793850587338056
 20
12.6725149095903404
 30
0.0
 11
3083.5516402778830525
 21
12.67858759930178
 31
0.0
  0
LINE
  5
32A12
  8
0
 10
3083.5516402778830525
 20
12.67858759930178
 30
0.0
 11
3083.527496138765855
 21
12.6928068236129903
 31
0.0
  0
ARC
  5
32A13
  8
0
 10
3083.5816999694379774
 20
12.6767245858353998
 30
0.0
 40
0.0048041841816485
 50
172.824323282148697
 51
241.1935036074208085
  0
LINE
  5
32A14
  8
0
 10
3083.535240715828877
 20
12.7000800412182393
 30
0.0
 11
3083.5328005557757933
 21
12.6948787004552397
 31
0.0
  0
ARC
  5
32A15
  8
0
 10
3083.5287490080709176
 20
12.6974253488484603
 30
0.0
 40
0.0047854421786956
 50
254.8226024255471032
 51
327.8480975119334744
  0
LINE
  5
32A16
  8
0
 10
3083.5333306906532016
 20
12.6960087132756794
 30
0.0
 11
3083.5532597986348264
 21
12.6825384540569903
 31
0.0
  0
LINE
  5
32A17
  8
0
 10
3083.5532597986348264
 20
12.6825384540569903
 30
0.0
 11
3083.5766734348858336
 21
12.6774784281165704
 31
0.0
  0
LINE
  5
32A18
  8
0
 10
3083.5532597986348264
 20
12.6825384540569903
 30
0.0
 11
3083.5516402778830525
 21
12.67858759930178
 31
0.0
  0
LINE
  5
32A19
  8
0
 10
3083.4947347207330495
 20
12.6974497597517804
 30
0.0
 11
3083.4984805962822065
 21
12.7024373931253702
 31
0.0
  0
LINE
  5
32A1A
  8
0
 10
3083.4984805962822065
 20
12.7024373931253702
 30
0.0
 11
3083.5262979941271624
 21
12.6928495350278308
 31
0.0
  0
LINE
  5
32A1B
  8
0
 10
3083.5262979941271624
 20
12.6928495350278308
 30
0.0
 11
3083.5503695162319673
 21
12.6784636152517791
 31
0.0
  0
LINE
  5
32A1C
  8
0
 10
3083.5503695162319673
 20
12.6784636152517791
 30
0.0
 11
3083.5466236406591634
 21
12.67330394048372
 31
0.0
  0
LINE
  5
32A1D
  8
0
 10
3083.5466236406591634
 20
12.67330394048372
 30
0.0
 11
3083.5188062427328077
 21
12.6826953994517808
 31
0.0
  0
LINE
  5
32A1E
  8
0
 10
3083.5188062427328077
 20
12.6826953994517808
 30
0.0
 11
3083.4947347207330495
 21
12.6974497597517804
 31
0.0
  0
LINE
  5
32A1F
  8
0
 10
3083.5444179518331111
 20
12.6820204625347905
 30
0.0
 11
3083.5444179518331111
 21
12.6766877126626607
 31
0.0
  0
ARC
  5
32A20
  8
0
 10
3083.548730639941823
 20
12.6770881413032992
 30
0.0
 40
0.0043312379086293
 50
185.304645276857201
 51
240.8914451002814872
  0
LINE
  5
32A21
  8
0
 10
3083.5019955833658969
 20
12.7012258780307707
 30
0.0
 11
3083.4997808380539936
 21
12.6985091073745497
 31
0.0
  0
ARC
  5
32A22
  8
0
 10
3083.4964826660861945
 20
12.7016716235551304
 30
0.0
 40
0.0045694033450483
 50
247.5093590647389021
 51
316.2028691421884901
  0
LINE
  5
32A23
  8
0
 10
3083.5012429310409061
 20
12.7003026189357193
 30
0.0
 11
3083.5206751149157753
 21
12.6865642773982206
 31
0.0
  0
LINE
  5
32A24
  8
0
 10
3083.5206751149157753
 20
12.6865642773982206
 30
0.0
 11
3083.5444179518331111
 21
12.6784903712191301
 31
0.0
  0
LINE
  5
32A25
  8
0
 10
3083.5206751149157753
 20
12.6865642773982206
 30
0.0
 11
3083.5188062427328077
 21
12.6826953994517808
 31
0.0
  0
LINE
  5
32A26
  8
0
 10
3083.519577806227062
 20
12.6820696170484108
 30
0.0
 11
3083.5158319306019621
 21
12.6802715690264396
 31
0.0
  0
LINE
  5
32A27
  8
0
 10
3083.5158319306019621
 20
12.6802715690264396
 30
0.0
 11
3083.5188750839179193
 21
12.6786908056517298
 31
0.0
  0
LINE
  5
32A28
  8
0
 10
3083.5195785972409794
 20
12.6820693153032202
 30
0.0
 11
3083.54739877478778
 21
12.6726799835692301
 31
0.0
  0
LINE
  5
32A29
  8
0
 10
3083.54739877478778
 20
12.6726799835692301
 30
0.0
 11
3083.5714667261509021
 21
12.6614871861310991
 31
0.0
  0
LINE
  5
32A2A
  8
0
 10
3083.5714667261509021
 20
12.6614871861310991
 30
0.0
 11
3083.5677214015609025
 21
12.6594014285603809
 31
0.0
  0
LINE
  5
32A2B
  8
0
 10
3083.5677214015609025
 20
12.6594014285603809
 30
0.0
 11
3083.5399026331629102
 21
12.6687894474837606
 31
0.0
  0
ARC
  5
32A2C
  8
0
 10
3083.569358707621177
 20
12.6631364481376991
 30
0.0
 40
0.0040781297647906
 50
163.6126520331494021
 51
246.3289827841637987
  0
ARC
  5
32A2D
  8
0
 10
3083.5177096195920967
 20
12.68617246992142
 30
0.0
 40
0.0061924427583007
 50
252.3487329752815924
 51
309.2570753542782995
  0
LINE
  5
32A2E
  8
0
 10
3083.5485933408072015
 20
12.6725284817259407
 30
0.0
 11
3083.5523392244090246
 21
12.6776933049448797
 31
0.0
  0
LINE
  5
32A2F
  8
0
 10
3083.5523392244090246
 20
12.6776933049448797
 30
0.0
 11
3083.5801566221812209
 21
12.6717816933625294
 31
0.0
  0
LINE
  5
32A30
  8
0
 10
3083.5801566221812209
 20
12.6717816933625294
 30
0.0
 11
3083.604228144073204
 21
12.6607666992215293
 31
0.0
  0
LINE
  5
32A31
  8
0
 10
3083.604228144073204
 20
12.6607666992215293
 30
0.0
 11
3083.6004822686800253
 21
12.6554948974938704
 31
0.0
  0
LINE
  5
32A32
  8
0
 10
3083.6004822686800253
 20
12.6554948974938704
 30
0.0
 11
3083.5726648709310211
 21
12.6613423553221196
 31
0.0
  0
LINE
  5
32A33
  8
0
 10
3083.5726648709310211
 20
12.6613423553221196
 30
0.0
 11
3083.5485933408072015
 21
12.6725284817259407
 31
0.0
  0
LINE
  5
32A34
  8
0
 10
3083.5556535613281994
 20
12.6769889589568994
 30
0.0
 11
3083.5534278794830243
 21
12.6741116206524893
 31
0.0
  0
ARC
  5
32A35
  8
0
 10
3083.5498445197449655
 20
12.67688102050308
 30
0.0
 40
0.0045288014464099
 50
253.9621961801811949
 51
322.3013542110701906
  0
LINE
  5
32A36
  8
0
 10
3083.5978277580329632
 20
12.6636954801707198
 30
0.0
 11
3083.5978277580329632
 21
12.6592038158712104
 31
0.0
  0
ARC
  5
32A37
  8
0
 10
3083.6021460612250848
 20
12.65949008009685
 30
0.0
 40
0.0043277811479345
 50
183.7926401497055906
 51
247.3907288230973904
  0
LINE
  5
32A38
  8
0
 10
3083.5547847184629973
 20
12.6758657279523597
 30
0.0
 11
3083.5742543979331458
 21
12.6655791290517801
 31
0.0
  0
LINE
  5
32A39
  8
0
 10
3083.5742543979331458
 20
12.6655791290517801
 30
0.0
 11
3083.5978277580329632
 21
12.6605743805677307
 31
0.0
  0
LINE
  5
32A3A
  8
0
 10
3083.5742543979331458
 20
12.6655791290517801
 30
0.0
 11
3083.5726648709310211
 21
12.6613423553221196
 31
0.0
  0
LINE
  5
32A3B
  8
0
 10
3083.6024519769580365
 20
12.6549723419281204
 30
0.0
 11
3083.6061978524330698
 21
12.6602472208517902
 31
0.0
  0
LINE
  5
32A3C
  8
0
 10
3083.6061978524330698
 20
12.6602472208517902
 30
0.0
 11
3083.6156960766011252
 21
12.6591127113350996
 31
0.0
  0
LINE
  5
32A3D
  8
0
 10
3083.6156960766011252
 20
12.6591127113350996
 30
0.0
 11
3083.6556206408331491
 21
12.6459043650517806
 31
0.0
  0
LINE
  5
32A3E
  8
0
 10
3083.6556206408331491
 20
12.6459043650517806
 30
0.0
 11
3083.6543408966640527
 21
12.6442956275661
 31
0.0
  0
LINE
  5
32A3F
  8
0
 10
3083.6543408966640527
 20
12.6442956275661
 30
0.0
 11
3083.626479525933064
 21
12.6469795623517793
 31
0.0
  0
LINE
  5
32A40
  8
0
 10
3083.626479525933064
 20
12.6469795623517793
 30
0.0
 11
3083.6024519774159671
 21
12.6549723425733802
 31
0.0
  0
ARC
  5
32A41
  8
0
 10
3083.6554837466678691
 20
12.6483416272659106
 30
0.0
 40
0.00420430965836
 50
194.3873877044719052
 51
254.2269144917628978
  0
LINE
  5
32A42
  8
0
 10
3083.609211083829905
 20
12.6598873072894893
 30
0.0
 11
3083.6066745419329891
 21
12.6564990876517793
 31
0.0
  0
ARC
  5
32A43
  8
0
 10
3083.6032054472589152
 20
12.6594910575123194
 30
0.0
 40
0.0045811026513688
 50
260.5333514488884248
 51
319.223407397178903
  0
LINE
  5
32A44
  8
0
 10
3083.5697068785111696
 20
12.6587429986877105
 30
0.0
 11
3083.573436435523945
 21
12.6608382251049694
 31
0.0
  0
LINE
  5
32A45
  8
0
 10
3083.573436435523945
 20
12.6608382251049694
 30
0.0
 11
3083.6012538321001557
 21
12.6549907676237297
 31
0.0
  0
LINE
  5
32A46
  8
0
 10
3083.6012538321001557
 20
12.6549907676237297
 30
0.0
 11
3083.6253253542390667
 21
12.6469820454503505
 31
0.0
  0
LINE
  5
32A47
  8
0
 10
3083.6253253542390667
 20
12.6469820454503505
 30
0.0
 11
3083.62157947861715
 21
12.6447165160116803
 31
0.0
  0
LINE
  5
32A48
  8
0
 10
3083.62157947861715
 20
12.6447165160116803
 30
0.0
 11
3083.5938062684331271
 21
12.6506608180517794
 31
0.0
  0
LINE
  5
32A49
  8
0
 10
3083.5938062684331271
 20
12.6506608180517794
 30
0.0
 11
3083.5697068785111696
 21
12.6587429986877105
 31
0.0
  0
LINE
  5
32A4A
  8
0
 10
3083.5756324003082227
 20
12.6603766143043703
 30
0.0
 11
3083.5737794260330702
 21
12.6593518733517794
 31
0.0
  0
ARC
  5
32A4B
  8
0
 10
3083.570965719616197
 20
12.6642474083965002
 30
0.0
 40
0.0056465216878063
 50
257.118169860072328
 51
299.8881151706287937
  0
ARC
  5
32A4C
  8
0
 10
3083.6227028012031042
 20
12.6485332464981202
 30
0.0
 40
0.0039786034284088
 50
170.9120486257253049
 51
253.6000315428329088
  0
LINE
  5
32A4D
  8
0
 10
3083.6235512827961429
 20
12.6443050526733902
 30
0.0
 11
3083.6272950623888391
 21
12.6465754219545996
 31
0.0
  0
LINE
  5
32A4E
  8
0
 10
3083.6272950623888391
 20
12.6465754219545996
 30
0.0
 11
3083.6551124602437994
 21
12.6439028612890993
 31
0.0
  0
LINE
  5
32A4F
  8
0
 10
3083.6551124602437994
 20
12.6439028612890993
 30
0.0
 11
3083.6791839821171379
 21
12.6388799040633195
 31
0.0
  0
LINE
  5
32A50
  8
0
 10
3083.6791839821171379
 20
12.6388799040633195
 30
0.0
 11
3083.6754381066730275
 21
12.6365295073992296
 31
0.0
  0
LINE
  5
32A51
  8
0
 10
3083.6754381066730275
 20
12.6365295073992296
 30
0.0
 11
3083.647662634282824
 21
12.6393157623017807
 31
0.0
  0
LINE
  5
32A52
  8
0
 10
3083.647662634282824
 20
12.6393157623017807
 30
0.0
 11
3083.6235512827961429
 21
12.6443050526733902
 31
0.0
  0
LINE
  5
32A53
  8
0
 10
3083.6293212759701419
 20
12.6463807531813401
 30
0.0
 11
3083.6274456839450977
 21
12.6452361079645907
 31
0.0
  0
ARC
  5
32A54
  8
0
 10
3083.6241569542048637
 20
12.6503819041281407
 30
0.0
 40
0.0061069600832842
 50
264.3082060682414749
 51
302.5830524029752837
  0
ARC
  5
32A55
  8
0
 10
3083.676066585128865
 20
12.6403745718225196
 30
0.0
 40
0.0038960884985992
 50
180.4588839939544869
 51
260.7170522587855999
  0
ARC
  5
32A56
  8
0
 10
3083.6565261193982224
 20
12.9650514462284594
 30
0.0
 40
0.3184169846477284
 50
247.3406978098998934
 51
252.4760522021088036
  0
ARC
  5
32A57
  8
0
 10
3083.1556885862528361
 20
11.3789096924198603
 30
0.0
 40
1.344918188365066
 50
71.04447298172812
 51
72.476052202108832
  0
ARC
  5
32A58
  8
0
 10
3083.6844196393240054
 20
13.00293491392714
 30
0.0
 40
0.3638269622809822
 50
255.3762271921297042
 51
260.1773389877035925
  0
ARC
  5
32A59
  8
0
 10
3083.7285048225057835
 20
13.0989080892792398
 30
0.0
 40
0.4666996154818781
 50
256.8526387804926117
 51
260.1577522251940877
  0
ARC
  5
32A5A
  8
0
 10
3083.5095226441248997
 20
12.6879845182511204
 30
0.0
 40
0.0046713228754372
 50
148.8064211127656051
 51
233.8726129238866065
  0
LINE
  5
32A5B
  8
0
 10
3083.5146312585329724
 20
12.6806891191331701
 30
0.0
 11
3083.5146312585329724
 21
12.6743459875790307
 31
0.0
  0
LINE
  5
32A5C
  8
0
 10
3083.5345784500009358
 20
12.67129647499425
 30
0.0
 11
3083.5194449074328986
 21
12.66953674545179
 31
0.0
  0
ARC
  5
32A5D
  8
0
 10
3083.5202304494710006
 20
12.6751366582115708
 30
0.0
 40
0.005654741303622
 50
188.0376833324579025
 51
262.0147934934192904
  0
LINE
  5
32A5E
  8
0
 10
3083.4892140506699434
 20
12.6875229618186705
 30
0.0
 11
3083.505202082175856
 21
12.6897604692229091
 31
0.0
  0
LINE
  5
32A5F
  8
0
 10
3083.5146312585329724
 20
12.67434598758053
 30
0.0
 11
3083.5246303502308365
 21
12.6759807916387004
 31
0.0
  0
LINE
  5
32A60
  8
0
 10
3083.5534800276482201
 20
12.6637693872085606
 30
0.0
 11
3083.5534800276482201
 21
12.6629248454012995
 31
0.0
  0
ARC
  5
32A61
  8
0
 10
3083.5584800276478745
 20
12.6629248454012995
 30
0.0
 40
0.005
 50
180.0
 51
256.73411361220451
  0
LINE
  5
32A62
  8
0
 10
3083.5629320584171182
 20
12.6606888027875897
 30
0.0
 11
3083.5623097596549087
 21
12.6593467582925108
 31
0.0
  0
ARC
  5
32A63
  8
0
 10
3083.5595881185709004
 20
12.6606087685189497
 30
0.0
 40
0.003
 50
256.7341136122038847
 51
335.123100617840123
  0
LINE
  5
32A64
  8
0
 10
3083.5573326762942088
 20
12.6580582670477799
 30
0.0
 11
3083.5588997077588829
 21
12.6576888215068397
 31
0.0
  0
ARC
  5
32A65
  8
0
 10
3083.5815962917890829
 20
12.6594185468847193
 30
0.0
 40
0.0063309339812006
 50
207.8158344581412962
 51
258.0323564815680015
  0
ARC
  5
32A66
  8
0
 10
3083.584476295839977
 20
12.6730056256675692
 30
0.0
 40
0.0202198912200985
 50
258.0323564815678878
 51
266.8610537995542131
  0
ARC
  5
32A67
  8
0
 10
3083.5836957452529532
 20
12.6587723449656604
 30
0.0
 40
0.0059652239578288
 50
266.8610537995542131
 51
290.7532744733032928
  0
LINE
  5
32A68
  8
0
 10
3083.6774144587329829
 20
12.6363511780517896
 30
0.0
 11
3083.6811613955878784
 21
12.6387003358610102
 31
0.0
  0
LINE
  5
32A69
  8
0
 10
3083.6811613955878784
 20
12.6387003358610102
 30
0.0
 11
3083.6906572493680869
 21
12.63859334477395
 31
0.0
  0
LINE
  5
32A6A
  8
0
 10
3083.6906572493680869
 20
12.63859334477395
 30
0.0
 11
3083.7305764787320186
 21
12.6351413845517797
 31
0.0
  0
LINE
  5
32A6B
  8
0
 10
3083.7305764787320186
 20
12.6351413845517797
 30
0.0
 11
3083.7293033811329224
 21
12.6345628308517792
 31
0.0
  0
LINE
  5
32A6C
  8
0
 10
3083.7293033811329224
 20
12.6345628308517792
 30
0.0
 11
3083.7201874450629475
 21
12.6342891786386406
 31
0.0
  0
LINE
  5
32A6D
  8
0
 10
3083.6774144587329829
 20
12.6363511780517896
 30
0.0
 11
3083.6895923555780428
 21
12.6349885480411306
 31
0.0
  0
ARC
  5
32A6E
  8
0
 10
3083.6760907176599176
 20
12.6468721366886392
 30
0.0
 40
0.0106039078204967
 50
277.1712395402158791
 51
309.4293144959830215
  0
ARC
  5
32A6F
  8
0
 10
3083.7293670498088431
 20
12.6381707442071605
 30
0.0
 40
0.0036084750906981
 50
228.9116710258757905
 51
268.9890090371911811
  0
LINE
  5
32A70
  8
0
 10
3083.6209617710319435
 20
12.7421897340074501
 30
0.0
 11
3083.6209617710319435
 21
12.7239935811509906
 31
0.0
  0
ARC
  5
32A71
  8
0
 10
3083.6270752746090693
 20
12.72505212464492
 30
0.0
 40
0.006204469381563
 50
189.8232780045287882
 51
238.2531356460796985
  0
LINE
  5
32A72
  8
0
 10
3083.6115502532961727
 20
12.7489796553690002
 30
0.0
 11
3083.6043204519328356
 21
12.7463472874517798
 31
0.0
  0
LINE
  5
32A73
  8
0
 10
3083.6043204519328356
 20
12.7463472874517798
 30
0.0
 11
3083.6115502532961727
 21
12.7470453922353393
 31
0.0
  0
ARC
  5
32A74
  8
0
 10
3083.5614543571168724
 20
12.7420955687078692
 30
0.0
 40
0.0046730659523897
 50
245.9947989147649992
 51
282.2954270087249142
  0
ARC
  5
32A75
  8
0
 10
3083.626016429469928
 20
12.4568756183425702
 30
0.0
 40
0.2877628593640361
 50
92.8815405525982243
 51
102.7619235131818982
  0
LINE
  5
32A76
  8
0
 10
3083.9404066104339108
 20
12.7154719519328907
 30
0.0
 11
3083.9372679535090356
 21
12.7060332296183596
 31
0.0
  0
LINE
  5
32A77
  8
0
 10
3083.9372679535090356
 20
12.7060332296183596
 30
0.0
 11
3083.9455708581708677
 21
12.7079216870389207
 31
0.0
  0
LINE
  5
32A78
  8
0
 10
3083.9455708581708677
 20
12.7079216870389207
 30
0.0
 11
3083.945587580623851
 21
12.7082106658948497
 31
0.0
  0
LINE
  5
32A79
  8
0
 10
3083.945587580623851
 20
12.7082106658948497
 30
0.0
 11
3083.9468684979751743
 21
12.7102714815497109
 31
0.0
  0
LINE
  5
32A7A
  8
0
 10
3083.9455708581708677
 20
12.7079216870389207
 30
0.0
 11
3083.9452122232328293
 21
12.7076084512517902
 31
0.0
  0
LINE
  5
32A9A
  8
0
 10
3084.5324663122819402
 20
10.8041025599517795
 30
0.0
 11
3084.6195324449831787
 21
10.7407229102517796
 31
0.0
  0
ARC
  5
32A9B
  8
0
 10
3084.5875607929128819
 20
10.6968026911458498
 30
0.0
 40
0.054324692197346
 50
13.6783416205060107
 51
53.9473152158085085
  0
ARC
  5
32A9C
  8
0
 10
3084.5626745843960634
 20
10.6907460527936191
 30
0.0
 40
0.0799373110113449
 50
336.3736528587419912
 51
13.6783416205060107
  0
ARC
  5
32A9D
  8
0
 10
3084.5425977157801753
 20
10.6995284176391401
 30
0.0
 40
0.1018510187238444
 50
308.9272465984051905
 51
336.3736528587419912
  0
ARC
  5
32A9E
  8
0
 10
3084.5574283658420427
 20
10.6811664657028391
 30
0.0
 40
0.0782478524071747
 50
275.9050251869450108
 51
308.9272465984051905
  0
ARC
  5
32A9F
  8
0
 10
3084.5595611302669568
 20
10.66054581905939
 30
0.0
 40
0.0575172047547849
 50
256.0019371110394104
 51
275.9050251869450108
  0
ARC
  5
32AA0
  8
0
 10
3084.559352202512855
 20
10.6597077348992801
 30
0.0
 40
0.0566534710772027
 50
241.6831080065907997
 51
256.0019371110394104
  0
ENDSEC
  0
EOF
