  0
SECTION
  2
HEADER
  9
$ACADVER
  1
AC1009
  9
$INSBASE
 10
4798.3104350601397527
 20
243.2901518053838004
 30
0.0
  9
$EXTMIN
 10
4790.9574612844762669
 20
243.0674326456114898
 30
-0.0000000349181948
  9
$EXTMAX
 10
4805.6237267934520787
 20
245.0114334782196011
 30
0.0000000814935746
  9
$LIMMIN
 10
0.0
 20
0.0
  9
$LIMMAX
 10
11.6929133858000007
 20
8.2677165353999982
  9
$ORTHOMODE
 70
     0
  9
$REGENMODE
 70
     1
  9
$FILLMODE
 70
     1
  9
$QTEXTMODE
 70
     0
  9
$MIRRTEXT
 70
     0
  9
$DRAGMODE
 70
     2
  9
$LTSCALE
 40
0.6431102362
  9
$OSMODE
 70
  4095
  9
$ATTMODE
 70
     1
  9
$TEXTSIZE
 40
0.2
  9
$TRACEWID
 40
0.05
  9
$TEXTSTYLE
  7
STANDARD
  9
$CLAYER
  8
0
  9
$CELTYPE
  6
BYLAYER
  9
$CECOLOR
 62
   256
  9
$DIMSCALE
 40
1.0
  9
$DIMASZ
 40
0.1875
  9
$DIMEXO
 40
0.0625
  9
$DIMDLI
 40
0.4443307087
  9
$DIMRND
 40
0.0
  9
$DIMDLE
 40
0.0
  9
$DIMEXE
 40
0.125
  9
$DIMTP
 40
0.01
  9
$DIMTM
 40
0.01
  9
$DIMTXT
 40
2.0
  9
$DIMCEN
 40
0.1052362205
  9
$DIMTSZ
 40
0.0
  9
$DIMTOL
 70
     1
  9
$DIMLIM
 70
     0
  9
$DIMTIH
 70
     1
  9
$DIMTOH
 70
     1
  9
$DIMSE1
 70
     0
  9
$DIMSE2
 70
     0
  9
$DIMTAD
 70
     0
  9
$DIMZIN
 70
     0
  9
$DIMBLK
  1

  9
$DIMASO
 70
     1
  9
$DIMSHO
 70
     1
  9
$DIMPOST
  1
\X
  9
$DIMAPOST
  1

  9
$DIMALT
 70
     1
  9
$DIMALTD
 70
     2
  9
$DIMALTF
 40
25.3999999999999986
  9
$DIMLFAC
 40
1.0
  9
$DIMTOFL
 70
     0
  9
$DIMTVP
 40
0.0
  9
$DIMTIX
 70
     0
  9
$DIMSOXD
 70
     0
  9
$DIMSAH
 70
     0
  9
$DIMBLK1
  1

  9
$DIMBLK2
  1

  9
$DIMSTYLE
  2
STANDARD
  9
$DIMCLRD
 70
     0
  9
$DIMCLRE
 70
     0
  9
$DIMCLRT
 70
     0
  9
$DIMTFAC
 40
1.0
  9
$DIMGAP
 40
0.09
  9
$LUNITS
 70
     2
  9
$LUPREC
 70
     4
  9
$SKETCHINC
 40
0.1
  9
$FILLETRAD
 40
0.0
  9
$AUNITS
 70
     0
  9
$AUPREC
 70
     0
  9
$MENU
  1
.
  9
$ELEVATION
 40
0.0
  9
$PELEVATION
 40
0.0
  9
$THICKNESS
 40
0.0
  9
$LIMCHECK
 70
     0
  9
$BLIPMODE
 70
     0
  9
$CHAMFERA
 40
0.0
  9
$CHAMFERB
 40
0.0
  9
$SKPOLY
 70
     0
  9
$TDCREATE
 40
2458060.468368056230247
  9
$TDUPDATE
 40
2460146.3992592599242926
  9
$TDINDWG
 40
0.3641737269
  9
$TDUSRTIMER
 40
0.3641737269
  9
$USRTIMER
 70
     1
  9
$ANGBASE
 50
0.0
  9
$ANGDIR
 70
     0
  9
$PDMODE
 70
     0
  9
$PDSIZE
 40
0.3125
  9
$PLINEWID
 40
0.0
  9
$COORDS
 70
     1
  9
$SPLFRAME
 70
     0
  9
$SPLINETYPE
 70
     6
  9
$SPLINESEGS
 70
     8
  9
$ATTDIA
 70
     1
  9
$ATTREQ
 70
     1
  9
$HANDLING
 70
     1
  9
$HANDSEED
  5
D3F9
  9
$SURFTAB1
 70
     6
  9
$SURFTAB2
 70
     6
  9
$SURFTYPE
 70
     6
  9
$SURFU
 70
     6
  9
$SURFV
 70
     6
  9
$UCSNAME
  2

  9
$UCSORG
 10
0.0
 20
0.0
 30
0.0
  9
$UCSXDIR
 10
1.0
 20
0.0
 30
0.0
  9
$UCSYDIR
 10
0.0
 20
1.0
 30
0.0
  9
$PUCSNAME
  2

  9
$PUCSORG
 10
0.0
 20
0.0
 30
0.0
  9
$PUCSXDIR
 10
1.0
 20
0.0
 30
0.0
  9
$PUCSYDIR
 10
0.0
 20
1.0
 30
0.0
  9
$USERI1
 70
     0
  9
$USERI2
 70
     0
  9
$USERI3
 70
     0
  9
$USERI4
 70
     0
  9
$USERI5
 70
     0
  9
$USERR1
 40
0.0
  9
$USERR2
 40
0.0
  9
$USERR3
 40
0.0
  9
$USERR4
 40
0.0
  9
$USERR5
 40
0.0
  9
$WORLDVIEW
 70
     1
  9
$SHADEDGE
 70
     3
  9
$SHADEDIF
 70
    70
  9
$TILEMODE
 70
     1
  9
$MAXACTVP
 70
    64
  9
$PLIMCHECK
 70
     0
  9
$PEXTMIN
 10
1.0000000000000000E+20
 20
1.0000000000000000E+20
 30
1.0000000000000000E+20
  9
$PEXTMAX
 10
-1.0000000000000000E+20
 20
-1.0000000000000000E+20
 30
-1.0000000000000000E+20
  9
$PLIMMIN
 10
0.0
 20
0.0
  9
$PLIMMAX
 10
12.0
 20
9.0
  9
$UNITMODE
 70
     0
  9
$VISRETAIN
 70
     1
  9
$PLINEGEN
 70
     0
  9
$PSLTSCALE
 70
     1
  0
ENDSEC
  0
SECTION
  2
TABLES
  0
TABLE
  2
VPORT
 70
     1
  0
VPORT
  2
*ACTIVE
 70
     0
 10
0.0
 20
0.0
 11
1.0
 21
1.0
 12
30.0217952108396311
 22
3.5863385794936549
 13
0.0
 23
0.0
 14
1.0
 24
1.0
 15
0.0
 25
0.0
 16
0.0
 26
0.0
 36
34.8321326485977565
 17
4768.268798828125
 27
240.4530944824219034
 37
0.0
 40
10.3056559508440202
 41
1.4307692307692299
 42
50.0
 43
0.0
 44
0.0
 50
0.0
 51
0.0
 71
     0
 72
   100
 73
     1
 74
     1
 75
     0
 76
     0
 77
     0
 78
     0
  0
ENDTAB
  0
TABLE
  2
LTYPE
 70
     2
  0
LTYPE
  2
CONTINUOUS
 70
     0
  3
Solid line
 72
    65
 73
     0
 40
0.0
  0
LTYPE
  2
PHANTOM2
 70
     0
  3
___ _ _ ___ _ _ ___ _ _ ___ _ _
 72
    65
 73
     6
 40
1.25
 49
0.625
 49
-0.125
 49
0.125
 49
-0.125
 49
0.125
 49
-0.125
  0
ENDTAB
  0
TABLE
  2
LAYER
 70
     2
  0
LAYER
  2
0
 70
     0
 62
   255
  6
CONTINUOUS
  0
LAYER
  2
DEFPOINTS
 70
     0
 62
     7
  6
CONTINUOUS
  0
ENDTAB
  0
TABLE
  2
STYLE
 70
     1
  0
STYLE
  2
STANDARD
 70
     0
 40
0.0
 41
0.8
 50
0.0
 71
     0
 42
0.2
  3
txt
  4

  0
ENDTAB
  0
TABLE
  2
VIEW
 70
     0
  0
ENDTAB
  0
TABLE
  2
UCS
 70
     0
  0
ENDTAB
  0
TABLE
  2
APPID
 70
     9
  0
APPID
  2
ACAD
 70
     0
  0
APPID
  2
ACAD_MLEADERVER
 70
     0
  0
APPID
  2
ACAD_EXEMPT_FROM_CAD_STANDARDS
 70
     0
  0
APPID
  2
ACAD_NAV_VCDISPLAY
 70
     0
  0
APPID
  2
ACAECLAYERSTANDARD
 70
     0
  0
APPID
  2
ACCMTRANSPARENCY
 70
     0
  0
APPID
  2
ACAD_DSTYLE_DIMJAG
 70
     0
  0
APPID
  2
ACAD_DSTYLE_DIMTALN
 70
     0
  0
APPID
  2
ACDBATTR
 70
     0
  0
ENDTAB
  0
TABLE
  2
DIMSTYLE
 70
     1
  0
DIMSTYLE
  2
STANDARD
 70
     0
  3

  4

  5

  6

  7

 40
1.0
 41
0.1875
 42
0.0625
 43
0.38
 44
0.125
 45
0.0
 46
0.0
 47
0.01
 48
0.01
140
0.15625
141
0.09
142
0.0
143
25.3999999999999986
144
1.0
145
0.0
146
1.0
147
0.09
 71
     1
 72
     0
 73
     1
 74
     1
 75
     0
 76
     0
 77
     0
 78
     4
170
     0
171
     2
172
     0
173
     0
174
     0
175
     0
176
     0
177
     0
178
     0
  0
ENDTAB
  0
ENDSEC
  0
SECTION
  2
BLOCKS
  0
BLOCK
  8
0
  2
$MODEL_SPACE
 70
     0
 10
0.0
 20
0.0
 30
0.0
  3
$MODEL_SPACE
  1

  0
ENDBLK
  5
21
  8
0
  0
BLOCK
 67
     1
  8
0
  2
$PAPER_SPACE
 70
     0
 10
0.0
 20
0.0
 30
0.0
  3
$PAPER_SPACE
  1

  0
ENDBLK
  5
1D
 67
     1
  8
0
  0
ENDSEC
  0
SECTION
  2
ENTITIES
  0
ATTDEF
  5
3930
  8
DEFPOINTS
 10
4798.3069505724843111
 20
243.2943711404774092
 30
0.0
 40
0.001
  1
K-29198K
  3

  2
MODELNUMBER
 70
     0
1001
ACDBATTR
1070
     0
1070
     1
  0
ATTDEF
  5
3931
  8
DEFPOINTS
 10
4798.3069505724843111
 20
243.2927044738108009
 30
0.0
 40
0.001
  1
SPAN
  3

  2
TRADENAME
 70
     0
1001
ACDBATTR
1070
     0
1070
     1
  0
ATTDEF
  5
3932
  8
DEFPOINTS
 10
4798.3069505724843111
 20
243.2910378071441073
 30
0.0
 40
0.001
  1
TOILET SEAT
  3

  2
PRODUCT
 70
     0
1001
ACDBATTR
1070
     0
1070
     1
  0
LINE
  5
D29B
  8
0
 10
4805.4546862776187481
 20
243.5657454463838008
 30
0.0
 11
4791.1661838426607574
 21
243.5657454463838008
 31
0.0
  0
LINE
  5
D29C
  8
0
 10
4796.3470828936897306
 20
244.9962007373171957
 30
0.0
 11
4800.2737872265906844
 21
244.9962007373171957
 31
0.0
  0
LINE
  5
D29D
  8
0
 10
4798.3104350601397527
 20
243.0850434889065923
 30
0.0
 11
4796.7002655609840076
 21
243.0850434889065923
 31
0.0
  0
LINE
  5
D29E
  8
0
 10
4791.1268993444318767
 20
243.6081601103468017
 30
0.0
 11
4791.2153576476903254
 21
244.7608723530337898
 31
0.0
  0
ARC
  5
D29F
  8
0
 10
4792.5341718140889498
 20
236.3582427055029882
 30
0.0
 40
8.5482975845517331
 50
91.8667320277158979
 51
98.5635621629372025
  0
ARC
  5
D2A0
  8
0
 10
4801.2570802829895911
 20
-31.2800578380790206
 30
0.0
 40
276.3287095829156783
 50
91.3683904974652563
 51
91.8667320277158979
  0
ARC
  5
D2A1
  8
0
 10
4798.9677237061459891
 20
22.9147475672575105
 30
0.0
 40
222.0969148826551134
 50
90.6760793715499744
 51
91.1118329240993319
  0
ARC
  5
D2A2
  8
0
 10
4791.2742652726519736
 20
244.7532809811937113
 30
0.0
 40
0.0593947573870148
 50
102.633608036702995
 51
172.6568167440022989
  0
ARC
  5
D2A3
  8
0
 10
4791.1661838426607574
 20
243.6051454463838013
 30
0.0
 40
0.0394
 50
175.6117638463173876
 51
270.0
  0
LINE
  5
D2A4
  8
0
 10
4794.9410135426196575
 20
244.6306415912108037
 30
0.0
 11
4801.679856577661667
 21
244.6306415912108037
 31
0.0
  0
ARC
  5
D2A5
  8
0
 10
4795.8003725334110641
 20
478.2009683157488098
 30
0.0
 40
233.5719076089469866
 50
269.1075636097473875
 51
269.7891965911160241
  0
ARC
  5
D2A6
  8
0
 10
4792.3417511447059951
 20
270.8546836939602258
 30
0.0
 40
26.1979039098819406
 50
267.7401842317174214
 51
269.6077810893982019
  0
ARC
  5
D2A7
  8
0
 10
4791.3150936606061805
 20
245.0383474489723028
 30
0.0
 40
0.361249292657154
 50
257.857055781852921
 51
268.9924793058997921
  0
ARC
  5
D2A8
  8
0
 10
4791.2519501670076352
 20
244.7448827022244018
 30
0.0
 40
0.0610682500052711
 50
227.4791081413945051
 51
257.857055781852921
  0
ARC
  5
D2A9
  8
0
 10
4794.5984774241487685
 20
245.4904266905793122
 30
0.0
 40
2.3137319897812541
 50
257.2187494541403794
 51
265.3176549221232108
  0
ARC
  5
D2AA
  8
0
 10
4796.1528020863197526
 20
264.4676481652820144
 30
0.0
 40
21.3545003580837083
 50
265.3176549221232108
 51
268.0643445829446136
  0
ARC
  5
D2AB
  8
0
 10
4805.944569281637996
 20
554.195599909133648
 30
0.0
 40
311.247868213395293
 50
268.0643445829446136
 51
268.2980205015206252
  0
ARC
  5
D2AC
  8
0
 10
4794.1638473009143127
 20
243.5500179848573055
 30
0.0
 40
0.3252952314260572
 50
232.4721506886311886
 51
256.2649994660541211
  0
ARC
  5
D2AD
  8
0
 10
4794.2544732268670487
 20
243.6680052023185112
 30
0.0
 40
0.4740703702734482
 50
212.2224041563395929
 51
232.4721506886311886
  0
LINE
  5
D2AE
  8
0
 10
4793.6550151688279584
 20
243.5563059358798057
 30
0.0
 11
4793.6550151688279584
 21
243.2901518053838004
 31
0.0
  0
LINE
  5
D2AF
  8
0
 10
4793.6550151688279584
 20
243.2901518053838004
 30
0.0
 11
4793.9681777929308737
 21
243.2901518053838004
 31
0.0
  0
ARC
  5
D2B0
  8
0
 10
4793.4763424297561869
 20
243.0949868118179893
 30
0.0
 40
0.4947113116883592
 50
40.3404780819841378
 51
72.0977840183406471
  0
LINE
  5
D2B1
  8
0
 10
4793.7593913673899806
 20
243.2901518053838004
 30
0.0
 11
4793.7592539363904507
 21
243.2744037738837903
 31
0.0
  0
LINE
  5
D2B2
  8
0
 10
4793.7592539363904507
 20
243.2744037738837903
 30
0.0
 11
4793.9910647951492138
 21
243.2744037738837903
 31
0.0
  0
ARC
  5
D2B3
  8
0
 10
4794.1629760950909258
 20
243.422246460745697
 30
0.0
 40
0.2012394556335618
 50
230.3793340940476924
 51
252.0028979732686878
  0
ARC
  5
D2B4
  8
0
 10
4794.0937841906588801
 20
243.3052548604997867
 30
0.0
 40
0.0703058346587641
 50
142.2531439582180894
 51
212.7365576186780913
  0
ARC
  5
D2B5
  8
0
 10
4794.3378862551380735
 20
242.927759348366493
 30
0.0
 40
0.5163975346780357
 50
100.6007172345600935
 51
125.4756002079465986
  0
ARC
  5
D2B6
  8
0
 10
4795.4451362844602045
 20
235.0837636537945912
 30
0.0
 40
8.4376707686286956
 50
91.6215781035730714
 51
98.1917153628094326
  0
ARC
  5
D2B7
  8
0
 10
4804.9020182490703519
 20
-53.609085255471939
 30
0.0
 40
297.2852895251857035
 50
91.5619408191505642
 51
91.8689739722706946
  0
LINE
  5
D2B8
  8
0
 10
4792.7861239336898507
 20
243.2876667176838055
 30
0.0
 11
4793.1758300947485623
 21
243.2876667176838055
 31
0.0
  0
LINE
  5
D2B9
  8
0
 10
4793.6298065974888232
 20
243.5066872610838118
 30
0.0
 11
4793.6303165856288615
 21
243.5651264094225894
 31
0.0
  0
ARC
  5
D2BA
  8
0
 10
4793.2432840250503432
 20
243.775431694856195
 30
0.0
 40
0.4763170977711001
 50
282.948577288455283
 51
323.3249870152357062
  0
ARC
  5
D2BB
  8
0
 10
4793.1346155084702332
 20
244.2480616224524965
 30
0.0
 40
0.9612788436389877
 50
272.45729523864469
 51
282.948577288455283
  0
ARC
  5
D2BC
  8
0
 10
4793.6061483364246669
 20
243.5049294321090088
 30
0.0
 40
0.0237234752791889
 50
323.8627710437241944
 51
4.2493171457378338
  0
LINE
  5
D2BD
  8
0
 10
4792.2962253858277109
 20
243.50730320814489
 30
0.0
 11
4792.295715397690401
 21
243.5657423564836961
 31
0.0
  0
ARC
  5
D2BE
  8
0
 10
4792.6827479582689193
 20
243.776047641917387
 30
0.0
 40
0.4763170977711001
 50
216.6750129847642086
 51
257.051422711544717
  0
ARC
  5
D2BF
  8
0
 10
4792.7882701636071943
 20
244.2314086688672035
 30
0.0
 40
0.9437443916264115
 50
257.0026565682788942
 51
269.8696998644617793
  0
ARC
  5
D2C0
  8
0
 10
4792.3198836468936861
 20
243.505545379170087
 30
0.0
 40
0.0237234752791889
 50
175.7506828542620951
 51
216.1372289562756919
  0
ARC
  5
D2C1
  8
0
 10
4792.0467043081398515
 20
243.8670564553733016
 30
0.0
 40
0.5121900285254049
 50
218.2454980565142932
 51
261.1614959926785104
  0
LINE
  5
D2C2
  8
0
 10
4792.4791667723629871
 20
243.3454286939204962
 30
0.0
 11
4792.1312999247365951
 21
243.3454286939204962
 31
0.0
  0
ARC
  5
D2C3
  8
0
 10
4792.2082745752932169
 20
245.0221432275652091
 30
0.0
 40
1.6784804807216951
 50
261.7700515029280268
 51
267.371509514707725
  0
ARC
  5
D2C4
  8
0
 10
4791.6595144627681293
 20
243.5640931315803073
 30
0.0
 40
0.0206343934956461
 50
175.4070793922685993
 51
223.0995362103182913
  0
LINE
  5
D2C6
  8
0
 10
4798.3104350601397527
 20
243.0850434889065923
 30
0.0
 11
4799.9206045592964074
 21
243.0850434889065923
 31
0.0
  0
LINE
  5
D2C7
  8
0
 10
4805.4939707758494478
 20
243.6081601103468017
 30
0.0
 11
4805.4055124725900896
 21
244.7608723530337898
 31
0.0
  0
ARC
  5
D2C8
  8
0
 10
4804.0866983061896462
 20
236.3582427055029882
 30
0.0
 40
8.5482975845517331
 50
81.4364378370627833
 51
88.1332679722841164
  0
ARC
  5
D2C9
  8
0
 10
4795.3637898372908239
 20
-31.2800578380790206
 30
0.0
 40
276.3287095829156783
 50
88.1332679722841164
 51
88.6316095025347863
  0
ARC
  5
D2CA
  8
0
 10
4797.6531464141344259
 20
22.9147475672575105
 30
0.0
 40
222.0969148826551134
 50
88.8881670759006823
 51
89.3239206284500256
  0
ARC
  5
D2CB
  8
0
 10
4805.3466048476284413
 20
244.7532809811937113
 30
0.0
 40
0.0593947573870148
 50
7.3431832559976531
 51
77.3663919632969908
  0
ARC
  5
D2CC
  8
0
 10
4805.4546862776187481
 20
243.6051454463838013
 30
0.0
 40
0.0394
 50
270.0
 51
4.3882361536825858
  0
ARC
  5
D2CD
  8
0
 10
4800.8204975868693509
 20
478.2009683157488098
 30
0.0
 40
233.5719076089469866
 50
270.2108034088839759
 51
270.8924363902526125
  0
ARC
  5
D2CE
  8
0
 10
4804.2791189755753294
 20
270.8546836939602258
 30
0.0
 40
26.1979039098819406
 50
270.3922189106016845
 51
272.2598157682825217
  0
ARC
  5
D2CF
  8
0
 10
4805.3057764596742345
 20
245.0383474489723028
 30
0.0
 40
0.361249292657154
 50
271.0075206941002079
 51
282.142944218147079
  0
ARC
  5
D2D0
  8
0
 10
4805.3689199532727798
 20
244.7448827022244018
 30
0.0
 40
0.0610682500052711
 50
282.142944218147079
 51
312.5208918586054097
  0
ARC
  5
D2D1
  8
0
 10
4802.0223926961298275
 20
245.4904266905793122
 30
0.0
 40
2.3137319897812541
 50
274.6823450778767892
 51
282.7812505458592227
  0
ARC
  5
D2D2
  8
0
 10
4800.4680680339606624
 20
264.4676481652820144
 30
0.0
 40
21.3545003580837083
 50
271.9356554170553864
 51
274.6823450778767892
  0
ARC
  5
D2D3
  8
0
 10
4790.6763008386433285
 20
554.195599909133648
 30
0.0
 40
311.247868213395293
 50
271.7019794984793748
 51
271.9356554170553864
  0
ARC
  5
D2D4
  8
0
 10
4802.4570228193661023
 20
243.5500179848573055
 30
0.0
 40
0.3252952314260572
 50
283.7350005339458789
 51
307.5278493113688114
  0
ARC
  5
D2D5
  8
0
 10
4802.3663968934142758
 20
243.6680052023185112
 30
0.0
 40
0.4740703702734482
 50
307.5278493113688114
 51
327.7775958436603787
  0
LINE
  5
D2D6
  8
0
 10
4802.9658549514515471
 20
243.5563059358798057
 30
0.0
 11
4802.9658549514515471
 21
243.2901518053838004
 31
0.0
  0
LINE
  5
D2D7
  8
0
 10
4802.9658549514515471
 20
243.2901518053838004
 30
0.0
 11
4802.6526923273486318
 21
243.2901518053838004
 31
0.0
  0
ARC
  5
D2D8
  8
0
 10
4803.1445276905242281
 20
243.0949868118179893
 30
0.0
 40
0.4947113116883592
 50
107.9022159816592961
 51
139.6595219180157983
  0
LINE
  5
D2D9
  8
0
 10
4802.8614787528913439
 20
243.2901518053838004
 30
0.0
 11
4802.8616161838890548
 21
243.2744037738837903
 31
0.0
  0
LINE
  5
D2DA
  8
0
 10
4802.8616161838890548
 20
243.2744037738837903
 30
0.0
 11
4802.6298053251302917
 21
243.2744037738837903
 31
0.0
  0
ARC
  5
D2DB
  8
0
 10
4802.4578940251903987
 20
243.422246460745697
 30
0.0
 40
0.2012394556335618
 50
287.9971020267312269
 51
309.620665905952194
  0
ARC
  5
D2DC
  8
0
 10
4802.5270859296224444
 20
243.3052548604997867
 30
0.0
 40
0.0703058346587641
 50
327.2634423813219087
 51
37.7468560417818892
  0
ARC
  5
D2DD
  8
0
 10
4802.282983865143251
 20
242.927759348366493
 30
0.0
 40
0.5163975346780357
 50
54.5243997920534369
 51
79.3992827654398923
  0
ARC
  5
D2DE
  8
0
 10
4801.1757338358202105
 20
235.0837636537945912
 30
0.0
 40
8.4376707686286956
 50
81.8082846371905674
 51
88.378421896426957
  0
ARC
  5
D2DF
  8
0
 10
4791.7188518712100631
 20
-53.609085255471939
 30
0.0
 40
297.2852895251857035
 50
88.1310260277293196
 51
88.4380591808494358
  0
LINE
  5
D2E0
  8
0
 10
4803.8347461865896548
 20
243.2876667176838055
 30
0.0
 11
4803.4450400255318527
 21
243.2876667176838055
 31
0.0
  0
LINE
  5
D2E1
  8
0
 10
4802.9910635227897728
 20
243.5066872610838118
 30
0.0
 11
4802.9905535346515535
 21
243.5651264094225894
 31
0.0
  0
ARC
  5
D2E2
  8
0
 10
4803.3775860952309813
 20
243.775431694856195
 30
0.0
 40
0.4763170977711001
 50
216.6750129847642086
 51
257.051422711544717
  0
ARC
  5
D2E3
  8
0
 10
4803.4862546118110913
 20
244.2480616224524965
 30
0.0
 40
0.9612788436389877
 50
257.051422711544717
 51
267.54270476135531
  0
ARC
  5
D2E4
  8
0
 10
4803.0147217838548386
 20
243.5049294321090088
 30
0.0
 40
0.0237234752791889
 50
175.7506828542620951
 51
216.1372289562756919
  0
LINE
  5
D2E5
  8
0
 10
4804.3246447344517946
 20
243.50730320814489
 30
0.0
 11
4804.325154722590014
 21
243.5657423564836961
 31
0.0
  0
ARC
  5
D2E6
  8
0
 10
4803.9381221620096767
 20
243.776047641917387
 30
0.0
 40
0.4763170977711001
 50
282.948577288455283
 51
323.3249870152357062
  0
ARC
  5
D2E7
  8
0
 10
4803.8325999566732207
 20
244.2314086688672035
 30
0.0
 40
0.9437443916264115
 50
270.1303001355382207
 51
282.9973434317209922
  0
ARC
  5
D2E8
  8
0
 10
4804.3009864733858194
 20
243.505545379170087
 30
0.0
 40
0.0237234752791889
 50
323.8627710437241944
 51
4.2493171457378338
  0
ARC
  5
D2E9
  8
0
 10
4804.5741658121405635
 20
243.8670564553733016
 30
0.0
 40
0.5121900285254049
 50
278.8385040073213759
 51
321.7545019434857068
  0
LINE
  5
D2EA
  8
0
 10
4804.1417033479183374
 20
243.3454286939204962
 30
0.0
 11
4804.4895701955429104
 21
243.3454286939204962
 31
0.0
  0
ARC
  5
D2EB
  8
0
 10
4804.4125955449871981
 20
245.0221432275652091
 30
0.0
 40
1.6784804807216951
 50
272.628490485292275
 51
278.2299484970719732
  0
ARC
  5
D2EC
  8
0
 10
4804.9613556575122857
 20
243.5640931315803073
 30
0.0
 40
0.0206343934956461
 50
316.9004637896816803
 51
4.5929206077313882
  0
ENDSEC
  0
EOF
