  0
SECTION
  2
HEADER
  9
$ACADVER
  1
AC1009
  9
$INSBASE
 10
4805.9999944501378195
 20
253.3344015712960129
 30
0.0
  9
$EXTMIN
 10
4798.6156413607568538
 20
234.7799462432591895
 30
-0.0000000349181948
  9
$EXTMAX
 10
4813.3053503887422266
 20
253.3356527162472105
 30
0.0000000814935746
  9
$LIMMIN
 10
0.0
 20
0.0
  9
$LIMMAX
 10
11.6929133858000007
 20
8.2677165353999982
  9
$ORTHOMODE
 70
     0
  9
$REGENMODE
 70
     1
  9
$FILLMODE
 70
     1
  9
$QTEXTMODE
 70
     0
  9
$MIRRTEXT
 70
     0
  9
$DRAGMODE
 70
     2
  9
$LTSCALE
 40
0.6431102362
  9
$OSMODE
 70
  4095
  9
$ATTMODE
 70
     1
  9
$TEXTSIZE
 40
0.2
  9
$TRACEWID
 40
0.05
  9
$TEXTSTYLE
  7
STANDARD
  9
$CLAYER
  8
0
  9
$CELTYPE
  6
BYLAYER
  9
$CECOLOR
 62
   256
  9
$DIMSCALE
 40
1.0
  9
$DIMASZ
 40
0.1875
  9
$DIMEXO
 40
0.0625
  9
$DIMDLI
 40
0.4443307087
  9
$DIMRND
 40
0.0
  9
$DIMDLE
 40
0.0
  9
$DIMEXE
 40
0.125
  9
$DIMTP
 40
0.01
  9
$DIMTM
 40
0.01
  9
$DIMTXT
 40
2.0
  9
$DIMCEN
 40
0.1052362205
  9
$DIMTSZ
 40
0.0
  9
$DIMTOL
 70
     1
  9
$DIMLIM
 70
     0
  9
$DIMTIH
 70
     1
  9
$DIMTOH
 70
     1
  9
$DIMSE1
 70
     0
  9
$DIMSE2
 70
     0
  9
$DIMTAD
 70
     0
  9
$DIMZIN
 70
     0
  9
$DIMBLK
  1

  9
$DIMASO
 70
     1
  9
$DIMSHO
 70
     1
  9
$DIMPOST
  1
\X
  9
$DIMAPOST
  1

  9
$DIMALT
 70
     1
  9
$DIMALTD
 70
     2
  9
$DIMALTF
 40
25.3999999999999986
  9
$DIMLFAC
 40
1.0
  9
$DIMTOFL
 70
     0
  9
$DIMTVP
 40
0.0
  9
$DIMTIX
 70
     0
  9
$DIMSOXD
 70
     0
  9
$DIMSAH
 70
     0
  9
$DIMBLK1
  1

  9
$DIMBLK2
  1

  9
$DIMSTYLE
  2
STANDARD
  9
$DIMCLRD
 70
     0
  9
$DIMCLRE
 70
     0
  9
$DIMCLRT
 70
     0
  9
$DIMTFAC
 40
1.0
  9
$DIMGAP
 40
0.09
  9
$LUNITS
 70
     2
  9
$LUPREC
 70
     4
  9
$SKETCHINC
 40
0.1
  9
$FILLETRAD
 40
0.0
  9
$AUNITS
 70
     0
  9
$AUPREC
 70
     0
  9
$MENU
  1
.
  9
$ELEVATION
 40
0.0
  9
$PELEVATION
 40
0.0
  9
$THICKNESS
 40
0.0
  9
$LIMCHECK
 70
     0
  9
$BLIPMODE
 70
     0
  9
$CHAMFERA
 40
0.0
  9
$CHAMFERB
 40
0.0
  9
$SKPOLY
 70
     0
  9
$TDCREATE
 40
2458060.468368056230247
  9
$TDUPDATE
 40
2460146.3991782409138978
  9
$TDINDWG
 40
0.3635371528
  9
$TDUSRTIMER
 40
0.3635371528
  9
$USRTIMER
 70
     1
  9
$ANGBASE
 50
0.0
  9
$ANGDIR
 70
     0
  9
$PDMODE
 70
     0
  9
$PDSIZE
 40
0.3125
  9
$PLINEWID
 40
0.0
  9
$COORDS
 70
     1
  9
$SPLFRAME
 70
     0
  9
$SPLINETYPE
 70
     6
  9
$SPLINESEGS
 70
     8
  9
$ATTDIA
 70
     1
  9
$ATTREQ
 70
     1
  9
$HANDLING
 70
     1
  9
$HANDSEED
  5
D3BB
  9
$SURFTAB1
 70
     6
  9
$SURFTAB2
 70
     6
  9
$SURFTYPE
 70
     6
  9
$SURFU
 70
     6
  9
$SURFV
 70
     6
  9
$UCSNAME
  2

  9
$UCSORG
 10
0.0
 20
0.0
 30
0.0
  9
$UCSXDIR
 10
1.0
 20
0.0
 30
0.0
  9
$UCSYDIR
 10
0.0
 20
1.0
 30
0.0
  9
$PUCSNAME
  2

  9
$PUCSORG
 10
0.0
 20
0.0
 30
0.0
  9
$PUCSXDIR
 10
1.0
 20
0.0
 30
0.0
  9
$PUCSYDIR
 10
0.0
 20
1.0
 30
0.0
  9
$USERI1
 70
     0
  9
$USERI2
 70
     0
  9
$USERI3
 70
     0
  9
$USERI4
 70
     0
  9
$USERI5
 70
     0
  9
$USERR1
 40
0.0
  9
$USERR2
 40
0.0
  9
$USERR3
 40
0.0
  9
$USERR4
 40
0.0
  9
$USERR5
 40
0.0
  9
$WORLDVIEW
 70
     1
  9
$SHADEDGE
 70
     3
  9
$SHADEDIF
 70
    70
  9
$TILEMODE
 70
     1
  9
$MAXACTVP
 70
    64
  9
$PLIMCHECK
 70
     0
  9
$PEXTMIN
 10
1.0000000000000000E+20
 20
1.0000000000000000E+20
 30
1.0000000000000000E+20
  9
$PEXTMAX
 10
-1.0000000000000000E+20
 20
-1.0000000000000000E+20
 30
-1.0000000000000000E+20
  9
$PLIMMIN
 10
0.0
 20
0.0
  9
$PLIMMAX
 10
12.0
 20
9.0
  9
$UNITMODE
 70
     0
  9
$VISRETAIN
 70
     1
  9
$PLINEGEN
 70
     0
  9
$PSLTSCALE
 70
     1
  0
ENDSEC
  0
SECTION
  2
TABLES
  0
TABLE
  2
VPORT
 70
     1
  0
VPORT
  2
*ACTIVE
 70
     0
 10
0.0
 20
0.0
 11
1.0
 21
1.0
 12
37.6916970466245402
 22
3.6047049973313379
 13
0.0
 23
0.0
 14
1.0
 24
1.0
 15
0.0
 25
0.0
 16
0.0
 26
0.0
 36
34.8321326485977565
 17
4768.268798828125
 27
240.4530944824219034
 37
0.0
 40
18.6982599158021792
 41
1.4307692307692299
 42
50.0
 43
0.0
 44
0.0
 50
0.0
 51
0.0
 71
     0
 72
   100
 73
     1
 74
     1
 75
     0
 76
     0
 77
     0
 78
     0
  0
ENDTAB
  0
TABLE
  2
LTYPE
 70
     2
  0
LTYPE
  2
CONTINUOUS
 70
     0
  3
Solid line
 72
    65
 73
     0
 40
0.0
  0
LTYPE
  2
PHANTOM2
 70
     0
  3
___ _ _ ___ _ _ ___ _ _ ___ _ _
 72
    65
 73
     6
 40
1.25
 49
0.625
 49
-0.125
 49
0.125
 49
-0.125
 49
0.125
 49
-0.125
  0
ENDTAB
  0
TABLE
  2
LAYER
 70
     2
  0
LAYER
  2
0
 70
     0
 62
   255
  6
CONTINUOUS
  0
LAYER
  2
DEFPOINTS
 70
     0
 62
     7
  6
CONTINUOUS
  0
ENDTAB
  0
TABLE
  2
STYLE
 70
     1
  0
STYLE
  2
STANDARD
 70
     0
 40
0.0
 41
0.8
 50
0.0
 71
     0
 42
0.2
  3
txt
  4

  0
ENDTAB
  0
TABLE
  2
VIEW
 70
     0
  0
ENDTAB
  0
TABLE
  2
UCS
 70
     0
  0
ENDTAB
  0
TABLE
  2
APPID
 70
     9
  0
APPID
  2
ACAD
 70
     0
  0
APPID
  2
ACAD_MLEADERVER
 70
     0
  0
APPID
  2
ACAD_EXEMPT_FROM_CAD_STANDARDS
 70
     0
  0
APPID
  2
ACAD_NAV_VCDISPLAY
 70
     0
  0
APPID
  2
ACAECLAYERSTANDARD
 70
     0
  0
APPID
  2
ACCMTRANSPARENCY
 70
     0
  0
APPID
  2
ACAD_DSTYLE_DIMJAG
 70
     0
  0
APPID
  2
ACAD_DSTYLE_DIMTALN
 70
     0
  0
APPID
  2
ACDBATTR
 70
     0
  0
ENDTAB
  0
TABLE
  2
DIMSTYLE
 70
     1
  0
DIMSTYLE
  2
STANDARD
 70
     0
  3

  4

  5

  6

  7

 40
1.0
 41
0.1875
 42
0.0625
 43
0.38
 44
0.125
 45
0.0
 46
0.0
 47
0.01
 48
0.01
140
0.15625
141
0.09
142
0.0
143
25.3999999999999986
144
1.0
145
0.0
146
1.0
147
0.09
 71
     1
 72
     0
 73
     1
 74
     1
 75
     0
 76
     0
 77
     0
 78
     4
170
     0
171
     2
172
     0
173
     0
174
     0
175
     0
176
     0
177
     0
178
     0
  0
ENDTAB
  0
ENDSEC
  0
SECTION
  2
BLOCKS
  0
BLOCK
  8
0
  2
$MODEL_SPACE
 70
     0
 10
0.0
 20
0.0
 30
0.0
  3
$MODEL_SPACE
  1

  0
ENDBLK
  5
21
  8
0
  0
BLOCK
 67
     1
  8
0
  2
$PAPER_SPACE
 70
     0
 10
0.0
 20
0.0
 30
0.0
  3
$PAPER_SPACE
  1

  0
ENDBLK
  5
1D
 67
     1
  8
0
  0
BLOCK
  8
0
  2
_FILLED
 70
     0
 10
0.0
 20
0.0
 30
0.0
  3
_FILLED
  1

  0
SOLID
  5
D241
  8
0
  6
BYBLOCK
 62
     0
 10
0.0
 20
0.0
 30
0.0
 11
-1.0
 21
0.1666666667
 31
0.0
 12
-1.0
 22
-0.1666666667
 32
0.0
 13
-1.0
 23
-0.1666666667
 33
0.0
  0
ENDBLK
  5
D242
  8
0
  6
BYBLOCK
 62
     0
  0
ENDSEC
  0
SECTION
  2
ENTITIES
  0
ATTDEF
  5
3930
  8
DEFPOINTS
 10
4805.994105802778904
 20
253.3325024138048889
 30
0.0
 40
0.001
  1
K-29198K
  3

  2
MODELNUMBER
 70
     0
1001
ACDBATTR
1070
     0
1070
     1
  0
ATTDEF
  5
3931
  8
DEFPOINTS
 10
4805.994105802778904
 20
253.330835747138309
 30
0.0
 40
0.001
  1
SPAN
  3

  2
TRADENAME
 70
     0
1001
ACDBATTR
1070
     0
1070
     1
  0
ATTDEF
  5
3932
  8
DEFPOINTS
 10
4805.994105802778904
 20
253.329169080471587
 30
0.0
 40
0.001
  1
TOILET SEAT
  3

  2
PRODUCT
 70
     0
1001
ACDBATTR
1070
     0
1070
     1
  0
LINE
  5
D27C
  8
0
 10
4798.8163432326600741
 20
251.6566020625024862
 30
0.0
 11
4798.8163432326600741
 21
242.5024192510960006
 31
0.0
  0
LINE
  5
D27D
  8
0
 10
4800.5116870611445847
 20
251.9254736864959909
 30
0.0
 11
4811.4883018391310543
 21
251.9254736864959909
 31
0.0
  0
ARC
  5
D27E
  8
0
 10
4805.999994450138729
 20
-130.0499462371012953
 30
0.0
 40
382.1027784238197
 50
89.5011019413242224
 51
90.4988980586757918
  0
ARC
  5
D27F
  8
0
 10
4802.6732526964879071
 20
251.9989484372945014
 30
0.0
 40
0.0394
 50
90.4990792114672331
 51
180.0
  0
LINE
  5
D280
  8
0
 10
4802.6338526964882476
 20
251.9989484372945014
 30
0.0
 11
4802.6338526964882476
 21
251.9486181253026018
 31
0.0
  0
ARC
  5
D281
  8
0
 10
4802.5935934085982808
 20
251.9524271579672927
 30
0.0
 40
0.0404390775272927
 50
318.2009251374361156
 51
354.5951907226491926
  0
ARC
  5
D282
  8
0
 10
4802.456687342188161
 20
252.2202283429959948
 30
0.0
 40
1.1141732283000001
 50
350.952572528722726
 51
190.1580063272791961
  0
LINE
  5
D283
  8
0
 10
4802.2397641471479801
 20
252.0343280116397011
 30
0.0
 11
4800.5604583600761543
 21
252.0140970067087096
 31
0.0
  0
LINE
  5
D284
  8
0
 10
4800.5214605775881864
 20
251.9765351489382113
 30
0.0
 11
4800.5197779809668646
 21
251.9254736864959909
 31
0.0
  0
LINE
  5
D285
  8
0
 10
4800.5019363170940778
 20
252.0135353488988983
 30
0.0
 11
4800.5060231433535591
 21
251.9321286644454005
 31
0.0
  0
ARC
  5
D286
  8
0
 10
4800.5611904143688662
 20
251.9743117383032995
 30
0.0
 40
0.0397920027841247
 50
91.0541311003029961
 51
176.7968833312179129
  0
ARC
  5
D287
  8
0
 10
4800.5315289917070913
 20
240.3455834722929865
 30
0.0
 40
11.6679894035426894
 50
90.1453152825812936
 51
96.871252813498927
  0
ARC
  5
D288
  8
0
 10
4798.9548233182922559
 20
251.7823215362342069
 30
0.0
 40
0.1327897958526727
 50
112.213286165012903
 51
179.6927248869988887
  0
ARC
  5
D289
  8
0
 10
4798.9860784053944371
 20
251.7272069199123052
 30
0.0
 40
0.1957977019047799
 50
93.1114170010429945
 51
114.5839650512286028
  0
ARC
  5
D28A
  8
0
 10
4798.9768208222067187
 20
251.8975148353895008
 30
0.0
 40
0.0252383605579973
 50
53.5837394797805828
 51
93.1114170010429945
  0
ARC
  5
D28B
  8
0
 10
4799.0126429827023458
 20
252.0473376686597078
 30
0.0
 40
0.131178775183525
 50
260.8590832658147747
 51
276.6964157615913109
  0
ARC
  5
D28C
  8
0
 10
4792.0529558536763943
 20
311.436020005938019
 30
0.0
 40
59.9262691616089782
 50
276.6839636755220795
 51
276.7875999224960992
  0
ARC
  5
D28D
  8
0
 10
4789.0166115121928669
 20
252.1611491514798047
 30
0.0
 40
9.8127116312526308
 50
357.0526829946413159
 51
357.7916618392856094
  0
ARC
  5
D28E
  8
0
 10
4802.2394209548137951
 20
251.9949295063505019
 30
0.0
 40
0.0394
 50
0.0
 51
89.5009207885327669
  0
LINE
  5
D28F
  8
0
 10
4802.2788209548143641
 20
251.9949295063505019
 30
0.0
 11
4802.2788209548143641
 21
251.9445991943586023
 31
0.0
  0
ARC
  5
D290
  8
0
 10
4802.3190802427043309
 20
251.9484082270232932
 30
0.0
 40
0.0404390775272927
 50
185.4048092773506937
 51
214.5508950722835095
  0
ARC
  5
D291
  8
0
 10
4800.5170315089426367
 20
251.9357599506450072
 30
0.0
 40
0.0115918226524358
 50
198.2559691906760122
 51
242.5449056774486962
  0
ARC
  5
D292
  8
0
 10
4806.0135274806916641
 20
242.0073234392446011
 30
0.0
 40
7.225206560522258
 50
233.1003680334403896
 51
269.8926832081946259
  0
ARC
  5
D293
  8
0
 10
4805.9474897514201075
 20
241.9193699636687995
 30
0.0
 40
7.1152211271588977
 50
199.0666226998247055
 51
233.1003762457480946
  0
ARC
  5
D294
  8
0
 10
4809.8688588412924219
 20
242.5030509357222002
 30
0.0
 40
11.0362557585289398
 50
185.3790438005391934
 51
195.2775087149229876
  0
ARC
  5
D295
  8
0
 10
4806.5374682905712689
 20
242.4677555682962975
 30
0.0
 40
7.7212028681293461
 50
179.7427746126718091
 51
187.4361618578568027
  0
LINE
  5
D297
  8
0
 10
4813.1836456676173839
 20
251.6566020625024862
 30
0.0
 11
4813.1836456676173839
 21
242.5024192510960006
 31
0.0
  0
ARC
  5
D298
  8
0
 10
4809.3267362037877319
 20
251.9989484372945014
 30
0.0
 40
0.0394
 50
0.0
 51
89.5009207885327669
  0
LINE
  5
D299
  8
0
 10
4809.3661362037883009
 20
251.9989484372945014
 30
0.0
 11
4809.3661362037883009
 21
251.9486181253026018
 31
0.0
  0
ARC
  5
D29A
  8
0
 10
4809.4063954916782677
 20
251.9524271579672927
 30
0.0
 40
0.0404390775272927
 50
185.4048092773508074
 51
221.7990748625639981
  0
ARC
  5
D29B
  8
0
 10
4809.5433015580865685
 20
252.2202283429959948
 30
0.0
 40
1.1141732283000001
 50
349.8419936727207755
 51
189.0474274712753129
  0
LINE
  5
D29C
  8
0
 10
4809.7602247531276589
 20
252.0343280116397011
 30
0.0
 11
4811.4395305402003942
 21
252.0140970067087096
 31
0.0
  0
LINE
  5
D29D
  8
0
 10
4811.4785283226883621
 20
251.9765351489382113
 30
0.0
 11
4811.4802109193087745
 21
251.9254736864959909
 31
0.0
  0
LINE
  5
D29E
  8
0
 10
4811.4980525831815612
 20
252.0135353488988983
 30
0.0
 11
4811.4939657569220799
 21
251.9321286644454005
 31
0.0
  0
ARC
  5
D29F
  8
0
 10
4811.4387984859067728
 20
251.9743117383032995
 30
0.0
 40
0.0397920027841247
 50
3.2031166687820898
 51
88.9458688996970039
  0
ARC
  5
D2A0
  8
0
 10
4811.4684599085703667
 20
240.3455834722929865
 30
0.0
 40
11.6679894035426894
 50
83.1287471865010872
 51
89.8546847174187064
  0
ARC
  5
D2A1
  8
0
 10
4813.0451655819833832
 20
251.7823215362342069
 30
0.0
 40
0.1327897958526727
 50
0.3072751130010465
 51
67.7867138349870402
  0
ARC
  5
D2A2
  8
0
 10
4813.0139104948812019
 20
251.7272069199123052
 30
0.0
 40
0.1957977019047799
 50
65.4160349487713546
 51
86.8885829989569913
  0
ARC
  5
D2A3
  8
0
 10
4813.0231680780689203
 20
251.8975148353895008
 30
0.0
 40
0.0252383605579973
 50
86.8885829989569913
 51
126.4162605202193959
  0
ARC
  5
D2A4
  8
0
 10
4812.9873459175732933
 20
252.0473376686597078
 30
0.0
 40
0.131178775183525
 50
263.3035842384086891
 51
279.1409167341852253
  0
ARC
  5
D2A5
  8
0
 10
4819.9470330466001542
 20
311.436020005938019
 30
0.0
 40
59.9262691616089782
 50
263.2124000775039008
 51
263.3160363244779205
  0
ARC
  5
D2A6
  8
0
 10
4822.9833773880827721
 20
252.1611491514798047
 30
0.0
 40
9.8127116312526308
 50
182.2083381607145043
 51
182.9473170053587125
  0
ARC
  5
D2A7
  8
0
 10
4809.7605679454618439
 20
251.9949295063505019
 30
0.0
 40
0.0394
 50
90.4990792114672331
 51
180.0
  0
LINE
  5
D2A8
  8
0
 10
4809.7211679454612749
 20
251.9949295063505019
 30
0.0
 11
4809.7211679454612749
 21
251.9445991943586023
 31
0.0
  0
ARC
  5
D2A9
  8
0
 10
4809.6809086575722176
 20
251.9484082270232932
 30
0.0
 40
0.0404390775272927
 50
325.4491049277165189
 51
354.5951907226491926
  0
ARC
  5
D2AA
  8
0
 10
4811.4829573913339118
 20
251.9357599506450072
 30
0.0
 40
0.0115918226524358
 50
297.4550943225513038
 51
341.7440308093241015
  0
ARC
  5
D2AB
  8
0
 10
4805.9864614195839749
 20
242.0073234392446011
 30
0.0
 40
7.225206560522258
 50
270.1073167918053741
 51
306.899631966559582
  0
ARC
  5
D2AC
  8
0
 10
4806.052499148854622
 20
241.9193699636687995
 30
0.0
 40
7.1152211271588977
 50
306.899623754251877
 51
340.9333773001753229
  0
ARC
  5
D2AD
  8
0
 10
4802.1311300589850362
 20
242.5030509357222002
 30
0.0
 40
11.0362557585289398
 50
344.7224912850768987
 51
354.6209561994608066
  0
ARC
  5
D2AE
  8
0
 10
4805.4625206097052796
 20
242.4677555682962975
 30
0.0
 40
7.7212028681293461
 50
352.5638381421431973
 51
0.2572253873281602
  0
ENDSEC
  0
EOF
