  0
SECTION
  2
HEADER
  9
$ACADVER
  1
AC1009
  9
$INSBASE
 10
4390.2969553936572993
 20
212.8552412432644019
 30
0.0
  9
$EXTMIN
 10
4385.5725459448576657
 20
209.4611724389455958
 30
0.0
  9
$EXTMAX
 10
4397.1622422269037997
 20
216.5768131234659108
 30
0.0
  9
$LIMMIN
 10
0.0
 20
0.0
  9
$LIMMAX
 10
11.6929133858000007
 20
8.2677165353999982
  9
$ORTHOMODE
 70
     0
  9
$REGENMODE
 70
     1
  9
$FILLMODE
 70
     1
  9
$QTEXTMODE
 70
     0
  9
$MIRRTEXT
 70
     0
  9
$DRAGMODE
 70
     2
  9
$LTSCALE
 40
0.6431102362
  9
$OSMODE
 70
  4095
  9
$ATTMODE
 70
     1
  9
$TEXTSIZE
 40
0.2
  9
$TRACEWID
 40
0.05
  9
$TEXTSTYLE
  7
STANDARD
  9
$CLAYER
  8
0
  9
$CELTYPE
  6
BYLAYER
  9
$CECOLOR
 62
   256
  9
$DIMSCALE
 40
1.0
  9
$DIMASZ
 40
0.1875
  9
$DIMEXO
 40
0.0625
  9
$DIMDLI
 40
0.4443307087
  9
$DIMRND
 40
0.0
  9
$DIMDLE
 40
0.0
  9
$DIMEXE
 40
0.125
  9
$DIMTP
 40
0.01
  9
$DIMTM
 40
0.01
  9
$DIMTXT
 40
2.0
  9
$DIMCEN
 40
0.1052362205
  9
$DIMTSZ
 40
0.0
  9
$DIMTOL
 70
     1
  9
$DIMLIM
 70
     0
  9
$DIMTIH
 70
     1
  9
$DIMTOH
 70
     1
  9
$DIMSE1
 70
     0
  9
$DIMSE2
 70
     0
  9
$DIMTAD
 70
     0
  9
$DIMZIN
 70
     0
  9
$DIMBLK
  1

  9
$DIMASO
 70
     1
  9
$DIMSHO
 70
     1
  9
$DIMPOST
  1
\X
  9
$DIMAPOST
  1

  9
$DIMALT
 70
     1
  9
$DIMALTD
 70
     2
  9
$DIMALTF
 40
25.3999999999999986
  9
$DIMLFAC
 40
1.0
  9
$DIMTOFL
 70
     0
  9
$DIMTVP
 40
0.0
  9
$DIMTIX
 70
     0
  9
$DIMSOXD
 70
     0
  9
$DIMSAH
 70
     0
  9
$DIMBLK1
  1

  9
$DIMBLK2
  1

  9
$DIMSTYLE
  2
STANDARD
  9
$DIMCLRD
 70
     0
  9
$DIMCLRE
 70
     0
  9
$DIMCLRT
 70
     0
  9
$DIMTFAC
 40
1.0
  9
$DIMGAP
 40
0.09
  9
$LUNITS
 70
     2
  9
$LUPREC
 70
     4
  9
$SKETCHINC
 40
0.1
  9
$FILLETRAD
 40
0.0
  9
$AUNITS
 70
     0
  9
$AUPREC
 70
     0
  9
$MENU
  1
.
  9
$ELEVATION
 40
0.0
  9
$PELEVATION
 40
0.0
  9
$THICKNESS
 40
0.0
  9
$LIMCHECK
 70
     0
  9
$BLIPMODE
 70
     0
  9
$CHAMFERA
 40
0.0
  9
$CHAMFERB
 40
0.0
  9
$SKPOLY
 70
     0
  9
$TDCREATE
 40
2458060.468368056230247
  9
$TDUPDATE
 40
2459816.6814699079841375
  9
$TDINDWG
 40
0.4916158565
  9
$TDUSRTIMER
 40
0.4916158565
  9
$USRTIMER
 70
     1
  9
$ANGBASE
 50
0.0
  9
$ANGDIR
 70
     0
  9
$PDMODE
 70
     0
  9
$PDSIZE
 40
0.3125
  9
$PLINEWID
 40
0.0
  9
$COORDS
 70
     1
  9
$SPLFRAME
 70
     0
  9
$SPLINETYPE
 70
     6
  9
$SPLINESEGS
 70
     8
  9
$ATTDIA
 70
     1
  9
$ATTREQ
 70
     1
  9
$HANDLING
 70
     1
  9
$HANDSEED
  5
1E115
  9
$SURFTAB1
 70
     6
  9
$SURFTAB2
 70
     6
  9
$SURFTYPE
 70
     6
  9
$SURFU
 70
     6
  9
$SURFV
 70
     6
  9
$UCSNAME
  2

  9
$UCSORG
 10
0.0
 20
0.0
 30
0.0
  9
$UCSXDIR
 10
1.0
 20
0.0
 30
0.0
  9
$UCSYDIR
 10
0.0
 20
1.0
 30
0.0
  9
$PUCSNAME
  2

  9
$PUCSORG
 10
0.0
 20
0.0
 30
0.0
  9
$PUCSXDIR
 10
1.0
 20
0.0
 30
0.0
  9
$PUCSYDIR
 10
0.0
 20
1.0
 30
0.0
  9
$USERI1
 70
     0
  9
$USERI2
 70
     0
  9
$USERI3
 70
     0
  9
$USERI4
 70
     0
  9
$USERI5
 70
     0
  9
$USERR1
 40
0.0
  9
$USERR2
 40
0.0
  9
$USERR3
 40
0.0
  9
$USERR4
 40
0.0
  9
$USERR5
 40
0.0
  9
$WORLDVIEW
 70
     1
  9
$SHADEDGE
 70
     3
  9
$SHADEDIF
 70
    70
  9
$TILEMODE
 70
     1
  9
$MAXACTVP
 70
    64
  9
$PLIMCHECK
 70
     0
  9
$PEXTMIN
 10
1.0000000000000000E+20
 20
1.0000000000000000E+20
 30
1.0000000000000000E+20
  9
$PEXTMAX
 10
-1.0000000000000000E+20
 20
-1.0000000000000000E+20
 30
-1.0000000000000000E+20
  9
$PLIMMIN
 10
0.0
 20
0.0
  9
$PLIMMAX
 10
12.0
 20
9.0
  9
$UNITMODE
 70
     0
  9
$VISRETAIN
 70
     1
  9
$PLINEGEN
 70
     0
  9
$PSLTSCALE
 70
     1
  0
ENDSEC
  0
SECTION
  2
TABLES
  0
TABLE
  2
VPORT
 70
     1
  0
VPORT
  2
*ACTIVE
 70
     0
 10
0.0
 20
0.0
 11
1.0
 21
1.0
 12
478.6900772039866752
 22
77.7188044764488097
 13
0.0
 23
0.0
 14
1.0
 24
1.0
 15
0.0
 25
0.0
 16
0.0
 26
0.0
 36
60.4960186965801583
 17
3911.3653564453120453
 27
132.5796051025390057
 37
0.0
 40
10.0073557491169005
 41
2.0416666666666661
 42
50.0
 43
0.0
 44
0.0
 50
0.0
 51
0.0
 71
     0
 72
   100
 73
     1
 74
     1
 75
     0
 76
     0
 77
     0
 78
     0
  0
ENDTAB
  0
TABLE
  2
LTYPE
 70
     2
  0
LTYPE
  2
CONTINUOUS
 70
     0
  3
Solid line
 72
    65
 73
     0
 40
0.0
  0
LTYPE
  2
PHANTOM2
 70
     0
  3
___ _ _ ___ _ _ ___ _ _ ___ _ _
 72
    65
 73
     6
 40
1.25
 49
0.625
 49
-0.125
 49
0.125
 49
-0.125
 49
0.125
 49
-0.125
  0
ENDTAB
  0
TABLE
  2
LAYER
 70
     2
  0
LAYER
  2
0
 70
     0
 62
   255
  6
CONTINUOUS
  0
LAYER
  2
DEFPOINTS
 70
     0
 62
     7
  6
CONTINUOUS
  0
ENDTAB
  0
TABLE
  2
STYLE
 70
     1
  0
STYLE
  2
STANDARD
 70
     0
 40
0.0
 41
0.8
 50
0.0
 71
     0
 42
0.2
  3
txt
  4

  0
ENDTAB
  0
TABLE
  2
VIEW
 70
     0
  0
ENDTAB
  0
TABLE
  2
UCS
 70
     0
  0
ENDTAB
  0
TABLE
  2
APPID
 70
    11
  0
APPID
  2
ACAD
 70
     0
  0
APPID
  2
ACAD_MLEADERVER
 70
     0
  0
APPID
  2
ACAD_EXEMPT_FROM_CAD_STANDARDS
 70
     0
  0
APPID
  2
ACAD_NAV_VCDISPLAY
 70
     0
  0
APPID
  2
ACAECLAYERSTANDARD
 70
     0
  0
APPID
  2
ACCMTRANSPARENCY
 70
     0
  0
APPID
  2
ACAD_DSTYLE_DIMJAG
 70
     0
  0
APPID
  2
ACAD_DSTYLE_DIMTALN
 70
     0
  0
APPID
  2
ACDBATTR
 70
     0
  0
APPID
  2
ACADANNOTATIVE
 70
     0
  0
APPID
  2
DCO15
 70
     0
  0
ENDTAB
  0
TABLE
  2
DIMSTYLE
 70
     1
  0
DIMSTYLE
  2
STANDARD
 70
     0
  3

  4

  5

  6

  7

 40
1.0
 41
0.1875
 42
0.0625
 43
0.38
 44
0.125
 45
0.0
 46
0.0
 47
0.01
 48
0.01
140
0.15625
141
0.09
142
0.0
143
25.3999999999999986
144
1.0
145
0.0
146
1.0
147
0.09
 71
     1
 72
     0
 73
     1
 74
     1
 75
     0
 76
     0
 77
     0
 78
     4
170
     0
171
     2
172
     0
173
     0
174
     0
175
     0
176
     0
177
     0
178
     0
  0
ENDTAB
  0
ENDSEC
  0
SECTION
  2
BLOCKS
  0
BLOCK
  8
0
  2
$MODEL_SPACE
 70
     0
 10
0.0
 20
0.0
 30
0.0
  3
$MODEL_SPACE
  1

  0
ENDBLK
  5
21
  8
0
  0
BLOCK
 67
     1
  8
0
  2
$PAPER_SPACE
 70
     0
 10
0.0
 20
0.0
 30
0.0
  3
$PAPER_SPACE
  1

  0
ENDBLK
  5
1D
 67
     1
  8
0
  0
BLOCK
  8
0
  2
_FILLED
 70
     0
 10
0.0
 20
0.0
 30
0.0
  3
_FILLED
  1

  0
SOLID
  5
1DEF6
  8
0
  6
BYBLOCK
 62
     0
 10
0.0
 20
0.0
 30
0.0
 11
-1.0
 21
0.1666666667
 31
0.0
 12
-1.0
 22
-0.1666666667
 32
0.0
 13
-1.0
 23
-0.1666666667
 33
0.0
  0
ENDBLK
  5
1DEF7
  8
0
  6
BYBLOCK
 62
     0
  0
ENDSEC
  0
SECTION
  2
ENTITIES
  0
ATTDEF
  5
1D3BC
  8
DEFPOINTS
 10
4390.2974906497029224
 20
212.8571358634079047
 30
0.0
 40
0.001
  1
K-29251T
  3

  2
MODELNUMBER
 70
     0
1001
ACDBATTR
1070
     0
1070
     1
  0
ATTDEF
  5
1D3BD
  8
DEFPOINTS
 10
4390.2973648400447928
 20
212.8554690230286894
 30
0.0
 40
0.001
  1

  3

  2
TRADENAME
 70
     0
1001
ACDBATTR
1070
     0
1070
     1
  0
ATTDEF
  5
1D3BE
  8
DEFPOINTS
 10
4390.2974906497029224
 20
212.8538025300744891
 30
0.0
 40
0.001
  1
TOILET TISSUE HOLDER
  3

  2
PRODUCT
 70
     0
1001
ACDBATTR
1070
     0
1070
     1
  0
LINE
  5
1DF65
  8
0
 10
4385.5725459448576657
 20
214.5599658964646892
 30
0.0
 11
4390.2777378133578168
 21
214.5599658964646892
 31
0.0
  0
LINE
  5
1DF66
  8
0
 10
4385.5725459448576657
 20
214.4812256460647006
 30
0.0
 11
4390.2969553936572993
 21
214.4812256460647006
 31
0.0
  0
LINE
  5
1DF67
  8
0
 10
4385.592245944858405
 20
214.1623278573646871
 30
0.0
 11
4390.1985152362567533
 21
214.1623278573646871
 31
0.0
  0
ARC
  5
1DF68
  8
0
 10
4390.1985152362567533
 20
214.1820278573646874
 30
0.0
 40
0.0197
 50
270.0
 51
0.0
  0
LINE
  5
1DF69
  8
0
 10
4385.5725459448576657
 20
214.1820278573646874
 30
0.0
 11
4385.5725459448576657
 21
214.4182184085634049
 31
0.0
  0
LINE
  5
1DF6A
  8
0
 10
4385.5725459448576657
 20
214.4812256460647006
 30
0.0
 11
4385.5725459448576657
 21
214.5599658964646892
 31
0.0
  0
ARC
  5
1DF6B
  8
0
 10
4385.592245944858405
 20
214.1820278573646874
 30
0.0
 40
0.0197
 50
179.9999999999951115
 51
270.0
  0
ARC
  5
1DF6C
  8
0
 10
4385.592245944858405
 20
214.4182184085634049
 30
0.0
 40
0.0197
 50
90.0
 51
180.0000000000032117
  0
LINE
  5
1DF6D
  8
0
 10
4385.5725459448576657
 20
214.4812256460647006
 30
0.0
 11
4385.5922309842580944
 21
214.4615404558647072
 31
0.0
  0
LINE
  5
1DF6E
  8
0
 10
4385.5725459448576657
 20
214.5599658964646892
 30
0.0
 11
4385.6316010630580422
 21
214.6190207708646938
 31
0.0
  0
LINE
  5
1DF6F
  8
0
 10
4390.2969553936572993
 20
214.5993357314646914
 30
0.0
 11
4390.2969553936572993
 21
214.4812256460647006
 31
0.0
  0
LINE
  5
1DF70
  8
0
 10
4390.2969553936572993
 20
214.418218408563007
 30
0.0
 11
4390.2969553936572993
 21
211.1111617156641103
 31
0.0
  0
LINE
  5
1DF71
  8
0
 10
4390.2772703542577801
 20
214.6190207708646938
 30
0.0
 11
4390.2969553936572993
 21
214.5993357314646914
 31
0.0
  0
ARC
  5
1DF72
  8
0
 10
4390.277526392595064
 20
214.5171912816416011
 30
0.0
 40
0.0427751373113806
 50
77.9981005639628506
 51
89.7168082328432348
  0
ARC
  5
1DF73
  8
0
 10
4390.2806002316137892
 20
214.5316502002494019
 30
0.0
 40
0.0279930936901425
 50
65.585062119913502
 51
77.9981005639628506
  0
ARC
  5
1DF74
  8
0
 10
4390.2884834814040005
 20
214.5490166913940868
 30
0.0
 40
0.008921107900907
 50
18.2593520876198099
 51
65.5850621199128199
  0
LINE
  5
1DF75
  8
0
 10
4390.277270354356915
 20
214.4615404558647072
 30
0.0
 11
4390.2969553936572993
 21
214.4812256460647006
 31
0.0
  0
ARC
  5
1DF76
  8
0
 10
4390.277255393658379
 20
214.418218408563007
 30
0.0
 40
0.0197
 50
0.0000000000032569
 51
90.0
  0
LINE
  5
1DF77
  8
0
 10
4390.218215236258402
 20
214.418218408563007
 30
0.0
 11
4390.218215236258402
 21
212.090430599363998
 31
0.0
  0
LINE
  5
1DF78
  8
0
 10
4390.218215236258402
 20
212.090430599363998
 30
0.0
 11
4390.218215236258402
 21
211.1111617156641103
 31
0.0
  0
ARC
  5
1DF79
  8
0
 10
4390.2379152362582317
 20
214.418218408563007
 30
0.0
 40
0.0197
 50
90.0
 51
180.0000000000081002
  0
ARC
  5
1DF7A
  8
0
 10
4390.1985152362567533
 20
214.418218408563007
 30
0.0
 40
0.0197
 50
359.9999999999935199
 51
90.0
  0
ARC
  5
1DF7B
  8
0
 10
4389.8317386537573839
 20
214.1229577786639879
 30
0.0
 40
0.0590551181000217
 50
2.99944435270536
 51
41.8103148523938231
  0
LINE
  5
1DF7C
  8
0
 10
4389.8907128688406374
 20
214.1260479128164036
 30
0.0
 11
4389.9003175941552399
 21
213.9427448235092015
 31
0.0
  0
LINE
  5
1DF7D
  8
0
 10
4389.9593366296530803
 20
213.886737306164008
 30
0.0
 11
4390.2182152361574481
 21
213.886737306164008
 31
0.0
  0
ARC
  5
1DF7E
  8
0
 10
4389.9593366296530803
 20
213.9458373061640089
 30
0.0
 40
0.0591
 50
182.9994443527052965
 51
270.0
  0
ARC
  5
1DF7F
  8
0
 10
4389.6016698016574082
 20
213.4142963613641086
 30
0.0
 40
0.3937007873999998
 50
172.5875779100340992
 51
166.3567872232488014
  0
ARC
  5
1DF80
  8
0
 10
4389.6745524787584145
 20
213.7852043157863875
 30
0.0
 40
0.0157
 50
0.0000000000016284
 51
78.8831284612218724
  0
ARC
  5
1DF81
  8
0
 10
4389.5287871244572671
 20
213.7852043157666913
 30
0.0
 40
0.0157
 50
101.1168715541805057
 51
180.0000000000015916
  0
ARC
  5
1DF82
  8
0
 10
4389.6016698016574082
 20
213.4142963613641086
 30
0.0
 40
0.3070866073999996
 50
106.7658733601357994
 51
145.556448335066591
  0
ARC
  5
1DF83
  8
0
 10
4389.6016698016574082
 20
213.4142963613641086
 30
0.0
 40
0.3070866073999996
 50
157.5044208660949892
 51
73.2341266593477229
  0
ARC
  5
1DF84
  8
0
 10
4389.6016698016574082
 20
213.4142963724640083
 30
0.0
 40
0.2874015751156477
 50
105.488747716039498
 51
133.6350489086123048
  0
ARC
  5
1DF85
  8
0
 10
4389.6016698016574082
 20
213.4142963613641086
 30
0.0
 40
0.285433066680117
 50
150.8528286587734044
 51
131.5272668544405121
  0
ARC
  5
1DF86
  8
0
 10
4389.6745524787584145
 20
213.706476509948601
 30
0.0
 40
0.0157
 50
255.9937259910057037
 51
0.0000000000016284
  0
ARC
  5
1DF87
  8
0
 10
4389.5287871244572671
 20
213.7064765099237036
 30
0.0
 40
0.0157
 50
180.0
 51
284.00627402864842
  0
CIRCLE
  5
1DF88
  8
0
 10
4389.6016698016574082
 20
213.4142963613641086
 30
0.0
 40
0.2775590610016777
  0
LINE
  5
1DF89
  8
0
 10
4389.5130871244573427
 20
213.7852043157666913
 30
0.0
 11
4389.5130871244573427
 21
213.7064765099237036
 31
0.0
  0
LINE
  5
1DF8A
  8
0
 10
4389.6902524787574293
 20
213.7852043157863875
 30
0.0
 11
4389.6902524787574293
 21
213.706476509948601
 31
0.0
  0
LINE
  5
1DF8B
  8
0
 10
4389.9426246850362077
 20
213.6111467550639986
 30
0.0
 11
4390.218215236258402
 21
213.6111467550639986
 31
0.0
  0
LINE
  5
1DF8C
  8
0
 10
4389.9426246850362077
 20
213.2174459676639913
 30
0.0
 11
4390.218215236258402
 21
213.2174459676639913
 31
0.0
  0
LINE
  5
1DF8D
  8
0
 10
4390.2379152362582317
 20
211.09146171566411
 30
0.0
 11
4390.277255393658379
 21
211.09146171566411
 31
0.0
  0
ARC
  5
1DF8E
  8
0
 10
4390.277255393658379
 20
211.1111617156641103
 30
0.0
 40
0.0197
 50
270.0
 51
0.0
  0
ARC
  5
1DF8F
  8
0
 10
4390.2379152362582317
 20
211.1111617156641103
 30
0.0
 40
0.0197
 50
179.9999999999934914
 51
270.0
  0
LINE
  5
1DF90
  8
0
 10
4387.7582131923054476
 20
211.0810483696639892
 30
0.0
 11
4390.1985301968570639
 21
211.0810483696639892
 31
0.0
  0
ARC
  5
1DF91
  8
0
 10
4388.7955297150565457
 20
211.1007483696639895
 30
0.0
 40
0.0197
 50
180.0
 51
270.0
  0
LINE
  5
1DF92
  8
0
 10
4390.1985301968570639
 20
211.0810483696639892
 30
0.0
 11
4390.1985301968570639
 21
211.1191059235640068
 31
0.0
  0
LINE
  5
1DF93
  8
0
 10
4390.2025152362566587
 20
211.1191059235640068
 30
0.0
 11
4388.3109796193011789
 21
211.1191059235640068
 31
0.0
  0
ARC
  5
1DF94
  8
0
 10
4390.2025152362566587
 20
211.134805923563988
 30
0.0
 40
0.0157
 50
270.0
 51
0.0000000000048853
  0
LINE
  5
1DF95
  8
0
 10
4388.7758297150567159
 20
211.1191059235640068
 30
0.0
 11
4388.7758297150567159
 21
211.1007483696639895
 31
0.0
  0
LINE
  5
1DF96
  8
0
 10
4390.2025152362566587
 20
212.1061305993640076
 30
0.0
 11
4388.4221311398823673
 21
212.1061305993640076
 31
0.0
  0
LINE
  5
1DF97
  8
0
 10
4390.218215236258402
 20
212.1440404956640009
 30
0.0
 11
4387.8549564239910978
 21
212.1440404956640009
 31
0.0
  0
LINE
  5
1DF98
  8
0
 10
4390.1985301968570639
 20
212.1440404956640009
 30
0.0
 11
4390.1985301968570639
 21
212.1061305993640076
 31
0.0
  0
ARC
  5
1DF99
  8
0
 10
4390.2025152362566587
 20
212.090430599363998
 30
0.0
 40
0.0157
 50
359.9999999999968168
 51
90.0
  0
ARC
  5
1DF9A
  8
0
 10
4388.5419808118676883
 20
218.3131843729989043
 30
0.0
 40
6.2082107319798769
 50
264.9271406227900911
 51
268.8938347491289278
  0
ARC
  5
1DF9B
  8
0
 10
4388.3364404687581555
 20
215.9977632283664946
 30
0.0
 40
3.8836845631323218
 50
261.9864516878128029
 51
264.9271406227900911
  0
ARC
  5
1DF9C
  8
0
 10
4381.9889917600557965
 20
170.9106796927586061
 30
0.0
 40
41.6480099677816682
 50
81.9864516878128029
 51
82.1491745729015008
  0
ARC
  5
1DF9D
  8
0
 10
4387.4932476595304252
 20
211.3105095794805095
 30
0.0
 40
0.8774597565980236
 50
77.8534858392734321
 51
80.8273992208823984
  0
ARC
  5
1DF9E
  8
0
 10
4387.5431611550893649
 20
211.6257144813060052
 30
0.0
 40
0.558329682019517
 50
80.7277241721763517
 51
91.8884380288632343
  0
ARC
  5
1DF9F
  8
0
 10
4387.5429562712879488
 20
211.6125482761275975
 30
0.0
 40
0.5714823416625343
 50
91.8244086308915968
 51
111.5614636765521936
  0
ARC
  5
1DFA0
  8
0
 10
4387.5429265589182251
 20
211.6125895202011975
 30
0.0
 40
0.5714330645561607
 50
111.5602127423916983
 51
179.9999094390603886
  0
ARC
  5
1DFA1
  8
0
 10
4387.5427780998179514
 20
211.6126041034312095
 30
0.0
 40
0.5712846056191685
 50
180.0013720096916074
 51
207.4672410647106915
  0
ARC
  5
1DFA2
  8
0
 10
4387.053379026757284
 20
211.358219313964014
 30
0.0
 40
0.0197204118000023
 50
207.5309325809128893
 51
269.9293602836957007
  0
LINE
  5
1DFA3
  8
0
 10
4387.0533555642568899
 20
211.3384957658641099
 30
0.0
 11
4387.1283566958054507
 21
211.3384957658641099
 31
0.0
  0
ARC
  5
1DFA4
  8
0
 10
4387.5804199491567488
 20
211.6125444326636966
 30
0.0
 40
0.5314960629993739
 50
211.0387379198232907
 51
217.9798724496232012
  0
ARC
  5
1DFA5
  8
0
 10
4387.5804199491567488
 20
211.6125444326640945
 30
0.0
 40
0.5314960630001386
 50
217.9798724496232012
 51
241.6561787951895042
  0
ARC
  5
1DFA6
  8
0
 10
4387.0651105725037269
 20
211.249426180650488
 30
0.0
 40
0.1092403914425143
 50
42.3570920927616683
 51
54.6223752068657618
  0
ARC
  5
1DFA7
  8
0
 10
4386.3260463687138326
 20
210.5755820899688899
 30
0.0
 40
1.1093812594559791
 50
40.3740583800589405
 51
42.3570920927616683
  0
ARC
  5
1DFA8
  8
0
 10
4387.5921822652926494
 20
211.6218853546066043
 30
0.0
 40
0.5334691263921605
 50
217.8961333374016078
 51
237.7696294361055891
  0
ARC
  5
1DFA9
  8
0
 10
4387.590654894383988
 20
211.6182150916567934
 30
0.0
 40
0.5295502454905919
 50
237.6976326257434948
 51
253.8528986672461087
  0
ARC
  5
1DFAA
  8
0
 10
4387.6409614900203451
 20
211.8427493822597114
 30
0.0
 40
0.7593486628654909
 50
254.9185139627780075
 51
264.2358121817400729
  0
ARC
  5
1DFAB
  8
0
 10
4387.5705711775472082
 20
211.3572587442673978
 30
0.0
 40
0.3224154795947685
 50
215.3719586304353015
 51
221.2283543220426054
  0
ARC
  5
1DFAC
  8
0
 10
4387.5872718810960578
 20
211.3718937101313031
 30
0.0
 40
0.3446212384170892
 50
221.2283543220426054
 51
234.9054766942836068
  0
ARC
  5
1DFAD
  8
0
 10
4387.574705998891659
 20
211.3590848139905063
 30
0.0
 40
0.3269294902883004
 50
235.4167496552250896
 51
264.1607841676511725
  0
ARC
  5
1DFAE
  8
0
 10
4387.582039489510862
 20
211.3687987251676077
 30
0.0
 40
0.3373980448209785
 50
263.0896592553041842
 51
302.0640049404054821
  0
ARC
  5
1DFAF
  8
0
 10
4387.6952206699634189
 20
212.5578096782234923
 30
0.0
 40
1.476350567872678
 50
264.9278663615191931
 51
268.6959916617456088
  0
ARC
  5
1DFB0
  8
0
 10
4387.6958650698443307
 20
212.5861185604451862
 30
0.0
 40
1.504666783436347
 50
268.6959916617456088
 51
272.4868512741380187
  0
ARC
  5
1DFB1
  8
0
 10
4387.3912760516695926
 20
219.599286197806407
 30
0.0
 40
8.5244456104167803
 50
272.4868512741380187
 51
273.7709243000742845
  0
ARC
  5
1DFB2
  8
0
 10
4385.9590894908551491
 20
241.3286350112418006
 30
0.0
 40
30.3009411549466101
 50
273.7709243000742845
 51
274.4516455629847087
  0
LINE
  5
1DFB3
  8
0
 10
4387.3917161259696513
 20
211.0881649032639871
 30
0.0
 11
4387.5560341336831698
 21
211.0881649032639871
 31
0.0
  0
LINE
  5
1DFB4
  8
0
 10
4387.4032545948566622
 20
211.0881649032639871
 30
0.0
 11
4387.4032545948566622
 21
211.0872402301640136
 31
0.0
  0
ARC
  5
1DFB5
  8
0
 10
4387.4152448139211629
 20
211.0872402301640136
 30
0.0
 40
0.0119902190631081
 50
180.0
 51
228.326071286733395
  0
LINE
  5
1DFB6
  8
0
 10
4387.4092815127451104
 20
211.077096106764003
 30
0.0
 11
4387.7515889603600954
 21
211.077096106764003
 31
0.0
  0
ARC
  5
1DFB7
  8
0
 10
4387.7456093777827846
 20
211.0873062837175098
 30
0.0
 40
0.0119829809475743
 50
309.4233536606752182
 51
337.2929015042649894
  0
ARC
  5
1DFB8
  8
0
 10
4388.0807993577636807
 20
201.9185173854812945
 30
0.0
 40
10.1933297004051493
 50
88.6963466175449469
 51
92.3312512739938143
  0
ARC
  5
1DFB9
  8
0
 10
4387.6979437190066164
 20
211.4220997745428861
 30
0.0
 40
0.68205149136809
 50
92.6703316518701286
 51
110.6891573644157063
  0
ARC
  5
1DFBA
  8
0
 10
4387.623649425199801
 20
211.6188264998731938
 30
0.0
 40
0.4717634827909151
 50
110.6891573644157063
 51
180.7568121141623863
  0
ARC
  5
1DFBB
  8
0
 10
4387.6422921379098625
 20
211.6190727632375115
 30
0.0
 40
0.4904078219539944
 50
180.7568121141623863
 51
247.8039279925619098
  0
ARC
  5
1DFBC
  8
0
 10
4387.652293887353153
 20
211.643586105833009
 30
0.0
 40
0.516883073739691
 50
247.8039279925619098
 51
264.1034589535503869
  0
ARC
  5
1DFBD
  8
0
 10
4387.918519299957552
 20
214.2213181275606928
 30
0.0
 40
3.1083263677667929
 50
264.1034589535503869
 51
270.1791425591388816
  0
ARC
  5
1DFBE
  8
0
 10
4387.8815104457717098
 20
226.0579484080955979
 30
0.0
 40
14.9450145047991398
 50
270.1791425591388816
 51
271.6467136254660204
  0
LINE
  5
1DFBF
  8
0
 10
4389.4124344150995967
 20
213.6279830573207903
 30
0.0
 11
4387.8561736849542285
 21
212.6555239540595039
 31
0.0
  0
ARC
  5
1DFC0
  8
0
 10
4401.8905804992200501
 20
190.1957658802417939
 30
0.0
 40
26.4840576076008105
 50
121.9999859512596032
 51
122.3735030147686018
  0
ARC
  5
1DFC1
  8
0
 10
4389.2321917636063517
 20
210.1625990625628901
 30
0.0
 40
2.842796374059346
 50
122.3735030147686018
 51
145.4360404107221996
  0
ARC
  5
1DFC2
  8
0
 10
4389.0997468508603561
 20
210.2538437825814981
 30
0.0
 40
2.6819633742004791
 50
145.4360404107221996
 51
179.7233072515392962
  0
LINE
  5
1DFC3
  8
0
 10
4386.417814749856916
 20
210.2667954683639948
 30
0.0
 11
4386.4493078089226401
 21
210.2664010447556109
 31
0.0
  0
ARC
  5
1DFC4
  8
0
 10
4387.8587141902389703
 20
210.2558657412168941
 30
0.0
 40
1.409445756428406
 50
178.4146604829383023
 51
179.5717223972087879
  0
ARC
  5
1DFC5
  8
0
 10
4389.1642940388910574
 20
210.2335639208199893
 30
0.0
 40
2.7151780687809639
 50
121.9696819005472008
 51
178.7064334573418023
  0
LINE
  5
1DFC6
  8
0
 10
4387.7266874989500138
 20
212.5369265456585879
 30
0.0
 11
4389.352380687681034
 21
213.5533178460607928
 31
0.0
  0
LINE
  5
1DFC8
  8
0
 10
4385.6316010629561788
 20
214.6190207707641093
 30
0.0
 11
4390.277270354358734
 21
214.6190207707641093
 31
0.0
  0
LINE
  5
1DFC9
  8
0
 10
4390.1985152362567533
 20
214.4379184084640997
 30
0.0
 11
4385.592245944858405
 21
214.4379184084640997
 31
0.0
  0
LINE
  5
1DFCA
  8
0
 10
4390.2379152362582317
 20
214.4379184084640997
 30
0.0
 11
4390.277255393658379
 21
214.4379184084640997
 31
0.0
  0
LINE
  5
1DFCB
  8
0
 10
4385.5922309843581388
 20
214.461540455764009
 30
0.0
 11
4390.2772703542559611
 21
214.461540455764009
 31
0.0
  0
ENDSEC
  0
EOF
