  0
SECTION
  2
HEADER
  9
$ACADVER
  1
AC1009
  9
$INSBASE
 10
6555.9232540008815704
 20
180.9909346677924873
 30
0.0
  9
$EXTMIN
 10
6554.9783721110807164
 20
175.5678045444406905
 30
0.0
  9
$EXTMAX
 10
6556.8681358906806054
 20
182.3809652408239117
 30
0.0
  9
$LIMMIN
 10
0.0
 20
0.0
  9
$LIMMAX
 10
11.6929133858000007
 20
8.2677165353999982
  9
$ORTHOMODE
 70
     0
  9
$REGENMODE
 70
     1
  9
$FILLMODE
 70
     1
  9
$QTEXTMODE
 70
     0
  9
$MIRRTEXT
 70
     0
  9
$DRAGMODE
 70
     2
  9
$LTSCALE
 40
0.6431102362
  9
$OSMODE
 70
  4095
  9
$ATTMODE
 70
     1
  9
$TEXTSIZE
 40
0.2
  9
$TRACEWID
 40
0.05
  9
$TEXTSTYLE
  7
STANDARD
  9
$CLAYER
  8
0
  9
$CELTYPE
  6
BYLAYER
  9
$CECOLOR
 62
   256
  9
$DIMSCALE
 40
1.0
  9
$DIMASZ
 40
0.1875
  9
$DIMEXO
 40
0.0625
  9
$DIMDLI
 40
0.4443307087
  9
$DIMRND
 40
0.0
  9
$DIMDLE
 40
0.0
  9
$DIMEXE
 40
0.125
  9
$DIMTP
 40
0.01
  9
$DIMTM
 40
0.01
  9
$DIMTXT
 40
2.0
  9
$DIMCEN
 40
0.1052362205
  9
$DIMTSZ
 40
0.0
  9
$DIMTOL
 70
     1
  9
$DIMLIM
 70
     0
  9
$DIMTIH
 70
     1
  9
$DIMTOH
 70
     1
  9
$DIMSE1
 70
     0
  9
$DIMSE2
 70
     0
  9
$DIMTAD
 70
     0
  9
$DIMZIN
 70
     0
  9
$DIMBLK
  1

  9
$DIMASO
 70
     1
  9
$DIMSHO
 70
     1
  9
$DIMPOST
  1
\X
  9
$DIMAPOST
  1

  9
$DIMALT
 70
     1
  9
$DIMALTD
 70
     2
  9
$DIMALTF
 40
25.3999999999999986
  9
$DIMLFAC
 40
1.0
  9
$DIMTOFL
 70
     0
  9
$DIMTVP
 40
0.0
  9
$DIMTIX
 70
     0
  9
$DIMSOXD
 70
     0
  9
$DIMSAH
 70
     0
  9
$DIMBLK1
  1

  9
$DIMBLK2
  1

  9
$DIMSTYLE
  2
STANDARD
  9
$DIMCLRD
 70
     0
  9
$DIMCLRE
 70
     0
  9
$DIMCLRT
 70
     0
  9
$DIMTFAC
 40
1.0
  9
$DIMGAP
 40
0.09
  9
$LUNITS
 70
     2
  9
$LUPREC
 70
     4
  9
$SKETCHINC
 40
0.1
  9
$FILLETRAD
 40
0.0
  9
$AUNITS
 70
     0
  9
$AUPREC
 70
     0
  9
$MENU
  1
.
  9
$ELEVATION
 40
0.0
  9
$PELEVATION
 40
0.0
  9
$THICKNESS
 40
0.0
  9
$LIMCHECK
 70
     0
  9
$BLIPMODE
 70
     0
  9
$CHAMFERA
 40
0.0
  9
$CHAMFERB
 40
0.0
  9
$SKPOLY
 70
     0
  9
$TDCREATE
 40
2458060.468368056230247
  9
$TDUPDATE
 40
2460272.5035879630595446
  9
$TDINDWG
 40
0.7827964120000001
  9
$TDUSRTIMER
 40
0.7827964120000001
  9
$USRTIMER
 70
     1
  9
$ANGBASE
 50
0.0
  9
$ANGDIR
 70
     0
  9
$PDMODE
 70
     0
  9
$PDSIZE
 40
0.3125
  9
$PLINEWID
 40
0.0
  9
$COORDS
 70
     1
  9
$SPLFRAME
 70
     0
  9
$SPLINETYPE
 70
     6
  9
$SPLINESEGS
 70
     8
  9
$ATTDIA
 70
     1
  9
$ATTREQ
 70
     1
  9
$HANDLING
 70
     1
  9
$HANDSEED
  5
2DFAD
  9
$SURFTAB1
 70
     6
  9
$SURFTAB2
 70
     6
  9
$SURFTYPE
 70
     6
  9
$SURFU
 70
     6
  9
$SURFV
 70
     6
  9
$UCSNAME
  2

  9
$UCSORG
 10
0.0
 20
0.0
 30
0.0
  9
$UCSXDIR
 10
1.0
 20
0.0
 30
0.0
  9
$UCSYDIR
 10
0.0
 20
1.0
 30
0.0
  9
$PUCSNAME
  2

  9
$PUCSORG
 10
0.0
 20
0.0
 30
0.0
  9
$PUCSXDIR
 10
1.0
 20
0.0
 30
0.0
  9
$PUCSYDIR
 10
0.0
 20
1.0
 30
0.0
  9
$USERI1
 70
     0
  9
$USERI2
 70
     0
  9
$USERI3
 70
     0
  9
$USERI4
 70
     0
  9
$USERI5
 70
     0
  9
$USERR1
 40
0.0
  9
$USERR2
 40
0.0
  9
$USERR3
 40
0.0
  9
$USERR4
 40
0.0
  9
$USERR5
 40
0.0
  9
$WORLDVIEW
 70
     1
  9
$SHADEDGE
 70
     3
  9
$SHADEDIF
 70
    70
  9
$TILEMODE
 70
     1
  9
$MAXACTVP
 70
    64
  9
$PLIMCHECK
 70
     0
  9
$PEXTMIN
 10
1.0000000000000000E+20
 20
1.0000000000000000E+20
 30
1.0000000000000000E+20
  9
$PEXTMAX
 10
-1.0000000000000000E+20
 20
-1.0000000000000000E+20
 30
-1.0000000000000000E+20
  9
$PLIMMIN
 10
0.0
 20
0.0
  9
$PLIMMAX
 10
12.0
 20
9.0
  9
$UNITMODE
 70
     0
  9
$VISRETAIN
 70
     1
  9
$PLINEGEN
 70
     0
  9
$PSLTSCALE
 70
     1
  0
ENDSEC
  0
SECTION
  2
TABLES
  0
TABLE
  2
VPORT
 70
     1
  0
VPORT
  2
*ACTIVE
 70
     0
 10
0.0
 20
0.0
 11
1.0
 21
1.0
 12
2644.5578975555690704
 22
46.3947797900932173
 13
0.0
 23
0.0
 14
1.0
 24
1.0
 15
0.0
 25
0.0
 16
0.0
 26
0.0
 36
60.4960186965801583
 17
3911.3653564453120453
 27
132.5796051025390057
 37
0.0
 40
6.8744484987494578
 41
2.8453453453453448
 42
50.0
 43
0.0
 44
0.0
 50
0.0
 51
0.0
 71
     0
 72
   100
 73
     1
 74
     1
 75
     0
 76
     0
 77
     0
 78
     0
  0
ENDTAB
  0
TABLE
  2
LTYPE
 70
     2
  0
LTYPE
  2
CONTINUOUS
 70
     0
  3
Solid line
 72
    65
 73
     0
 40
0.0
  0
LTYPE
  2
PHANTOM2
 70
     0
  3
___ _ _ ___ _ _ ___ _ _ ___ _ _
 72
    65
 73
     6
 40
1.25
 49
0.625
 49
-0.125
 49
0.125
 49
-0.125
 49
0.125
 49
-0.125
  0
ENDTAB
  0
TABLE
  2
LAYER
 70
     2
  0
LAYER
  2
0
 70
     0
 62
   255
  6
CONTINUOUS
  0
LAYER
  2
DEFPOINTS
 70
     0
 62
     7
  6
CONTINUOUS
  0
ENDTAB
  0
TABLE
  2
STYLE
 70
     1
  0
STYLE
  2
STANDARD
 70
     0
 40
0.0
 41
0.8
 50
0.0
 71
     0
 42
0.2
  3
txt
  4

  0
ENDTAB
  0
TABLE
  2
VIEW
 70
     0
  0
ENDTAB
  0
TABLE
  2
UCS
 70
     0
  0
ENDTAB
  0
TABLE
  2
APPID
 70
    11
  0
APPID
  2
ACAD
 70
     0
  0
APPID
  2
ACAD_MLEADERVER
 70
     0
  0
APPID
  2
ACAD_EXEMPT_FROM_CAD_STANDARDS
 70
     0
  0
APPID
  2
ACAD_NAV_VCDISPLAY
 70
     0
  0
APPID
  2
ACAECLAYERSTANDARD
 70
     0
  0
APPID
  2
ACCMTRANSPARENCY
 70
     0
  0
APPID
  2
ACAD_DSTYLE_DIMJAG
 70
     0
  0
APPID
  2
ACAD_DSTYLE_DIMTALN
 70
     0
  0
APPID
  2
ACDBATTR
 70
     0
  0
APPID
  2
ACADANNOTATIVE
 70
     0
  0
APPID
  2
DCO15
 70
     0
  0
ENDTAB
  0
TABLE
  2
DIMSTYLE
 70
     1
  0
DIMSTYLE
  2
STANDARD
 70
     0
  3

  4

  5

  6

  7

 40
1.0
 41
0.1875
 42
0.0625
 43
0.38
 44
0.125
 45
0.0
 46
0.0
 47
0.01
 48
0.01
140
0.15625
141
0.09
142
0.0
143
25.3999999999999986
144
1.0
145
0.0
146
1.0
147
0.09
 71
     1
 72
     0
 73
     1
 74
     1
 75
     0
 76
     0
 77
     0
 78
     4
170
     0
171
     2
172
     0
173
     0
174
     0
175
     0
176
     0
177
     0
178
     0
  0
ENDTAB
  0
ENDSEC
  0
SECTION
  2
BLOCKS
  0
BLOCK
  8
0
  2
$MODEL_SPACE
 70
     0
 10
0.0
 20
0.0
 30
0.0
  3
$MODEL_SPACE
  1

  0
ENDBLK
  5
21
  8
0
  0
BLOCK
 67
     1
  8
0
  2
$PAPER_SPACE
 70
     0
 10
0.0
 20
0.0
 30
0.0
  3
$PAPER_SPACE
  1

  0
ENDBLK
  5
1D
 67
     1
  8
0
  0
BLOCK
  8
0
  2
_FILLED
 70
     0
 10
0.0
 20
0.0
 30
0.0
  3
_FILLED
  1

  0
SOLID
  5
257AF
  8
0
  6
BYBLOCK
 62
     0
 10
0.0
 20
0.0
 30
0.0
 11
-1.0
 21
0.1666666667
 31
0.0
 12
-1.0
 22
-0.1666666667
 32
0.0
 13
-1.0
 23
-0.1666666667
 33
0.0
  0
ENDBLK
  5
257B0
  8
0
  6
BYBLOCK
 62
     0
  0
ENDSEC
  0
SECTION
  2
ENTITIES
  0
ATTDEF
  5
256E4
  8
DEFPOINTS
 10
6555.9142565337278938
 20
180.9951040044641104
 30
0.0
 40
0.001
  1
K-29546T-4
  3

  2
MODELNUMBER
 70
     0
1001
ACDBATTR
1070
     0
1070
     1
  0
ATTDEF
  5
256E5
  8
DEFPOINTS
 10
6555.9141307240715832
 20
180.9934371640850088
 30
0.0
 40
0.001
  1
FORE ARC
  3

  2
TRADENAME
 70
     0
1001
ACDBATTR
1070
     0
1070
     1
  0
ATTDEF
  5
256E6
  8
DEFPOINTS
 10
6555.9142565337278938
 20
180.9917706711308085
 30
0.0
 40
0.001
  1
BATHROOM SINK FAUCET
  3

  2
PRODUCT
 70
     0
1001
ACDBATTR
1070
     0
1070
     1
  0
ARC
  5
2DCF9
  8
0
 10
6555.9232540008815704
 20
180.9909346677924873
 30
0.0
 40
0.8155893339235396
 50
358.2871475196639039
 51
181.7128524803115965
  0
ARC
  5
2DCFA
  8
0
 10
6555.9232540008815704
 20
180.9909346677924873
 30
0.0
 40
0.808234756099857
 50
1.7361525368875941
 51
178.2638474626386937
  0
ARC
  5
2DCFB
  8
0
 10
6456.778124242998274
 20
175.5184187879895887
 30
0.0
 40
98.4807209027192556
 50
1.9467459720933831
 51
3.1713286580913209
  0
ARC
  5
2DCFC
  8
0
 10
6793.6819982824808903
 20
186.9086724436018869
 30
0.0
 40
238.6156447913029126
 50
181.9320642925837888
 51
182.3186364572119089
  0
ARC
  5
2DCFD
  8
0
 10
6630.6688475487899268
 20
180.3082788574787969
 30
0.0
 40
75.4689239918436101
 50
182.3186364572102889
 51
182.9627143321540927
  0
ARC
  5
2DCFE
  8
0
 10
6595.8854690061953079
 20
178.5080561817678984
 30
0.0
 40
40.6389911104889165
 50
182.9627143321525011
 51
183.7930846167996037
  0
ARC
  5
2DCFF
  8
0
 10
6555.5899406422777247
 20
175.8365150750732937
 30
0.0
 40
0.255
 50
183.7930846167948005
 51
266.8791715121478774
  0
ARC
  5
2DD00
  8
0
 10
6555.9472562490309429
 20
180.4444235189149026
 30
0.0
 40
4.8766780424914193
 50
265.6345928988322953
 51
269.7179979776598771
  0
ARC
  5
2DD01
  8
0
 10
6636.7338096054445487
 20
182.1200001648159059
 30
0.0
 40
81.5742385233408669
 50
182.5899600381900996
 51
183.4045235992755067
  0
ARC
  5
2DD02
  8
0
 10
7073.3513321152704521
 20
201.8700200307686998
 30
0.0
 40
518.6382203924989653
 50
182.4822706987833101
 51
182.589960038188508
  0
ARC
  5
2DD03
  8
0
 10
6495.7078051595372017
 20
176.8286402389784939
 30
0.0
 40
59.5478352468040981
 50
2.4822706987833101
 51
3.1544816203910719
  0
ARC
  5
2DD04
  8
0
 10
9828.9685169936474267
 20
360.5305918713423807
 30
0.0
 40
3278.7711099845200806
 50
183.1385561542994935
 51
183.1544816203910102
  0
LINE
  5
2DD05
  8
0
 10
6555.5331320737013812
 20
177.0593574200055969
 30
0.0
 11
6556.3133759280617596
 21
177.0593574200055969
 31
0.0
  0
ARC
  5
2DD06
  8
0
 10
6555.5331320737013812
 20
177.2893574200055014
 30
0.0
 40
0.23
 50
183.4045235992707035
 51
270.0
  0
ARC
  5
2DD07
  8
0
 10
6655.0683837587657763
 20
175.5184187879895887
 30
0.0
 40
98.4807209027192556
 50
176.828671341908688
 51
178.0532540279066041
  0
ARC
  5
2DD08
  8
0
 10
6318.1645097192813409
 20
186.9086724436018869
 30
0.0
 40
238.6156447913029126
 50
357.6813635427880058
 51
358.0679357074162112
  0
ARC
  5
2DD09
  8
0
 10
6481.177660452971395
 20
180.3082788574787969
 30
0.0
 40
75.4689239918436101
 50
357.0372856678458788
 51
357.6813635427897111
  0
ARC
  5
2DD0A
  8
0
 10
6515.9610389955669234
 20
178.5080561817678984
 30
0.0
 40
40.6389911104889165
 50
356.2069153832003963
 51
357.0372856678475273
  0
ARC
  5
2DD0B
  8
0
 10
6556.2565673594863256
 20
175.8365150750732937
 30
0.0
 40
0.255
 50
273.1208284878521226
 51
356.206915383205228
  0
ARC
  5
2DD0C
  8
0
 10
6555.8992517527312884
 20
180.4444235189149026
 30
0.0
 40
4.8766780424914193
 50
270.2820020223401229
 51
274.3654071011677047
  0
ARC
  5
2DD0D
  8
0
 10
6475.1126983963185921
 20
182.1200001648159059
 30
0.0
 40
81.5742385233408669
 50
356.5954764007245217
 51
357.4100399618099004
  0
ARC
  5
2DD0E
  8
0
 10
6038.4951758864926887
 20
201.8700200307686998
 30
0.0
 40
518.6382203924989653
 50
357.410039961811492
 51
357.5177293012167183
  0
ARC
  5
2DD0F
  8
0
 10
6616.1387028422250296
 20
176.8286402389784939
 30
0.0
 40
59.5478352468040981
 50
176.8455183796089045
 51
177.5177293012166899
  0
ARC
  5
2DD10
  8
0
 10
3282.8779910081161688
 20
360.5305918713423807
 30
0.0
 40
3278.7711099845200806
 50
356.8455183796090182
 51
356.8614438457004781
  0
ARC
  5
2DD11
  8
0
 10
6556.3133759280617596
 20
177.2893574200055014
 30
0.0
 40
0.23
 50
270.0
 51
356.5954764007292965
  0
ARC
  5
2DD13
  8
0
 10
6555.9232540008815704
 20
180.9909346677924873
 30
0.0
 40
0.9448818898000004
 50
326.6211230818854006
 51
84.6206210070034359
  0
ARC
  5
2DD14
  8
0
 10
6555.9232540008815704
 20
180.9909346677924873
 30
0.0
 40
0.9448818898000004
 50
95.3793789929965641
 51
213.3788769181159921
  0
LINE
  5
2DD15
  8
0
 10
6555.7854587252813872
 20
182.0471634167139996
 30
0.0
 11
6555.7854587252813872
 21
182.2696487486115871
 31
0.0
  0
LINE
  5
2DD16
  8
0
 10
6556.0610492764808441
 20
182.2696487486115871
 30
0.0
 11
6556.0610492764808441
 21
182.0471634167139996
 31
0.0
  0
ARC
  5
2DD17
  8
0
 10
6555.9336317404713554
 20
182.2271744335969004
 30
0.0
 40
0.1541405523103165
 50
93.8604429242055289
 51
164.0048642231384122
  0
ARC
  5
2DD18
  8
0
 10
6555.9197122823879909
 20
182.2621912936720889
 30
0.0
 40
0.1358934027590115
 50
188.9099983573921122
 51
271.4934389586488805
  0
ARC
  5
2DD19
  8
0
 10
6555.911385604114912
 20
182.0579454073771046
 30
0.0
 40
0.1263876186007231
 50
184.8937889417933889
 51
236.4768041639925968
  0
ARC
  5
2DD1A
  8
0
 10
6555.9281964549882105
 20
182.0857076497831031
 30
0.0
 40
0.1588216257147603
 50
236.9522156996461888
 51
268.2166944449318748
  0
ARC
  5
2DD1B
  8
0
 10
6555.9128762612917853
 20
182.2271744335969004
 30
0.0
 40
0.1541405523103165
 50
15.9951357768615292
 51
86.1395570757944569
  0
ARC
  5
2DD1C
  8
0
 10
6555.9267957193760594
 20
182.2621912936720889
 30
0.0
 40
0.1358934027590115
 50
268.5065610413510058
 51
351.0900016426077741
  0
ARC
  5
2DD1D
  8
0
 10
6555.9351223976482288
 20
182.0579454073771046
 30
0.0
 40
0.1263876186007231
 50
303.5231958360074032
 51
355.1062110582064975
  0
ARC
  5
2DD1E
  8
0
 10
6555.9183115467749303
 20
182.0857076497831031
 30
0.0
 40
0.1588216257147603
 50
271.7833055550681252
 51
303.0477843003537828
  0
LINE
  5
2DD1F
  8
0
 10
6555.8346713236805954
 20
181.9575026410221028
 30
0.0
 11
6555.8346713236805954
 21
181.8016991656029973
 31
0.0
  0
LINE
  5
2DD20
  8
0
 10
6556.0118366780807264
 20
181.9575026410221028
 30
0.0
 11
6556.0118366780807264
 21
181.8016991656029973
 31
0.0
  0
ENDSEC
  0
EOF
