  0
SECTION
  2
HEADER
  9
$ACADVER
  1
AC1009
  9
$INSBASE
 10
4288.1463460502891394
 20
212.8075287229783044
 30
0.0
  9
$EXTMIN
 10
4283.6281008848281999
 20
212.7990925049178941
 30
0.0
  9
$EXTMAX
 10
4289.0342404404882473
 20
218.9167419863478017
 30
0.0
  9
$LIMMIN
 10
0.0
 20
0.0
  9
$LIMMAX
 10
11.6929133858000007
 20
8.2677165353999982
  9
$ORTHOMODE
 70
     0
  9
$REGENMODE
 70
     1
  9
$FILLMODE
 70
     1
  9
$QTEXTMODE
 70
     0
  9
$MIRRTEXT
 70
     0
  9
$DRAGMODE
 70
     2
  9
$LTSCALE
 40
0.6431102362
  9
$OSMODE
 70
  4095
  9
$ATTMODE
 70
     1
  9
$TEXTSIZE
 40
0.2
  9
$TRACEWID
 40
0.05
  9
$TEXTSTYLE
  7
STANDARD
  9
$CLAYER
  8
0
  9
$CELTYPE
  6
BYLAYER
  9
$CECOLOR
 62
   256
  9
$DIMSCALE
 40
1.0
  9
$DIMASZ
 40
0.1875
  9
$DIMEXO
 40
0.0625
  9
$DIMDLI
 40
0.4443307087
  9
$DIMRND
 40
0.0
  9
$DIMDLE
 40
0.0
  9
$DIMEXE
 40
0.125
  9
$DIMTP
 40
0.01
  9
$DIMTM
 40
0.01
  9
$DIMTXT
 40
2.0
  9
$DIMCEN
 40
0.1052362205
  9
$DIMTSZ
 40
0.0
  9
$DIMTOL
 70
     1
  9
$DIMLIM
 70
     0
  9
$DIMTIH
 70
     1
  9
$DIMTOH
 70
     1
  9
$DIMSE1
 70
     0
  9
$DIMSE2
 70
     0
  9
$DIMTAD
 70
     0
  9
$DIMZIN
 70
     0
  9
$DIMBLK
  1

  9
$DIMASO
 70
     1
  9
$DIMSHO
 70
     1
  9
$DIMPOST
  1
\X
  9
$DIMAPOST
  1

  9
$DIMALT
 70
     1
  9
$DIMALTD
 70
     2
  9
$DIMALTF
 40
25.3999999999999986
  9
$DIMLFAC
 40
1.0
  9
$DIMTOFL
 70
     0
  9
$DIMTVP
 40
0.0
  9
$DIMTIX
 70
     0
  9
$DIMSOXD
 70
     0
  9
$DIMSAH
 70
     0
  9
$DIMBLK1
  1

  9
$DIMBLK2
  1

  9
$DIMSTYLE
  2
STANDARD
  9
$DIMCLRD
 70
     0
  9
$DIMCLRE
 70
     0
  9
$DIMCLRT
 70
     0
  9
$DIMTFAC
 40
1.0
  9
$DIMGAP
 40
0.09
  9
$LUNITS
 70
     2
  9
$LUPREC
 70
     4
  9
$SKETCHINC
 40
0.1
  9
$FILLETRAD
 40
0.0
  9
$AUNITS
 70
     0
  9
$AUPREC
 70
     0
  9
$MENU
  1
.
  9
$ELEVATION
 40
0.0
  9
$PELEVATION
 40
0.0
  9
$THICKNESS
 40
0.0
  9
$LIMCHECK
 70
     0
  9
$BLIPMODE
 70
     0
  9
$CHAMFERA
 40
0.0
  9
$CHAMFERB
 40
0.0
  9
$SKPOLY
 70
     0
  9
$TDCREATE
 40
2458060.468368056230247
  9
$TDUPDATE
 40
2459394.6384259262122214
  9
$TDINDWG
 40
0.5647640046
  9
$TDUSRTIMER
 40
0.5647640046
  9
$USRTIMER
 70
     1
  9
$ANGBASE
 50
0.0
  9
$ANGDIR
 70
     0
  9
$PDMODE
 70
     0
  9
$PDSIZE
 40
0.3125
  9
$PLINEWID
 40
0.0
  9
$COORDS
 70
     1
  9
$SPLFRAME
 70
     0
  9
$SPLINETYPE
 70
     6
  9
$SPLINESEGS
 70
     8
  9
$ATTDIA
 70
     1
  9
$ATTREQ
 70
     1
  9
$HANDLING
 70
     1
  9
$HANDSEED
  5
A6C4
  9
$SURFTAB1
 70
     6
  9
$SURFTAB2
 70
     6
  9
$SURFTYPE
 70
     6
  9
$SURFU
 70
     6
  9
$SURFV
 70
     6
  9
$UCSNAME
  2

  9
$UCSORG
 10
0.0
 20
0.0
 30
0.0
  9
$UCSXDIR
 10
1.0
 20
0.0
 30
0.0
  9
$UCSYDIR
 10
0.0
 20
1.0
 30
0.0
  9
$PUCSNAME
  2

  9
$PUCSORG
 10
0.0
 20
0.0
 30
0.0
  9
$PUCSXDIR
 10
1.0
 20
0.0
 30
0.0
  9
$PUCSYDIR
 10
0.0
 20
1.0
 30
0.0
  9
$USERI1
 70
     0
  9
$USERI2
 70
     0
  9
$USERI3
 70
     0
  9
$USERI4
 70
     0
  9
$USERI5
 70
     0
  9
$USERR1
 40
0.0
  9
$USERR2
 40
0.0
  9
$USERR3
 40
0.0
  9
$USERR4
 40
0.0
  9
$USERR5
 40
0.0
  9
$WORLDVIEW
 70
     1
  9
$SHADEDGE
 70
     3
  9
$SHADEDIF
 70
    70
  9
$TILEMODE
 70
     1
  9
$MAXACTVP
 70
    64
  9
$PLIMCHECK
 70
     0
  9
$PEXTMIN
 10
1.0000000000000000E+20
 20
1.0000000000000000E+20
 30
1.0000000000000000E+20
  9
$PEXTMAX
 10
-1.0000000000000000E+20
 20
-1.0000000000000000E+20
 30
-1.0000000000000000E+20
  9
$PLIMMIN
 10
0.0
 20
0.0
  9
$PLIMMAX
 10
12.0
 20
9.0
  9
$UNITMODE
 70
     0
  9
$VISRETAIN
 70
     1
  9
$PLINEGEN
 70
     0
  9
$PSLTSCALE
 70
     1
  0
ENDSEC
  0
SECTION
  2
TABLES
  0
TABLE
  2
VPORT
 70
     1
  0
VPORT
  2
*ACTIVE
 70
     0
 10
0.0
 20
0.0
 11
1.0
 21
1.0
 12
36.6007019126586783
 22
0.8181452119414558
 13
0.0
 23
0.0
 14
1.0
 24
1.0
 15
0.0
 25
0.0
 16
0.0
 26
0.0
 36
32.8228630405036199
 17
4249.73046875
 27
215.0397720336914063
 37
0.0
 40
6.1661381166855396
 41
1.67063492063492
 42
50.0
 43
0.0
 44
0.0
 50
0.0
 51
0.0
 71
     0
 72
   100
 73
     1
 74
     1
 75
     0
 76
     0
 77
     0
 78
     0
  0
ENDTAB
  0
TABLE
  2
LTYPE
 70
     2
  0
LTYPE
  2
CONTINUOUS
 70
     0
  3
Solid line
 72
    65
 73
     0
 40
0.0
  0
LTYPE
  2
PHANTOM2
 70
     0
  3
___ _ _ ___ _ _ ___ _ _ ___ _ _
 72
    65
 73
     6
 40
1.25
 49
0.625
 49
-0.125
 49
0.125
 49
-0.125
 49
0.125
 49
-0.125
  0
ENDTAB
  0
TABLE
  2
LAYER
 70
     2
  0
LAYER
  2
0
 70
     0
 62
   255
  6
CONTINUOUS
  0
LAYER
  2
DEFPOINTS
 70
     0
 62
     7
  6
CONTINUOUS
  0
ENDTAB
  0
TABLE
  2
STYLE
 70
     1
  0
STYLE
  2
STANDARD
 70
     0
 40
0.0
 41
0.8
 50
0.0
 71
     0
 42
0.2
  3
txt
  4

  0
ENDTAB
  0
TABLE
  2
VIEW
 70
     1
  0
ENDTAB
  0
TABLE
  2
UCS
 70
     0
  0
ENDTAB
  0
TABLE
  2
APPID
 70
     9
  0
APPID
  2
ACAD
 70
     0
  0
APPID
  2
ACAD_MLEADERVER
 70
     0
  0
APPID
  2
ACAD_EXEMPT_FROM_CAD_STANDARDS
 70
     0
  0
APPID
  2
ACAD_NAV_VCDISPLAY
 70
     0
  0
APPID
  2
ACAECLAYERSTANDARD
 70
     0
  0
APPID
  2
ACCMTRANSPARENCY
 70
     0
  0
APPID
  2
ACAD_DSTYLE_DIMJAG
 70
     0
  0
APPID
  2
ACAD_DSTYLE_DIMTALN
 70
     0
  0
APPID
  2
ACDBATTR
 70
     0
  0
ENDTAB
  0
TABLE
  2
DIMSTYLE
 70
     1
  0
DIMSTYLE
  2
STANDARD
 70
     0
  3

  4

  5

  6

  7

 40
1.0
 41
0.1875
 42
0.0625
 43
0.38
 44
0.125
 45
0.0
 46
0.0
 47
0.01
 48
0.01
140
0.15625
141
0.09
142
0.0
143
25.3999999999999986
144
1.0
145
0.0
146
1.0
147
0.09
 71
     1
 72
     0
 73
     1
 74
     1
 75
     0
 76
     0
 77
     0
 78
     4
170
     0
171
     2
172
     0
173
     0
174
     0
175
     0
176
     0
177
     0
178
     0
  0
ENDTAB
  0
ENDSEC
  0
SECTION
  2
BLOCKS
  0
BLOCK
  8
0
  2
$MODEL_SPACE
 70
     0
 10
0.0
 20
0.0
 30
0.0
  3
$MODEL_SPACE
  1

  0
ENDBLK
  5
21
  8
0
  0
BLOCK
 67
     1
  8
0
  2
$PAPER_SPACE
 70
     0
 10
0.0
 20
0.0
 30
0.0
  3
$PAPER_SPACE
  1

  0
ENDBLK
  5
1D
 67
     1
  8
0
  0
ENDSEC
  0
SECTION
  2
ENTITIES
  0
ATTDEF
  5
3930
  8
DEFPOINTS
 10
4288.1436095132794435
 20
212.8024258382513096
 30
0.0
 40
0.001
  1
K-29581IN-4
  3

  2
MODELNUMBER
 70
     0
1001
ACDBATTR
1070
     0
1070
     1
  0
ATTDEF
  5
3931
  8
DEFPOINTS
 10
4288.1436095132794435
 20
212.8007591715845876
 30
0.0
 40
0.001
  1
TAUT
  3

  2
TRADENAME
 70
     0
1001
ACDBATTR
1070
     0
1070
     1
  0
ATTDEF
  5
3932
  8
DEFPOINTS
 10
4288.1436095132794435
 20
212.7990925049178941
 30
0.0
 40
0.001
  1
BATHROOM SINK FAUCET
  3

  2
PRODUCT
 70
     0
1001
ACDBATTR
1070
     0
1070
     1
  0
ARC
  5
A551
  8
0
 10
4285.0124023455264251
 20
218.8852459190800062
 30
0.0
 40
0.0314960672677938
 50
90.0000032158251457
 51
180.000053723238608
  0
ARC
  5
A552
  8
0
 10
4285.0124064206120238
 20
218.7608376958197027
 30
0.0
 40
0.0315077681232423
 50
178.7436909207272038
 51
266.747445849828523
  0
LINE
  5
A553
  8
0
 10
4284.9809062263620945
 20
218.7615285027819994
 30
0.0
 11
4284.9809062782587716
 21
218.8852458895478037
 31
0.0
  0
LINE
  5
A554
  8
0
 10
4285.0124023437592768
 20
218.9167419863478017
 30
0.0
 11
4288.784126426315197
 21
218.9167419863478017
 31
0.0
  0
ARC
  5
A555
  8
0
 10
-58379.0465651461636298
 20
-1104588.889813520014286
 30
0.0
 40
1106583.3269538760650903
 50
86.7535991235235855
 51
86.7536943503161524
  0
ARC
  5
A556
  8
0
 10
7886.0108015244632043
 20
63668.673873275402002
 30
0.0
 40
63552.0468127506464953
 50
266.7534122123686871
 51
266.7539142556165075
  0
ARC
  5
A557
  8
0
 10
4287.3982698067138699
 20
218.5150565294339913
 30
0.0
 40
0.0787695440930613
 50
0.0194632031991046
 51
86.7024480270850688
  0
LINE
  5
A558
  8
0
 10
4287.4770393462631546
 20
218.5150832872097055
 30
0.0
 11
4287.4773957641591551
 21
217.9145207516478138
 31
0.0
  0
LINE
  5
A559
  8
0
 10
4288.8152665660581988
 20
217.914521016447793
 30
0.0
 11
4288.8152658182589221
 21
218.2767272231477875
 31
0.0
  0
LINE
  5
A55A
  8
0
 10
4288.8152645509580907
 20
218.8852459223477922
 30
0.0
 11
4288.8152650118581732
 21
218.5286938330478108
 31
0.0
  0
ARC
  5
A55B
  8
0
 10
4289.4658151453713799
 20
218.4027126101327951
 30
0.0
 40
0.6626362084435752
 50
169.0401398244204927
 51
190.9602269171645901
  0
ARC
  5
A55C
  8
0
 10
4288.7821004451652698
 20
218.8835988709861908
 30
0.0
 40
0.0332049799166873
 50
2.8431829385432241
 51
86.50196114480039
  0
ARC
  5
A55D
  8
0
 10
4287.4889200890338543
 20
217.9142376657736122
 30
0.0
 40
0.0115278012413045
 50
178.5928577270584015
 51
269.7289273923229871
  0
ARC
  5
A55E
  8
0
 10
4288.8037187458576227
 20
217.9142603919378018
 30
0.0
 40
0.0115507608635345
 50
270.4539155846376843
 51
1.292897669879741
  0
LINE
  5
A55F
  8
0
 10
4288.8038265506302196
 20
217.9027099935536
 30
0.0
 11
4287.4888655499480592
 21
217.902709993547802
 31
0.0
  0
LINE
  5
A560
  8
0
 10
4287.5853224282591327
 20
217.9027097910164059
 30
0.0
 11
4287.5853224282591327
 21
217.8786931470478123
 31
0.0
  0
LINE
  5
A561
  8
0
 10
4288.7073696723582543
 20
217.9027099775179011
 30
0.0
 11
4288.7073696723582543
 21
217.8786931470478123
 31
0.0
  0
LINE
  5
A562
  8
0
 10
4287.4773957641591551
 20
217.8786933516867066
 30
0.0
 11
4288.8152665660581988
 21
217.8786933516867066
 31
0.0
  0
LINE
  5
A563
  8
0
 10
4288.8152665660581988
 20
217.8786933516867066
 30
0.0
 11
4288.8152665660581988
 21
212.9453239985782886
 31
0.0
  0
LINE
  5
A564
  8
0
 10
4289.0124907806894043
 20
212.9453239985782886
 30
0.0
 11
4287.2802013198888744
 21
212.9453239985782886
 31
0.0
  0
LINE
  5
A565
  8
0
 10
4287.2605192785886175
 20
212.9259825105781943
 30
0.0
 11
4287.258451660089122
 21
212.8075287229783044
 31
0.0
  0
LINE
  5
A566
  8
0
 10
4287.258451660089122
 20
212.8075287229783044
 30
0.0
 11
4289.0342404404882473
 21
212.8075287229783044
 31
0.0
  0
ARC
  5
A567
  8
0
 10
4287.2802013197351698
 20
212.9256389593060987
 30
0.0
 40
0.0196850392721849
 50
89.9999995515916567
 51
179.0000000987641045
  0
LINE
  5
A568
  8
0
 10
4289.0321728219887518
 20
212.9259825105781943
 30
0.0
 11
4289.0342404404882473
 21
212.8075287229783044
 31
0.0
  0
ARC
  5
A569
  8
0
 10
4289.0124907808440184
 20
212.9256389593060987
 30
0.0
 40
0.0196850392721849
 50
0.9999999012358628
 51
90.0000004484083291
  0
LINE
  5
A56A
  8
0
 10
4287.4773957641591551
 20
212.9453239985782886
 30
0.0
 11
4287.4773957641591551
 21
214.9801385432782865
 31
0.0
  0
LINE
  5
A56B
  8
0
 10
4283.6281328678096543
 20
216.3807784029326058
 30
0.0
 11
4283.6281008848600322
 21
217.0854342586135886
 31
0.0
  0
ARC
  5
A56C
  8
0
 10
4286.7893588853539768
 20
217.8819965469934061
 30
0.0
 40
0.6880448079125511
 50
344.8752792072443185
 51
359.7249308642195729
  0
ARC
  5
A56D
  8
0
 10
4286.826544040405679
 20
217.8742979359676895
 30
0.0
 40
0.6501429761411407
 50
314.6246555853639961
 51
344.6751880100260905
  0
ARC
  5
A56E
  8
0
 10
4286.4958816410935469
 20
220.2300932976746992
 30
0.0
 40
3.0240500643609152
 50
270.8219787142376731
 51
275.8224056727107154
  0
ARC
  5
A56F
  8
0
 10
4286.8509454438471948
 20
217.8577728188728031
 30
0.0
 40
0.6212673529450689
 50
284.5019802760468792
 51
314.093544851026877
  0
ARC
  5
A570
  8
0
 10
4286.6823105552339257
 20
218.5465173905878089
 30
0.0
 40
1.330328144804833
 50
275.1903041827023912
 51
284.1053596387279185
  0
ARC
  5
A571
  8
0
 10
4283.6616540525037635
 20
217.0853879823021089
 30
0.0
 40
0.0335531995561503
 50
93.5875188398684656
 51
179.9210180224208102
  0
ARC
  5
A572
  8
0
 10
4283.6732947906348272
 20
216.3809191612803033
 30
0.0
 40
0.0451621421796959
 50
180.1785759470585901
 51
249.7530897421792986
  0
LINE
  5
A573
  8
0
 10
4283.6576656878069116
 20
216.3385475878963007
 30
0.0
 11
4283.7220975698892289
 21
216.3198187158783128
 31
0.0
  0
ARC
  5
A574
  8
0
 10
4283.7306199163767815
 20
216.4389258001905887
 30
0.0
 40
0.1194115904049655
 50
265.9073489708703733
 51
267.0910655032168961
  0
ARC
  5
A575
  8
0
 10
4284.4312484716274412
 20
231.9935667158686101
 30
0.0
 40
15.6898217717927206
 50
267.4184554728462899
 51
268.6110664478997023
  0
ARC
  5
A576
  8
0
 10
4284.7163859976762978
 20
216.2095309878727107
 30
0.0
 40
0.0083121403901457
 50
249.5751950416384943
 51
268.1439273747657239
  0
ARC
  5
A577
  8
0
 10
4284.2343580698316146
 20
215.0135526568035971
 30
0.0
 40
1.281153931232712
 50
68.0386561368474503
 51
74.0978308881008445
  0
ARC
  5
A578
  8
0
 10
-42321.9545117617381038
 20
-1759655.8054070409853011
 30
0.0
 40
1760489.0404282161034644
 50
88.4829603746536293
 51
88.4829910977194061
  0
ARC
  5
A579
  8
0
 10
4284.7771284122500219
 20
215.062090328911097
 30
0.0
 40
2.7015106638595698
 50
358.2616348813165246
 51
7.6634211565313581
  0
ARC
  5
A57A
  8
0
 10
4284.6038500458180351
 20
167.4694823025087089
 30
0.0
 40
48.7181941586593226
 50
87.9025558274605032
 51
88.7580462245382478
  0
ARC
  5
A57B
  8
0
 10
4286.5625420095730078
 20
215.295799273340009
 30
0.0
 40
0.9009007470865896
 50
8.0748777951684403
 51
34.3007079799594905
  0
ARC
  5
A57C
  8
0
 10
4286.3697459939003238
 20
214.1892339884668104
 30
0.0
 40
1.9658774037689639
 50
73.1416600474153284
 51
89.5002237185054952
  0
ARC
  5
A57D
  8
0
 10
4286.6513319381801921
 20
215.2888035342112119
 30
0.0
 40
0.833365757118474
 50
38.141022045573898
 51
69.7434773204303013
  0
ARC
  5
A57E
  8
0
 10
4286.7674336959844368
 20
218.1932295406888045
 30
0.0
 40
1.4143310752577161
 50
336.3963237804567257
 51
347.1504167559497773
  0
ARC
  5
A57F
  8
0
 10
4287.430396753587047
 20
217.9443436619631882
 30
0.0
 40
0.7081654888319086
 50
299.5034665371392748
 51
333.3696092622901119
  0
ARC
  5
A580
  8
0
 10
4287.3315600020041529
 20
218.273261293732503
 30
0.0
 40
1.0458681424608369
 50
276.4101900604993034
 51
295.338268126784385
  0
ARC
  5
A581
  8
0
 10
4286.8107841959763391
 20
222.8289794947125131
 30
0.0
 40
5.6312537397961231
 50
270.0490041608587148
 51
276.5006803430704849
  0
LINE
  5
A582
  8
0
 10
4284.9809062263620945
 20
218.7615285027819994
 30
0.0
 11
4288.1234234776957237
 21
218.6414568322427954
 31
0.0
  0
ARC
  5
A583
  8
0
 10
4287.6501170154760985
 20
219.6521017101150903
 30
0.0
 40
1.1159848011276869
 50
278.1880941056127199
 51
295.0946908659219048
  0
LINE
  5
A584
  8
0
 10
4287.4770393462631546
 20
218.5150832872097055
 30
0.0
 11
4287.8090592067746911
 21
218.5474934283369066
 31
0.0
  0
LINE
  5
A585
  8
0
 10
4283.6288596123049501
 20
216.3708084300575081
 30
0.0
 11
4286.2522046589383535
 21
216.2970377286679877
 31
0.0
  0
ARC
  5
A586
  8
0
 10
4282.6388921480947829
 20
81.8128205292866966
 30
0.0
 40
134.5357411063891959
 50
88.0367958453690562
 51
88.4609526978589997
  0
ARC
  5
A587
  8
0
 10
4287.3429429342004369
 20
215.4639592037819114
 30
0.0
 40
0.7922055521565069
 50
5.6679188972916998
 51
61.0326189391426013
  0
ARC
  5
A588
  8
0
 10
4287.2526736792660813
 20
215.2154406696496096
 30
0.0
 40
1.054164407236388
 50
63.2825069178761623
 51
90.2663372155998474
  0
LINE
  5
A589
  8
0
 10
4287.4773957641591551
 20
214.980138046569607
 30
0.0
 11
4288.1463460502891394
 21
214.9801381111223861
 31
0.0
  0
ARC
  5
A58A
  8
0
 10
4279.6429449147890409
 20
215.0333678442783878
 30
0.0
 40
8.5035677380556844
 50
359.6413436023435111
 51
3.430481331413227
  0
ARC
  5
A58B
  8
0
 10
4253.4947737219117698
 20
1257.5514024137748947
 30
0.0
 40
1040.8697119264279536
 50
271.6606849307680136
 51
271.8192747668608718
  0
ARC
  5
A58C
  8
0
 10
4323.6537532039383223
 20
-1256.1552422599329475
 30
0.0
 40
1473.8134291425130868
 50
91.4322644033256324
 51
91.5555274148949962
  0
ARC
  5
A58D
  8
0
 10
4283.5846016683253765
 20
192.672311072504101
 30
0.0
 40
23.6406436975809413
 50
88.4309848149843845
 51
88.8696992999614963
  0
ARC
  5
A58E
  8
0
 10
4284.177992252556578
 20
214.879094026232508
 30
0.0
 40
1.4260167092349321
 50
73.3999996654819
 51
87.8332277243549555
  0
ARC
  5
A58F
  8
0
 10
4284.3486353406542548
 20
216.7241132010188096
 30
0.0
 40
0.5134263830911778
 50
234.0580302587798087
 51
239.7320002813692952
  0
ARC
  5
A590
  8
0
 10
4284.4235834935007006
 20
216.8525361958263886
 30
0.0
 40
0.6621196620599779
 50
239.7320002813692952
 51
244.9319090719986036
  0
ARC
  5
A591
  8
0
 10
4284.1858817554139023
 20
216.3285392602282968
 30
0.0
 40
0.0870261880826687
 50
240.5141247972676979
 51
287.9596619103871262
  0
ARC
  5
A592
  8
0
 10
4284.1575030528765637
 20
216.4111934814175129
 30
0.0
 40
0.1744100180787607
 50
288.455625192058676
 51
306.9504297954878211
  0
ARC
  5
A593
  8
0
 10
4284.2784815494187569
 20
216.2905623684343084
 30
0.0
 40
0.0795797306165214
 50
214.2682757774200013
 51
256.1937372963225243
  0
ARC
  5
A594
  8
0
 10
4284.3755641100706271
 20
216.6856253360280959
 30
0.0
 40
0.4863963624631007
 50
256.1937372963225243
 51
268.8623693530540777
  0
ARC
  5
A595
  8
0
 10
4284.3912155521884415
 20
216.7653888582229058
 30
0.0
 40
0.5666294898371821
 50
267.4400428838623043
 51
277.9547516210853928
  0
ARC
  5
A596
  8
0
 10
4284.2703110433722031
 20
216.3425957528552033
 30
0.0
 40
0.130623894206538
 50
267.3987811548150262
 51
309.6555468218634246
  0
LINE
  5
A597
  8
0
 10
4284.1574769055387151
 20
216.306012610743096
 30
0.0
 11
4284.5433226449522408
 21
216.1801794444598102
 31
0.0
  0
ARC
  5
A598
  8
0
 10
4284.5310483208240839
 20
216.223151241340787
 30
0.0
 40
0.0446904278438509
 50
285.9412878826911992
 51
340.5839348869473042
  0
ARC
  5
A599
  8
0
 10
4283.7883316812540215
 20
216.4849371565329932
 30
0.0
 40
0.8321927275793964
 50
340.5839348869473042
 51
343.2913889117314739
  0
LINE
  5
A59A
  8
0
 10
4284.1688285544887549
 20
216.2840817213782998
 30
0.0
 11
4284.1816787471343559
 21
216.2796261979171106
 31
0.0
  0
LINE
  5
A59B
  8
0
 10
4284.1816787470070267
 20
216.2796261979611074
 30
0.0
 11
4284.191668146207121
 21
216.2696219069025005
 31
0.0
  0
LINE
  5
A59C
  8
0
 10
4284.191668146207121
 20
216.2696219069025005
 30
0.0
 11
4284.1833784526188538
 21
216.2661322019685031
 31
0.0
  0
LINE
  5
A59D
  8
0
 10
4284.1833784526188538
 20
216.2661322019685031
 30
0.0
 11
4284.1650767712899324
 21
216.2725775241470956
 31
0.0
  0
LINE
  5
A59E
  8
0
 10
4284.1688282696350143
 20
216.2840808479209045
 30
0.0
 11
4284.1650767712899324
 21
216.2725775241470956
 31
0.0
  0
LINE
  5
A59F
  8
0
 10
4284.1833784526188538
 20
216.2661322019685031
 30
0.0
 11
4284.1862475082889432
 21
216.2749296674782897
 31
0.0
  0
LINE
  5
A5A0
  8
0
 10
4284.1538476518098832
 20
216.2913924017587135
 30
0.0
 11
4284.1720313112318763
 21
216.2845874644357025
 31
0.0
  0
LINE
  5
A5A1
  8
0
 10
4284.1720313112318763
 20
216.2845874644357025
 30
0.0
 11
4284.1806824874101949
 21
216.289185593474599
 31
0.0
  0
LINE
  5
A5A2
  8
0
 10
4284.1806824874101949
 20
216.289185593474599
 30
0.0
 11
4284.1711851575100809
 21
216.3006987296112982
 31
0.0
  0
LINE
  5
A5A3
  8
0
 10
4284.1711851575100809
 20
216.3006987296112982
 30
0.0
 11
4284.1584193912885894
 21
216.3054131322782894
 31
0.0
  0
LINE
  5
A5A4
  8
0
 10
4284.1584193912885894
 20
216.3054131322782894
 30
0.0
 11
4284.1538476518098832
 21
216.2913924017587135
 31
0.0
  0
LINE
  5
A5A5
  8
0
 10
4284.1924758560899136
 20
216.2945986483362901
 30
0.0
 11
4284.188937048533262
 21
216.2833802725577925
 31
0.0
  0
LINE
  5
A5A6
  8
0
 10
4284.188937048533262
 20
216.2833802725577925
 30
0.0
 11
4284.2074477410797044
 21
216.2779113490510952
 31
0.0
  0
LINE
  5
A5A7
  8
0
 10
4284.2074477410797044
 20
216.2779113490510952
 30
0.0
 11
4284.2164353736689009
 21
216.283541163666797
 31
0.0
  0
LINE
  5
A5A8
  8
0
 10
4284.2164353736689009
 20
216.283541163666797
 30
0.0
 11
4284.2124196703989583
 21
216.288094511978187
 31
0.0
  0
LINE
  5
A5A9
  8
0
 10
4284.2074477410460531
 20
216.2779113490306884
 30
0.0
 11
4284.2109274152044236
 21
216.2885811707047026
 31
0.0
  0
LINE
  5
A5AA
  8
0
 10
4284.2050599356889506
 20
216.2768240230782908
 30
0.0
 11
4284.2009580332887708
 21
216.2642462453783025
 31
0.0
  0
LINE
  5
A5AB
  8
0
 10
4284.2009580332887708
 20
216.2642462453783025
 30
0.0
 11
4284.2177794007902776
 21
216.2730473794782995
 31
0.0
  0
LINE
  5
A5AC
  8
0
 10
4284.2177794007902776
 20
216.2730473794782995
 30
0.0
 11
4284.2172885859035887
 21
216.2735431378619921
 31
0.0
  0
LINE
  5
A5AD
  8
0
 10
4284.2172885859035887
 20
216.2735431378619921
 30
0.0
 11
4284.2050599356889506
 21
216.2768240230782908
 31
0.0
  0
LINE
  5
A5AE
  8
0
 10
4284.1781579253893142
 20
216.2563588221782993
 30
0.0
 11
4284.1811538352885691
 21
216.2655452640782983
 31
0.0
  0
LINE
  5
A5AF
  8
0
 10
4284.1811538352885691
 20
216.2655452640782983
 30
0.0
 11
4284.1931788078309182
 21
216.2616398365130124
 31
0.0
  0
LINE
  5
A5B0
  8
0
 10
4284.1931788078309182
 20
216.2616398365130124
 30
0.0
 11
4284.1936877883226771
 21
216.2611997798935022
 31
0.0
  0
LINE
  5
A5B1
  8
0
 10
4284.1936877883226771
 20
216.2611997798935022
 30
0.0
 11
4284.1781579253893142
 21
216.2563588221782993
 31
0.0
  0
LINE
  5
A5B2
  8
0
 10
4284.1571162457894388
 20
216.2538633161782968
 30
0.0
 11
4284.1590877131893649
 21
216.259908481578293
 31
0.0
  0
LINE
  5
A5B3
  8
0
 10
4284.1590877131893649
 20
216.259908481578293
 30
0.0
 11
4284.1709200264886022
 21
216.2554122976783049
 31
0.0
  0
LINE
  5
A5B4
  8
0
 10
4284.1709200264886022
 20
216.2554122976783049
 30
0.0
 11
4284.1714453389085975
 21
216.2550223200863115
 31
0.0
  0
LINE
  5
A5B5
  8
0
 10
4284.1714453389085975
 20
216.2550223200863115
 30
0.0
 11
4284.1571162457894388
 21
216.2538633161782968
 31
0.0
  0
LINE
  5
A5B6
  8
0
 10
4284.1377527061749788
 20
216.2565135378850982
 30
0.0
 11
4284.1387455582607799
 21
216.2595579478129935
 31
0.0
  0
LINE
  5
A5B7
  8
0
 10
4284.1387455582607799
 20
216.2595579478129935
 30
0.0
 11
4284.1503900055886334
 21
216.2544857053783005
 31
0.0
  0
LINE
  5
A5B8
  8
0
 10
4284.1503900055886334
 20
216.2544857053783005
 30
0.0
 11
4284.1509304725796028
 21
216.2541421964203892
 31
0.0
  0
LINE
  5
A5B9
  8
0
 10
4284.1509304725796028
 20
216.2541421964203892
 30
0.0
 11
4284.1377527061977162
 21
216.2565135378787033
 31
0.0
  0
LINE
  5
A5BA
  8
0
 10
4284.1051218447892097
 20
216.2748116103782934
 30
0.0
 11
4284.1044301001084023
 21
216.2726904945384092
 31
0.0
  0
LINE
  5
A5BB
  8
0
 10
4284.1044301001084023
 20
216.2726904945384092
 30
0.0
 11
4284.1218596909156986
 21
216.2635710568629008
 31
0.0
  0
LINE
  5
A5BC
  8
0
 10
4284.1218596909156986
 20
216.2635710568629008
 30
0.0
 11
4284.1283238121168324
 21
216.2614629582346879
 31
0.0
  0
LINE
  5
A5BD
  8
0
 10
4284.1283238121168324
 20
216.2614629582346879
 30
0.0
 11
4284.1223798982891822
 21
216.2651661833783123
 31
0.0
  0
LINE
  5
A5BE
  8
0
 10
4284.1223798982891822
 20
216.2651661833783123
 30
0.0
 11
4284.1173583426052573
 21
216.2684742973767129
 31
0.0
  0
LINE
  5
A5BF
  8
0
 10
4284.1173583426052573
 20
216.2684742973767129
 30
0.0
 11
4284.1051215684537965
 21
216.274810763042808
 31
0.0
  0
LINE
  5
A5C0
  8
0
 10
4284.07322257668784
 20
216.2922724965783061
 30
0.0
 11
4284.0851672067710751
 21
216.2850402214110943
 31
0.0
  0
LINE
  5
A5C1
  8
0
 10
4284.0851672067710751
 20
216.2850402214110943
 30
0.0
 11
4284.0960148313179161
 21
216.2776675308406027
 31
0.0
  0
LINE
  5
A5C2
  8
0
 10
4284.0960148313179161
 20
216.2776675308406027
 30
0.0
 11
4284.0898451700268197
 21
216.2806785401718912
 31
0.0
  0
LINE
  5
A5C3
  8
0
 10
4284.07322257668784
 20
216.2922724965783061
 30
0.0
 11
4284.0728267109261651
 21
216.2910586425371946
 31
0.0
  0
LINE
  5
A5C4
  8
0
 10
4284.0495373349040165
 20
216.3083888769430132
 30
0.0
 11
4284.0508797287193374
 21
216.3077923277213017
 31
0.0
  0
LINE
  5
A5C5
  8
0
 10
4284.0508797287193374
 20
216.3077923277213017
 30
0.0
 11
4284.050189691018204
 21
216.3083730149180042
 31
0.0
  0
LINE
  5
A5C6
  8
0
 10
4284.2256596119268579
 20
216.2779642012901036
 30
0.0
 11
4284.2273729635899144
 21
216.2832178992902072
 31
0.0
  0
LINE
  5
A5C7
  8
0
 10
4284.2256596119214009
 20
216.2779642012706915
 30
0.0
 11
4284.2314652074446713
 21
216.2818833244876942
 31
0.0
  0
LINE
  5
A5C8
  8
0
 10
4284.0589485560713001
 20
216.3017529877668039
 30
0.0
 11
4284.0758380263159779
 21
216.2909773634596036
 31
0.0
  0
LINE
  5
A5C9
  8
0
 10
4284.0758380263159779
 20
216.2909773634596036
 30
0.0
 11
4284.0823021474807319
 21
216.2888692648500069
 31
0.0
  0
LINE
  5
A5CA
  8
0
 10
4284.0823021474807319
 20
216.2888692648500069
 30
0.0
 11
4284.0766481468881466
 21
216.2934614586783084
 31
0.0
  0
LINE
  5
A5CB
  8
0
 10
4284.0766481468881466
 20
216.2934614586783084
 30
0.0
 11
4284.0718767986436433
 21
216.2975367905783912
 31
0.0
  0
LINE
  5
A5CC
  8
0
 10
4284.0718767986436433
 20
216.2975367905783912
 30
0.0
 11
4284.0600232020888143
 21
216.3050482045782985
 31
0.0
  0
LINE
  5
A5CD
  8
0
 10
4284.0600232020888143
 20
216.3050482045782985
 30
0.0
 11
4284.0589485560885805
 21
216.3017529877782863
 31
0.0
  0
LINE
  5
A5CE
  8
0
 10
4284.075838026472411
 20
216.2909773633597013
 30
0.0
 11
4284.0766481468881466
 21
216.2934614586783084
 31
0.0
  0
LINE
  5
A5CF
  8
0
 10
4284.0918927586699283
 20
216.2874962131847951
 30
0.0
 11
4284.1040436656157908
 21
216.2808964506623113
 31
0.0
  0
LINE
  5
A5D0
  8
0
 10
4284.1040436656157908
 20
216.2808964506623113
 30
0.0
 11
4284.1088724406890833
 21
216.2769972078783098
 31
0.0
  0
LINE
  5
A5D1
  8
0
 10
4284.1088724406890833
 20
216.2769972078783098
 30
0.0
 11
4284.1145925870314386
 21
216.2726078384214077
 31
0.0
  0
LINE
  5
A5D2
  8
0
 10
4284.1145925870314386
 20
216.2726078384214077
 30
0.0
 11
4284.1078340058893446
 21
216.2738130262783045
 31
0.0
  0
LINE
  5
A5D3
  8
0
 10
4284.1078340058893446
 20
216.2738130262783045
 30
0.0
 11
4284.0905222600822526
 21
216.2832938153528062
 31
0.0
  0
LINE
  5
A5D4
  8
0
 10
4284.0905222600822526
 20
216.2832938153528062
 30
0.0
 11
4284.0918927586699283
 21
216.2874962131847951
 31
0.0
  0
LINE
  5
A5D5
  8
0
 10
4284.1078340069116166
 20
216.2738130260960077
 30
0.0
 11
4284.1088724406890833
 21
216.2769972078783098
 31
0.0
  0
LINE
  5
A5D6
  8
0
 10
4284.1229564056702657
 20
216.2674730390147886
 30
0.0
 11
4284.1246238721878399
 21
216.2725860378783125
 31
0.0
  0
LINE
  5
A5D7
  8
0
 10
4284.1246238721878399
 20
216.2725860378783125
 30
0.0
 11
4284.1370626636071393
 21
216.2668690232667075
 31
0.0
  0
LINE
  5
A5D8
  8
0
 10
4284.1370626636071393
 20
216.2668690232667075
 30
0.0
 11
4284.141944729088209
 21
216.2631331863782975
 31
0.0
  0
LINE
  5
A5D9
  8
0
 10
4284.141944729088209
 20
216.2631331863782975
 30
0.0
 11
4284.1477265535368133
 21
216.2589329421089985
 31
0.0
  0
LINE
  5
A5DA
  8
0
 10
4284.1477265535368133
 20
216.2589329421089985
 30
0.0
 11
4284.1406767576745551
 21
216.2592451703335996
 31
0.0
  0
LINE
  5
A5DB
  8
0
 10
4284.1406767576745551
 20
216.2592451703335996
 30
0.0
 11
4284.1229583122958502
 21
216.2674721347441107
 31
0.0
  0
LINE
  5
A5DC
  8
0
 10
4284.1406767576427228
 20
216.2592451703364986
 30
0.0
 11
4284.141944729088209
 21
216.2631331863782975
 31
0.0
  0
LINE
  5
A5DD
  8
0
 10
4284.0560674648540953
 20
216.3082530769742107
 30
0.0
 11
4284.0626989034872167
 21
216.3039378230722889
 31
0.0
  0
LINE
  5
A5DE
  8
0
 10
4284.0626989034872167
 20
216.3039378230722889
 30
0.0
 11
4284.0694651599196732
 21
216.3027561701233878
 31
0.0
  0
LINE
  5
A5DF
  8
0
 10
4284.0694651599196732
 20
216.3027561701233878
 30
0.0
 11
4284.0640476219077755
 21
216.3080734357492929
 31
0.0
  0
LINE
  5
A5E0
  8
0
 10
4284.0626989034599319
 20
216.3039378230890009
 30
0.0
 11
4284.0640476219077755
 21
216.3080734357492929
 31
0.0
  0
LINE
  5
A5E1
  8
0
 10
4284.0795574358890008
 20
216.3029213875782943
 30
0.0
 11
4284.0774839517252985
 21
216.2965514497446975
 31
0.0
  0
LINE
  5
A5E2
  8
0
 10
4284.0774839517252985
 20
216.2965514497446975
 30
0.0
 11
4284.0946661429270534
 21
216.2866853592217922
 31
0.0
  0
LINE
  5
A5E3
  8
0
 10
4284.0946661429270534
 20
216.2866853592217922
 30
0.0
 11
4284.1017281410686337
 21
216.2864105470679874
 31
0.0
  0
LINE
  5
A5E4
  8
0
 10
4284.1017281410686337
 20
216.2864105470679874
 30
0.0
 11
4284.0962418717890614
 21
216.2915170604782986
 31
0.0
  0
LINE
  5
A5E5
  8
0
 10
4284.0962418717890614
 20
216.2915170604782986
 30
0.0
 11
4284.0916153601756378
 21
216.2960365093483119
 31
0.0
  0
LINE
  5
A5E6
  8
0
 10
4284.0916153601756378
 20
216.2960365093483119
 30
0.0
 11
4284.0795574358890008
 21
216.3029213875782943
 31
0.0
  0
LINE
  5
A5E7
  8
0
 10
4284.0946661429270534
 20
216.2866853592217922
 30
0.0
 11
4284.0962418717890614
 21
216.2915170604782986
 31
0.0
  0
LINE
  5
A5E8
  8
0
 10
4284.1122639221157442
 20
216.2879356966620037
 30
0.0
 11
4284.1098916182891116
 21
216.2806614352782901
 31
0.0
  0
LINE
  5
A5E9
  8
0
 10
4284.1098916182891116
 20
216.2806614352782901
 30
0.0
 11
4284.1274927139002102
 21
216.2720678877564069
 31
0.0
  0
LINE
  5
A5EA
  8
0
 10
4284.1274927139002102
 20
216.2720678877564069
 30
0.0
 11
4284.134848558847807
 21
216.272694106517207
 31
0.0
  0
LINE
  5
A5EB
  8
0
 10
4284.134848558847807
 20
216.272694106517207
 30
0.0
 11
4284.1292981891801901
 21
216.2776040669880899
 31
0.0
  0
LINE
  5
A5EC
  8
0
 10
4284.1292981891801901
 20
216.2776040669880899
 30
0.0
 11
4284.1246164202666478
 21
216.2819540786258017
 31
0.0
  0
LINE
  5
A5ED
  8
0
 10
4284.1246164202666478
 20
216.2819540786258017
 30
0.0
 11
4284.1122639221157442
 21
216.2879356966620037
 31
0.0
  0
LINE
  5
A5EE
  8
0
 10
4284.1274927139002102
 20
216.2720678877564069
 30
0.0
 11
4284.1292983393886971
 21
216.2776045275782906
 31
0.0
  0
LINE
  5
A5EF
  8
0
 10
4284.1458298957068109
 20
216.2755854758478051
 30
0.0
 11
4284.1431535785031883
 21
216.2673790099204041
 31
0.0
  0
LINE
  5
A5F0
  8
0
 10
4284.1431535785031883
 20
216.2673790099204041
 30
0.0
 11
4284.1611619136892841
 21
216.2600341923782992
 31
0.0
  0
LINE
  5
A5F1
  8
0
 10
4284.1611619136892841
 20
216.2600341923782992
 30
0.0
 11
4284.1688139111702185
 21
216.2615685119212969
 31
0.0
  0
LINE
  5
A5F2
  8
0
 10
4284.1688139111702185
 20
216.2615685119212969
 30
0.0
 11
4284.163204469889024
 21
216.2662973392783101
 31
0.0
  0
LINE
  5
A5F3
  8
0
 10
4284.163204469889024
 20
216.2662973392783101
 30
0.0
 11
4284.1584715129802134
 21
216.2704903919374999
 31
0.0
  0
LINE
  5
A5F4
  8
0
 10
4284.1584715129802134
 20
216.2704903919374999
 30
0.0
 11
4284.1458301743887205
 21
216.275586330378303
 31
0.0
  0
LINE
  5
A5F5
  8
0
 10
4284.163204469889024
 20
216.2662973392783101
 30
0.0
 11
4284.1611619136892841
 21
216.2600341923782992
 31
0.0
  0
LINE
  5
A5F6
  8
0
 10
4284.1343984896902839
 20
216.2937823552782959
 30
0.0
 11
4284.1309716352952819
 21
216.2832744961939966
 31
0.0
  0
LINE
  5
A5F7
  8
0
 10
4284.1309716353398471
 20
216.283274496149204
 30
0.0
 11
4284.1488607540113662
 21
216.2755641217798939
 31
0.0
  0
LINE
  5
A5F8
  8
0
 10
4284.1488607540113662
 20
216.2755641217798939
 30
0.0
 11
4284.156840119606386
 21
216.2781022591892963
 31
0.0
  0
LINE
  5
A5F9
  8
0
 10
4284.156840119606386
 20
216.2781022591892963
 30
0.0
 11
4284.1514748288891496
 21
216.2835797324783016
 31
0.0
  0
LINE
  5
A5FA
  8
0
 10
4284.1514748288891496
 20
216.2835797324783016
 30
0.0
 11
4284.1469535950745922
 21
216.2884219975343001
 31
0.0
  0
LINE
  5
A5FB
  8
0
 10
4284.1469535950745922
 20
216.2884219975343001
 30
0.0
 11
4284.1343984896902839
 21
216.2937823552782959
 31
0.0
  0
LINE
  5
A5FC
  8
0
 10
4284.1488607540113662
 20
216.2755641217798939
 30
0.0
 11
4284.1514748288891496
 21
216.2835797324783016
 31
0.0
  0
LINE
  5
A5FD
  8
0
 10
4284.100842888788975
 20
216.3061643820782933
 30
0.0
 11
4284.0977268114229446
 21
216.2966001956993125
 31
0.0
  0
LINE
  5
A5FE
  8
0
 10
4284.0977268114229446
 20
216.2966001956993125
 30
0.0
 11
4284.1151976034889231
 21
216.2876163661759961
 31
0.0
  0
LINE
  5
A5FF
  8
0
 10
4284.1151976034889231
 20
216.2876163661759961
 30
0.0
 11
4284.1228750761556512
 21
216.2892288008285107
 31
0.0
  0
LINE
  5
A600
  8
0
 10
4284.1228750761556512
 20
216.2892288008285107
 30
0.0
 11
4284.1175703973885902
 21
216.2948921302782992
 31
0.0
  0
LINE
  5
A601
  8
0
 10
4284.1175703973885902
 20
216.2948921302782992
 30
0.0
 11
4284.1131015499204295
 21
216.2998950292111999
 31
0.0
  0
LINE
  5
A602
  8
0
 10
4284.1131015499204295
 20
216.2998950292111999
 30
0.0
 11
4284.100842888788975
 21
216.3061643820782933
 31
0.0
  0
LINE
  5
A603
  8
0
 10
4284.1175703973885902
 20
216.2948921302782992
 30
0.0
 11
4284.1151976034889231
 21
216.2876163661759961
 31
0.0
  0
LINE
  5
A604
  8
0
 10
4284.0728635462583043
 20
216.3079120755361089
 30
0.0
 11
4284.0823936891756603
 21
216.3023033104043975
 31
0.0
  0
LINE
  5
A605
  8
0
 10
4284.0823936891756603
 20
216.3023033104043975
 30
0.0
 11
4284.0897732363800969
 21
216.3030022082348864
 31
0.0
  0
LINE
  5
A606
  8
0
 10
4284.0897732363800969
 20
216.3030022082348864
 30
0.0
 11
4284.085595491350432
 21
216.3076456295875118
 31
0.0
  0
LINE
  5
A607
  8
0
 10
4284.0823936890892583
 20
216.3023033103783064
 30
0.0
 11
4284.0841459480698177
 21
216.307676310819005
 31
0.0
  0
LINE
  5
A608
  8
0
 10
4284.1197404283630021
 20
216.3020786230850092
 30
0.0
 11
4284.1374998693172529
 21
216.2939772424639102
 31
0.0
  0
LINE
  5
A609
  8
0
 10
4284.1374998693172529
 20
216.2939772424639102
 30
0.0
 11
4284.1458307277071071
 21
216.2975931720690141
 31
0.0
  0
LINE
  5
A60A
  8
0
 10
4284.1458307277071071
 20
216.2975931720690141
 30
0.0
 11
4284.1386303735162073
 21
216.3064619273538085
 31
0.0
  0
LINE
  5
A60B
  8
0
 10
4284.1407285835894072
 20
216.3038775389782984
 30
0.0
 11
4284.1374998692890586
 21
216.2939772423765987
 31
0.0
  0
LINE
  5
A60C
  8
0
 10
4284.1197404283630021
 20
216.3020786230850092
 30
0.0
 11
4284.1212974559821305
 21
216.3068618841332977
 31
0.0
  0
LINE
  5
A60D
  8
0
 10
4284.3731901817882317
 20
216.2298510906782951
 30
0.0
 11
4284.3789938982354215
 21
216.2337708267104972
 31
0.0
  0
LINE
  5
A60E
  8
0
 10
4284.3731901818373444
 20
216.2298510906612989
 30
0.0
 11
4284.3737555588886607
 21
216.2295839644783086
 31
0.0
  0
LINE
  5
A60F
  8
0
 10
4284.3737555588886607
 20
216.2295839644783086
 30
0.0
 11
4284.3899294995098899
 21
216.2302044757238093
 31
0.0
  0
LINE
  5
A610
  8
0
 10
4284.3875423504032369
 20
216.2186094693223879
 30
0.0
 11
4284.408328303309645
 21
216.2198031705989933
 31
0.0
  0
LINE
  5
A611
  8
0
 10
4284.408328303309645
 20
216.2198031705989933
 30
0.0
 11
4284.4130134493570949
 21
216.2226762689743964
 31
0.0
  0
LINE
  5
A612
  8
0
 10
4284.408328303309645
 20
216.2198031705989933
 30
0.0
 11
4284.409633657915947
 21
216.2237784966654885
 31
0.0
  0
LINE
  5
A613
  8
0
 10
4284.3875423504050559
 20
216.2186094693225016
 30
0.0
 11
4284.3909207370115837
 21
216.2289687101715003
 31
0.0
  0
LINE
  5
A614
  8
0
 10
4284.3909207370115837
 20
216.2289687101715003
 30
0.0
 11
4284.3933026710219565
 21
216.2291044069438044
 31
0.0
  0
LINE
  5
A615
  8
0
 10
4284.4048712384783357
 20
216.2184962032806936
 30
0.0
 11
4284.4022276262221567
 21
216.2103900215419117
 31
0.0
  0
LINE
  5
A616
  8
0
 10
4284.4022276262221567
 20
216.2103900215419117
 30
0.0
 11
4284.4231149248071233
 21
216.2118939490742946
 31
0.0
  0
LINE
  5
A617
  8
0
 10
4284.4231149248071233
 20
216.2118939490742946
 30
0.0
 11
4284.43159720217227
 21
216.2164563188927104
 31
0.0
  0
LINE
  5
A618
  8
0
 10
4284.4231149248071233
 20
216.2118939490742946
 30
0.0
 11
4284.4251737262920869
 21
216.2181860097971082
 31
0.0
  0
LINE
  5
A619
  8
0
 10
4284.43159720217227
 20
216.2164563188927104
 30
0.0
 11
4284.4195657918862707
 21
216.2196960945728961
 31
0.0
  0
LINE
  5
A61A
  8
0
 10
4284.4195657918862707
 20
216.2196960945728961
 30
0.0
 11
4284.4048715183889726
 21
216.2184970615782902
 31
0.0
  0
LINE
  5
A61B
  8
0
 10
4284.4197262755687916
 20
216.2107972993539988
 30
0.0
 11
4284.4177953134276322
 21
216.2048763364842046
 31
0.0
  0
LINE
  5
A61C
  8
0
 10
4284.4177953134276322
 20
216.2048763364842046
 30
0.0
 11
4284.438796311207625
 21
216.2067282804389947
 31
0.0
  0
LINE
  5
A61D
  8
0
 10
4284.438796311207625
 20
216.2067282804389947
 30
0.0
 11
4284.4471707010952741
 21
216.2104574147840879
 31
0.0
  0
LINE
  5
A61E
  8
0
 10
4284.4471707010952741
 20
216.2104574147840879
 30
0.0
 11
4284.440300896516419
 21
216.2113215552058989
 31
0.0
  0
LINE
  5
A61F
  8
0
 10
4284.440300896516419
 20
216.2113215552058989
 30
0.0
 11
4284.4344933741867862
 21
216.2122196380746004
 31
0.0
  0
LINE
  5
A620
  8
0
 10
4284.4344933741867862
 20
216.2122196380746004
 30
0.0
 11
4284.4197262755687916
 21
216.2107972993539988
 31
0.0
  0
LINE
  5
A621
  8
0
 10
4284.4388031415219302
 20
216.2067289471467006
 30
0.0
 11
4284.440300896516419
 21
216.2113215552058989
 31
0.0
  0
LINE
  5
A622
  8
0
 10
4284.4354725878893078
 20
216.2058313372783118
 30
0.0
 11
4284.4342433935671579
 21
216.202062224609989
 31
0.0
  0
LINE
  5
A623
  8
0
 10
4284.4342433935671579
 20
216.202062224609989
 30
0.0
 11
4284.4553788478133356
 21
216.2043061792525123
 31
0.0
  0
LINE
  5
A624
  8
0
 10
4284.4553788478133356
 20
216.2043061792525123
 30
0.0
 11
4284.462262846061094
 21
216.2066149084567996
 31
0.0
  0
LINE
  5
A625
  8
0
 10
4284.4354725878893078
 20
216.2058313372783118
 30
0.0
 11
4284.4503214471133106
 21
216.2075043807136865
 31
0.0
  0
LINE
  5
A626
  8
0
 10
4284.4503214471133106
 20
216.2075043807136865
 30
0.0
 11
4284.4610859334216002
 21
216.2069987267259989
 31
0.0
  0
LINE
  5
A627
  8
0
 10
4284.3660357620701689
 20
216.2146884008064944
 30
0.0
 11
4284.3803832546564081
 21
216.2148240897898006
 31
0.0
  0
LINE
  5
A628
  8
0
 10
4284.3803832546564081
 20
216.2148240897898006
 30
0.0
 11
4284.3925050151156029
 21
216.2113583180361047
 31
0.0
  0
LINE
  5
A629
  8
0
 10
4284.3925050151156029
 20
216.2113583180361047
 30
0.0
 11
4284.3841926806617266
 21
216.207799188720287
 31
0.0
  0
LINE
  5
A62A
  8
0
 10
4284.3841926806617266
 20
216.207799188720287
 30
0.0
 11
4284.3637812787828807
 21
216.207775415939409
 31
0.0
  0
LINE
  5
A62B
  8
0
 10
4284.3637812787828807
 20
216.207775415939409
 30
0.0
 11
4284.3660360140893317
 21
216.2146891735783072
 31
0.0
  0
LINE
  5
A62C
  8
0
 10
4284.3841868333129241
 20
216.2077991272473128
 30
0.0
 11
4284.385936318189124
 21
216.2131457529783063
 31
0.0
  0
LINE
  5
A62D
  8
0
 10
4284.3809144845463379
 20
216.207062124174513
 30
0.0
 11
4284.3794410917889763
 21
216.2022718540783046
 31
0.0
  0
LINE
  5
A62E
  8
0
 10
4284.3794410917889763
 20
216.2022718540783046
 30
0.0
 11
4284.3998687344392238
 21
216.2026348074878968
 31
0.0
  0
LINE
  5
A62F
  8
0
 10
4284.3998687344392238
 20
216.2026348074878968
 30
0.0
 11
4284.407877106500564
 21
216.2052448719491906
 31
0.0
  0
LINE
  5
A630
  8
0
 10
4284.407877106500564
 20
216.2052448719491906
 30
0.0
 11
4284.4010810167892487
 21
216.2063350461783102
 31
0.0
  0
LINE
  5
A631
  8
0
 10
4284.4010810167892487
 20
216.2063350461783102
 30
0.0
 11
4284.3953342294180402
 21
216.2074193622912901
 31
0.0
  0
LINE
  5
A632
  8
0
 10
4284.3953342294180402
 20
216.2074193622912901
 30
0.0
 11
4284.3809144845463379
 21
216.207062124174513
 31
0.0
  0
LINE
  5
A633
  8
0
 10
4284.3998687344392238
 20
216.2026348074878968
 30
0.0
 11
4284.4010810167892487
 21
216.2063350461783102
 31
0.0
  0
LINE
  5
A634
  8
0
 10
4284.4521098958593939
 20
216.2035974601579085
 30
0.0
 11
4284.4515838203033127
 21
216.2019843401739081
 31
0.0
  0
LINE
  5
A635
  8
0
 10
4284.4521102596891069
 20
216.203598575778301
 30
0.0
 11
4284.4660190576241803
 21
216.2053899215106867
 31
0.0
  0
LINE
  5
A636
  8
0
 10
4284.4132705215879469
 20
216.1997777056782866
 30
0.0
 11
4284.4130759909476183
 21
216.1991812108263105
 31
0.0
  0
LINE
  5
A637
  8
0
 10
4284.4132705215879469
 20
216.1997777056782866
 30
0.0
 11
4284.427857468669572
 21
216.2006476405582021
 31
0.0
  0
LINE
  5
A638
  8
0
 10
4284.427857468669572
 20
216.2006476405582021
 30
0.0
 11
4284.4339967503356092
 21
216.2007668405896936
 31
0.0
  0
LINE
  5
A639
  8
0
 10
4284.4339967503356092
 20
216.2007668405896936
 30
0.0
 11
4284.4338662976006162
 21
216.2003668297419097
 31
0.0
  0
LINE
  5
A63A
  8
0
 10
4284.4339967503356092
 20
216.2007668405896936
 30
0.0
 11
4284.4412564513577308
 21
216.2010982505356083
 31
0.0
  0
LINE
  5
A63B
  8
0
 10
4284.4412564513577308
 20
216.2010982505356083
 30
0.0
 11
4284.4338662976006162
 21
216.2003668297419097
 31
0.0
  0
LINE
  5
A63C
  8
0
 10
4284.4563296406358859
 20
216.2072216216596132
 30
0.0
 11
4284.4553788478133356
 21
216.2043061792525123
 31
0.0
  0
LINE
  5
A63D
  8
0
 10
4284.3588209247918712
 20
216.2013412090703071
 30
0.0
 11
4284.3582722526243742
 21
216.1996588000677946
 31
0.0
  0
LINE
  5
A63E
  8
0
 10
4284.3582722526243742
 20
216.1996588000677946
 30
0.0
 11
4284.3784599001201059
 21
216.1989964686189865
 31
0.0
  0
LINE
  5
A63F
  8
0
 10
4284.3784599001201059
 20
216.1989964686189865
 30
0.0
 11
4284.3858289859708748
 21
216.1996632881798917
 31
0.0
  0
LINE
  5
A640
  8
0
 10
4284.3858289859708748
 20
216.1996632881798917
 30
0.0
 11
4284.3788772354882894
 21
216.2002761556782957
 31
0.0
  0
LINE
  5
A641
  8
0
 10
4284.3788772354882894
 20
216.2002761556782957
 30
0.0
 11
4284.3729970546382901
 21
216.2009514435048061
 31
0.0
  0
LINE
  5
A642
  8
0
 10
4284.3729970546382901
 20
216.2009514435048061
 30
0.0
 11
4284.3588209247918712
 21
216.2013412090703071
 31
0.0
  0
LINE
  5
A643
  8
0
 10
4284.3788772354882894
 20
216.2002761556782957
 30
0.0
 11
4284.3784553022051114
 21
216.1989965771905986
 31
0.0
  0
LINE
  5
A644
  8
0
 10
4284.3418580860070506
 20
216.2025769018322876
 30
0.0
 11
4284.3619228026282144
 21
216.2015567991161049
 31
0.0
  0
LINE
  5
A645
  8
0
 10
4284.3619228026282144
 20
216.2015567991161049
 30
0.0
 11
4284.3695949872026176
 21
216.2031338437496117
 31
0.0
  0
LINE
  5
A646
  8
0
 10
4284.3695949872026176
 20
216.2031338437496117
 30
0.0
 11
4284.3628663537228931
 21
216.2044308609225993
 31
0.0
  0
LINE
  5
A647
  8
0
 10
4284.3628663537228931
 20
216.2044308609225993
 30
0.0
 11
4284.3571760204176826
 21
216.2056882837540002
 31
0.0
  0
LINE
  5
A648
  8
0
 10
4284.3571760204176826
 20
216.2056882837540002
 30
0.0
 11
4284.3430774121052309
 21
216.2063157555066937
 31
0.0
  0
LINE
  5
A649
  8
0
 10
4284.3430774121052309
 20
216.2063157555066937
 30
0.0
 11
4284.3418580860070506
 21
216.2025769018322876
 31
0.0
  0
LINE
  5
A64A
  8
0
 10
4284.3619289679891153
 20
216.2015565290782888
 30
0.0
 11
4284.3628663537228931
 21
216.2044308609225993
 31
0.0
  0
LINE
  5
A64B
  8
0
 10
4284.366316966510567
 20
216.2249415567598021
 30
0.0
 11
4284.378013489867044
 21
216.2201718683537024
 31
0.0
  0
LINE
  5
A64C
  8
0
 10
4284.378013489867044
 20
216.2201718683537024
 30
0.0
 11
4284.3693731725779799
 21
216.2156276158717958
 31
0.0
  0
LINE
  5
A64D
  8
0
 10
4284.3693731725779799
 20
216.2156276158717958
 30
0.0
 11
4284.3717013875921111
 21
216.2227458606525943
 31
0.0
  0
LINE
  5
A64E
  8
0
 10
4284.3693731725779799
 20
216.2156276158717958
 30
0.0
 11
4284.3490701707951303
 21
216.2159147667337891
 31
0.0
  0
LINE
  5
A64F
  8
0
 10
4284.3490701707951303
 20
216.2159147667337891
 30
0.0
 11
4284.3484886031892529
 21
216.2161331347782891
 31
0.0
  0
LINE
  5
A650
  8
0
 10
4284.3484886031892529
 20
216.2161331347782891
 30
0.0
 11
4284.3653099706889407
 21
216.224934268878286
 31
0.0
  0
LINE
  5
A651
  8
0
 10
4284.3653099706889407
 20
216.224934268878286
 30
0.0
 11
4284.3663169667079273
 21
216.2249415566799087
 31
0.0
  0
LINE
  5
A652
  8
0
 10
4284.3462414974674175
 20
216.2067200620521135
 30
0.0
 11
4284.3262849230732172
 21
216.2080728129018041
 31
0.0
  0
LINE
  5
A653
  8
0
 10
4284.3263959330697617
 20
216.2084141896191909
 30
0.0
 11
4284.3412183582895523
 21
216.2130866692783115
 31
0.0
  0
LINE
  5
A654
  8
0
 10
4284.3412183582895523
 20
216.2130866692783115
 30
0.0
 11
4284.3422071884888283
 21
216.2130382554782955
 31
0.0
  0
LINE
  5
A655
  8
0
 10
4284.3422071884888283
 20
216.2130382554782955
 30
0.0
 11
4284.3477082631989106
 21
216.2112005037079996
 31
0.0
  0
LINE
  5
A656
  8
0
 10
4284.3477082631989106
 20
216.2112005037079996
 30
0.0
 11
4284.35421377757757
 21
216.2092230828592108
 31
0.0
  0
LINE
  5
A657
  8
0
 10
4284.35421377757757
 20
216.2092230828592108
 30
0.0
 11
4284.3462469829892143
 21
216.2067197395782898
 31
0.0
  0
LINE
  5
A658
  8
0
 10
4284.3462469829892143
 20
216.2067197395782898
 30
0.0
 11
4284.3476844550978058
 21
216.2112081271789066
 31
0.0
  0
LINE
  5
A659
  8
0
 10
4284.3262849230732172
 20
216.2080728129018041
 30
0.0
 11
4284.3263972070890304
 21
216.208418096178292
 31
0.0
  0
LINE
  5
A65A
  8
0
 10
4284.3322510205025537
 20
216.203899499015904
 30
0.0
 11
4284.3248971532893847
 21
216.2032936740953915
 31
0.0
  0
LINE
  5
A65B
  8
0
 10
4284.3248971532893847
 20
216.2032936740953915
 30
0.0
 11
4284.3052572295573555
 21
216.2056211768102969
 31
0.0
  0
LINE
  5
A65C
  8
0
 10
4284.3052572295573555
 20
216.2056211768102969
 30
0.0
 11
4284.3046468157108393
 21
216.2057502055843941
 31
0.0
  0
LINE
  5
A65D
  8
0
 10
4284.3046468157108393
 20
216.2057502055843941
 30
0.0
 11
4284.3189759087890707
 21
216.2069092094783116
 31
0.0
  0
LINE
  5
A65E
  8
0
 10
4284.3189759087890707
 20
216.2069092094783116
 30
0.0
 11
4284.3199484070228209
 21
216.2068107165104038
 31
0.0
  0
LINE
  5
A65F
  8
0
 10
4284.3199484070228209
 20
216.2068107165104038
 30
0.0
 11
4284.3255857340782313
 21
216.2053907592176074
 31
0.0
  0
LINE
  5
A660
  8
0
 10
4284.3255857340782313
 20
216.2053907592176074
 30
0.0
 11
4284.3322510205189246
 21
216.2038994989939908
 31
0.0
  0
LINE
  5
A661
  8
0
 10
4284.3248971532893847
 20
216.2032936740953915
 30
0.0
 11
4284.3255857340782313
 21
216.2053907592176074
 31
0.0
  0
LINE
  5
A662
  8
0
 10
4284.3966593781879055
 20
216.2020918119783062
 30
0.0
 11
4284.3966593781879055
 21
216.2020918119783062
 31
0.0
  0
LINE
  5
A663
  8
0
 10
4284.3966593781879055
 20
216.2020918119783062
 30
0.0
 11
4284.411158311168947
 21
216.2026918669392046
 31
0.0
  0
LINE
  5
A664
  8
0
 10
4284.411158311168947
 20
216.2026918669392046
 30
0.0
 11
4284.4170993657126019
 21
216.2022032374854916
 31
0.0
  0
LINE
  5
A665
  8
0
 10
4284.4170993657126019
 20
216.2022032374854916
 30
0.0
 11
4284.4241247202662635
 21
216.201816064365488
 31
0.0
  0
LINE
  5
A666
  8
0
 10
4284.4241247202662635
 20
216.201816064365488
 30
0.0
 11
4284.4164178730579806
 21
216.200133904432704
 31
0.0
  0
LINE
  5
A667
  8
0
 10
4284.4164178730579806
 20
216.200133904432704
 30
0.0
 11
4284.3957809906987677
 21
216.1993983877883068
 31
0.0
  0
LINE
  5
A668
  8
0
 10
4284.3957809906987677
 20
216.1993983877883068
 30
0.0
 11
4284.3966593781879055
 21
216.2020918119783062
 31
0.0
  0
LINE
  5
A669
  8
0
 10
4284.4164250170988453
 20
216.2001354637500015
 30
0.0
 11
4284.4170993657126019
 21
216.2022032374854916
 31
0.0
  0
LINE
  5
A66A
  8
0
 10
4284.3218948692820049
 20
216.2033883168485886
 30
0.0
 11
4284.3216609132023223
 21
216.2026709308381101
 31
0.0
  0
LINE
  5
A66B
  8
0
 10
4284.3216609132023223
 20
216.2026709308381101
 30
0.0
 11
4284.3414160764186818
 21
216.2006895359766077
 31
0.0
  0
LINE
  5
A66C
  8
0
 10
4284.3414160764186818
 20
216.2006895359766077
 30
0.0
 11
4284.3484748333721654
 21
216.2003977103053955
 31
0.0
  0
LINE
  5
A66D
  8
0
 10
4284.3484748333721654
 20
216.2003977103053955
 30
0.0
 11
4284.3415907911894465
 21
216.2012181933783097
 31
0.0
  0
LINE
  5
A66E
  8
0
 10
4284.3415907911894465
 20
216.2012181933783097
 30
0.0
 11
4284.3357671710546128
 21
216.2020669152533117
 31
0.0
  0
LINE
  5
A66F
  8
0
 10
4284.3357671710546128
 20
216.2020669152533117
 30
0.0
 11
4284.3218951588878554
 21
216.2033892048783059
 31
0.0
  0
LINE
  5
A670
  8
0
 10
4284.3414160764186818
 20
216.2006895359766077
 30
0.0
 11
4284.3415907911894465
 21
216.2012181933783097
 31
0.0
  0
ENDSEC
  0
EOF
