  0
SECTION
  2
HEADER
  9
$ACADVER
  1
AC1009
  9
$INSBASE
 10
399.992802185138089
 20
51.6435505426078834
 30
0.0
  9
$EXTMIN
 10
366.3647589467199737
 20
51.6341563166404569
 30
-0.0000000349181948
  9
$EXTMAX
 10
400.0070220304064037
 20
87.1247928979136645
 30
0.0000000814935746
  9
$LIMMIN
 10
0.0
 20
0.0
  9
$LIMMAX
 10
11.6929133858000007
 20
8.2677165353999982
  9
$ORTHOMODE
 70
     0
  9
$REGENMODE
 70
     1
  9
$FILLMODE
 70
     1
  9
$QTEXTMODE
 70
     0
  9
$MIRRTEXT
 70
     0
  9
$DRAGMODE
 70
     2
  9
$LTSCALE
 40
0.6431102362
  9
$OSMODE
 70
  4095
  9
$ATTMODE
 70
     1
  9
$TEXTSIZE
 40
0.2
  9
$TRACEWID
 40
0.05
  9
$TEXTSTYLE
  7
STANDARD
  9
$CLAYER
  8
0
  9
$CELTYPE
  6
BYLAYER
  9
$CECOLOR
 62
   256
  9
$DIMSCALE
 40
1.0
  9
$DIMASZ
 40
0.1875
  9
$DIMEXO
 40
0.0625
  9
$DIMDLI
 40
0.4443307087
  9
$DIMRND
 40
0.0
  9
$DIMDLE
 40
0.0
  9
$DIMEXE
 40
0.125
  9
$DIMTP
 40
0.01
  9
$DIMTM
 40
0.01
  9
$DIMTXT
 40
1.0
  9
$DIMCEN
 40
0.1052362205
  9
$DIMTSZ
 40
0.0
  9
$DIMTOL
 70
     1
  9
$DIMLIM
 70
     0
  9
$DIMTIH
 70
     1
  9
$DIMTOH
 70
     1
  9
$DIMSE1
 70
     0
  9
$DIMSE2
 70
     0
  9
$DIMTAD
 70
     0
  9
$DIMZIN
 70
     0
  9
$DIMBLK
  1

  9
$DIMASO
 70
     1
  9
$DIMSHO
 70
     1
  9
$DIMPOST
  1
\X
  9
$DIMAPOST
  1

  9
$DIMALT
 70
     1
  9
$DIMALTD
 70
     2
  9
$DIMALTF
 40
25.3999999999999986
  9
$DIMLFAC
 40
1.0
  9
$DIMTOFL
 70
     0
  9
$DIMTVP
 40
0.0
  9
$DIMTIX
 70
     0
  9
$DIMSOXD
 70
     0
  9
$DIMSAH
 70
     0
  9
$DIMBLK1
  1

  9
$DIMBLK2
  1

  9
$DIMSTYLE
  2
STANDARD
  9
$DIMCLRD
 70
     0
  9
$DIMCLRE
 70
     0
  9
$DIMCLRT
 70
     0
  9
$DIMTFAC
 40
1.0
  9
$DIMGAP
 40
0.09
  9
$LUNITS
 70
     2
  9
$LUPREC
 70
     4
  9
$SKETCHINC
 40
0.1
  9
$FILLETRAD
 40
0.0
  9
$AUNITS
 70
     0
  9
$AUPREC
 70
     0
  9
$MENU
  1
.
  9
$ELEVATION
 40
0.0
  9
$PELEVATION
 40
0.0
  9
$THICKNESS
 40
0.0
  9
$LIMCHECK
 70
     0
  9
$BLIPMODE
 70
     0
  9
$CHAMFERA
 40
0.0
  9
$CHAMFERB
 40
0.0
  9
$SKPOLY
 70
     0
  9
$TDCREATE
 40
2458172.4620254631154239
  9
$TDUPDATE
 40
2460861.491898147854954
  9
$TDINDWG
 40
0.0954217824
  9
$TDUSRTIMER
 40
0.0954217824
  9
$USRTIMER
 70
     1
  9
$ANGBASE
 50
0.0
  9
$ANGDIR
 70
     0
  9
$PDMODE
 70
     0
  9
$PDSIZE
 40
0.3125
  9
$PLINEWID
 40
0.0
  9
$COORDS
 70
     1
  9
$SPLFRAME
 70
     0
  9
$SPLINETYPE
 70
     6
  9
$SPLINESEGS
 70
     8
  9
$ATTDIA
 70
     1
  9
$ATTREQ
 70
     1
  9
$HANDLING
 70
     1
  9
$HANDSEED
  5
4B7D
  9
$SURFTAB1
 70
     6
  9
$SURFTAB2
 70
     6
  9
$SURFTYPE
 70
     6
  9
$SURFU
 70
     6
  9
$SURFV
 70
     6
  9
$UCSNAME
  2

  9
$UCSORG
 10
0.0
 20
0.0
 30
0.0
  9
$UCSXDIR
 10
1.0
 20
0.0
 30
0.0
  9
$UCSYDIR
 10
0.0
 20
1.0
 30
0.0
  9
$PUCSNAME
  2

  9
$PUCSORG
 10
0.0
 20
0.0
 30
0.0
  9
$PUCSXDIR
 10
1.0
 20
0.0
 30
0.0
  9
$PUCSYDIR
 10
0.0
 20
1.0
 30
0.0
  9
$USERI1
 70
     0
  9
$USERI2
 70
     0
  9
$USERI3
 70
     0
  9
$USERI4
 70
     0
  9
$USERI5
 70
     0
  9
$USERR1
 40
0.0
  9
$USERR2
 40
0.0
  9
$USERR3
 40
0.0
  9
$USERR4
 40
0.0
  9
$USERR5
 40
0.0
  9
$WORLDVIEW
 70
     1
  9
$SHADEDGE
 70
     3
  9
$SHADEDIF
 70
    70
  9
$TILEMODE
 70
     1
  9
$MAXACTVP
 70
    64
  9
$PLIMCHECK
 70
     0
  9
$PEXTMIN
 10
1.0000000000000000E+20
 20
1.0000000000000000E+20
 30
1.0000000000000000E+20
  9
$PEXTMAX
 10
-1.0000000000000000E+20
 20
-1.0000000000000000E+20
 30
-1.0000000000000000E+20
  9
$PLIMMIN
 10
0.0
 20
0.0
  9
$PLIMMAX
 10
12.0
 20
9.0
  9
$UNITMODE
 70
     0
  9
$VISRETAIN
 70
     1
  9
$PLINEGEN
 70
     0
  9
$PSLTSCALE
 70
     1
  0
ENDSEC
  0
SECTION
  2
TABLES
  0
TABLE
  2
VPORT
 70
     1
  0
VPORT
  2
*ACTIVE
 70
     0
 10
0.0
 20
0.0
 11
1.0
 21
1.0
 12
216.4859555411273959
 22
56.2111838515048419
 13
0.0
 23
0.0
 14
1.0
 24
1.0
 15
0.0
 25
0.0
 16
0.0
 26
0.0
 36
16.5150948445327401
 17
166.6999349474359065
 27
13.1682907557722206
 37
0.0
 40
35.7500078595772735
 41
2.2939024390243898
 42
50.0
 43
0.0
 44
0.0
 50
0.0
 51
0.0
 71
     0
 72
   100
 73
     1
 74
     1
 75
     0
 76
     0
 77
     0
 78
     0
  0
ENDTAB
  0
TABLE
  2
LTYPE
 70
     2
  0
LTYPE
  2
CONTINUOUS
 70
     0
  3
Solid line
 72
    65
 73
     0
 40
0.0
  0
LTYPE
  2
PHANTOM2
 70
     0
  3
___ _ _ ___ _ _ ___ _ _ ___ _ _
 72
    65
 73
     6
 40
1.25
 49
0.625
 49
-0.125
 49
0.125
 49
-0.125
 49
0.125
 49
-0.125
  0
ENDTAB
  0
TABLE
  2
LAYER
 70
     2
  0
LAYER
  2
0
 70
     0
 62
   255
  6
CONTINUOUS
  0
LAYER
  2
DEFPOINTS
 70
     0
 62
     7
  6
CONTINUOUS
  0
ENDTAB
  0
TABLE
  2
STYLE
 70
     1
  0
STYLE
  2
STANDARD
 70
     0
 40
0.0
 41
0.8
 50
0.0
 71
     0
 42
0.2
  3
txt
  4

  0
ENDTAB
  0
TABLE
  2
VIEW
 70
     0
  0
ENDTAB
  0
TABLE
  2
UCS
 70
     0
  0
ENDTAB
  0
TABLE
  2
APPID
 70
     9
  0
APPID
  2
ACAD
 70
     0
  0
APPID
  2
ACAD_MLEADERVER
 70
     0
  0
APPID
  2
ACAD_EXEMPT_FROM_CAD_STANDARDS
 70
     0
  0
APPID
  2
ACAD_DSTYLE_DIMJAG
 70
     0
  0
APPID
  2
ACAD_DSTYLE_DIMTALN
 70
     0
  0
APPID
  2
ACAD_NAV_VCDISPLAY
 70
     0
  0
APPID
  2
ACAECLAYERSTANDARD
 70
     0
  0
APPID
  2
ACCMTRANSPARENCY
 70
     0
  0
APPID
  2
ACDBATTR
 70
     0
  0
ENDTAB
  0
TABLE
  2
DIMSTYLE
 70
     1
  0
DIMSTYLE
  2
STANDARD
 70
     0
  3

  4

  5

  6

  7

 40
1.0
 41
0.1875
 42
0.0625
 43
0.38
 44
0.125
 45
0.0
 46
0.0
 47
0.01
 48
0.01
140
0.15625
141
0.09
142
0.0
143
25.3999999999999986
144
1.0
145
0.0
146
1.0
147
0.09
 71
     1
 72
     0
 73
     1
 74
     1
 75
     0
 76
     0
 77
     0
 78
     4
170
     0
171
     2
172
     0
173
     0
174
     0
175
     0
176
     0
177
     0
178
     0
  0
ENDTAB
  0
ENDSEC
  0
SECTION
  2
BLOCKS
  0
BLOCK
  8
0
  2
$MODEL_SPACE
 70
     0
 10
0.0
 20
0.0
 30
0.0
  3
$MODEL_SPACE
  1

  0
ENDBLK
  5
21
  8
0
  0
BLOCK
 67
     1
  8
0
  2
$PAPER_SPACE
 70
     0
 10
0.0
 20
0.0
 30
0.0
  3
$PAPER_SPACE
  1

  0
ENDBLK
  5
1D
 67
     1
  8
0
  0
BLOCK
  8
0
  2
_FILLED
 70
     0
 10
0.0
 20
0.0
 30
0.0
  3
_FILLED
  1

  0
SOLID
  5
252B
  8
0
  6
BYBLOCK
 62
     0
 10
0.0
 20
0.0
 30
0.0
 11
-1.0
 21
0.1666666667
 31
0.0
 12
-1.0
 22
-0.1666666667
 32
0.0
 13
-1.0
 23
-0.1666666667
 33
0.0
  0
ENDBLK
  5
252C
  8
0
  6
BYBLOCK
 62
     0
  0
ENDSEC
  0
SECTION
  2
ENTITIES
  0
ATTDEF
  5
157D
  8
DEFPOINTS
 10
399.9819213013308854
 20
51.6406836168897669
 30
0.0
 40
0.001
  1
K-29777NM
  3

  2
MODELNUMBER
 70
     0
1001
ACDBATTR
1070
     0
1070
     1
  0
ATTDEF
  5
157E
  8
DEFPOINTS
 10
399.9819213013308854
 20
51.6390169502231018
 30
0.0
 40
0.001
  1
KOHLER
  3

  2
BRANDNAME
 70
     0
1001
ACDBATTR
1070
     0
1070
     1
  0
ATTDEF
  5
157F
  8
DEFPOINTS
 10
399.9819213013308854
 20
51.6373502835564366
 30
0.0
 40
0.001
  1
TOILET
  3

  2
PRODUCT
 70
     0
1001
ACDBATTR
1070
     0
1070
     1
  0
LINE
  5
486D
  8
0
 10
371.8507807028985894
 20
66.9978815065078805
 30
0.0
 11
399.1424203749131152
 21
66.9978815065078805
 31
0.0
  0
ARC
  5
486E
  8
0
 10
382.0414625381471865
 20
67.0175815065078808
 30
0.0
 40
0.0197
 50
170.0405835384005968
 51
270.0
  0
ARC
  5
486F
  8
0
 10
399.1424203749131152
 20
67.0078815065078714
 30
0.0
 40
0.01
 50
270.0
 51
315.6222825372125271
  0
LINE
  5
4870
  8
0
 10
399.1975885782366049
 20
51.6435505426078834
 30
0.0
 11
376.2486334574381885
 21
51.6435505426078834
 31
0.0
  0
LINE
  5
4871
  8
0
 10
371.7070889252156007
 20
66.8048388180895785
 30
0.0
 11
376.2486334574381885
 21
51.6435505426078834
 31
0.0
  0
LINE
  5
4872
  8
0
 10
399.1175068258957026
 20
75.8834539989942272
 30
0.0
 11
399.1841567404659941
 21
72.0650829511142064
 31
0.0
  0
ARC
  5
4873
  8
0
 10
399.0734329707862003
 20
75.8767998389143798
 30
0.0
 40
0.0445733390109894
 50
8.5855314617268874
 51
38.4768475479705998
  0
LINE
  5
4874
  8
0
 10
399.1584345731757253
 20
71.9587432063872114
 30
0.0
 11
399.2427915237767024
 21
67.1259418113546502
 31
0.0
  0
ARC
  5
4875
  8
0
 10
399.1387375735873775
 20
71.9583993936199562
 30
0.0
 40
0.0197
 50
1.000001048495089
 51
89.9999531708880767
  0
LINE
  5
4876
  8
0
 10
398.9657477518106248
 20
76.041921418796889
 30
0.0
 11
399.1083276390393166
 21
75.9045332966522182
 31
0.0
  0
LINE
  5
4877
  8
0
 10
370.8735987412774762
 20
68.5435082193928196
 30
0.0
 11
371.0034454101520964
 21
68.7180498418771748
 31
0.0
  0
LINE
  5
4878
  8
0
 10
370.8673789344373972
 20
68.5081392600919088
 30
0.0
 11
371.252928661793419
 21
67.2229627110078667
 31
0.0
  0
ARC
  5
4879
  8
0
 10
370.9056920124087924
 20
68.5196330869724051
 30
0.0
 40
0.04
 50
143.3533512578119087
 51
196.6991118224391073
  0
ARC
  5
487A
  8
0
 10
371.4523691930849054
 20
148.5035472986166951
 30
0.0
 40
79.7745347070501367
 50
269.6949741462768202
 51
275.873485966880196
  0
ARC
  5
487B
  8
0
 10
371.0346961325734014
 20
68.6857562954227063
 30
0.0
 40
0.0449386336513745
 50
98.9885211745838944
 51
134.0598042294784875
  0
ARC
  5
487C
  8
0
 10
375.7151054984634015
 20
107.6703002813980987
 30
0.0
 40
38.719484913122507
 50
275.7820344426716019
 51
285.3018080417559759
  0
ARC
  5
487D
  8
0
 10
380.7131544943835024
 20
89.6012437393983845
 30
0.0
 40
19.9720589651154405
 50
285.1515501143928191
 51
302.7248371277738102
  0
ARC
  5
487E
  8
0
 10
371.8507807028985894
 20
66.8478815065078464
 30
0.0
 40
0.15
 50
90.0000000000032543
 51
196.6755199086038886
  0
ARC
  5
487F
  8
0
 10
371.2906457624831091
 20
67.2342854479655188
 30
0.0
 40
0.0393799956405115
 50
196.7098448940402022
 51
270.3323750825264256
  0
ARC
  5
4880
  8
0
 10
370.0238298851638206
 20
262.3158242954581283
 30
0.0
 40
195.1250319997994893
 50
270.3720527371042976
 51
271.5102812691380905
  0
ARC
  5
4881
  8
0
 10
393.0310916382738924
 20
-610.3121440336235537
 30
0.0
 40
677.8061824744665955
 50
91.2435034355578267
 51
91.5102812691381047
  0
ARC
  5
4882
  8
0
 10
429.8420835828579243
 20
19.4456886282107888
 30
0.0
 40
65.6869989847441502
 50
122.9385596542148988
 51
125.5520225502334029
  0
ARC
  5
4883
  8
0
 10
391.6754770892135866
 20
72.8637982997669127
 30
0.0
 40
0.0358290425817141
 50
137.8594920178404095
 51
226.7611426904622078
  0
ARC
  5
4884
  8
0
 10
399.1284320142173101
 20
67.0612276839600412
 30
0.0
 40
9.0259580522204281
 50
106.4032344928177025
 51
123.6615097744716962
  0
LINE
  5
4885
  8
0
 10
399.1495678221851904
 20
67.0008876522420422
 30
0.0
 11
399.2228343160433042
 21
67.0757631617624241
 31
0.0
  0
ARC
  5
4886
  8
0
 10
399.1728021851382096
 20
67.1247201416232855
 30
0.0
 40
0.07
 50
315.6222825372125271
 51
1.000001048495089
  0
ARC
  5
4887
  8
0
 10
399.0570708083496925
 20
66.6170138816762432
 30
0.0
 40
9.4339322712720861
 50
90.6832619351219762
 51
105.2255205343161037
  0
ARC
  5
4888
  8
0
 10
398.939674046685127
 20
76.006844718076735
 30
0.0
 40
0.0437059839425054
 50
53.3753221179205681
 51
83.5652803428478705
  0
ARC
  5
4889
  8
0
 10
370.6169022056063795
 20
165.8749382246664936
 30
0.0
 40
97.3317685033150468
 50
270.1511083727908158
 51
272.7244532333814959
  0
ARC
  5
488A
  8
0
 10
373.7714371094895114
 20
117.6385880446081984
 30
0.0
 40
49.007511248227587
 50
271.7211051640721848
 51
284.420752680521673
  0
ARC
  5
488B
  8
0
 10
380.6251407243076983
 20
89.7943420983406071
 30
0.0
 40
20.3358651349117885
 50
285.2564063831179055
 51
302.8545162214231823
  0
ARC
  5
488C
  8
0
 10
391.5313709788529764
 20
72.7660579185992304
 30
0.0
 40
0.0393700790114343
 50
63.5269858782685617
 51
122.6155179882696018
  0
ARC
  5
488D
  8
0
 10
390.6187119971654056
 20
70.9335017900879024
 30
0.0
 40
2.0866141730531078
 50
321.4035478870821976
 51
58.9759124347422699
  0
LINE
  5
488E
  8
0
 10
391.6509327143656947
 20
72.8376966914706685
 30
0.0
 11
391.7976603607204993
 21
72.7497727990639618
 31
0.0
  0
LINE
  5
488F
  8
0
 10
391.5489212252859943
 20
72.8012998250672752
 30
0.0
 11
391.694149637080784
 21
72.7216272303050886
 31
0.0
  0
ARC
  5
4890
  8
0
 10
390.618711923987405
 20
70.9335018143499809
 30
0.0
 40
2.1653544066478299
 50
330.5493006644890102
 51
57.0122437163078999
  0
ARC
  5
4891
  8
0
 10
414.2197374604539277
 20
42.443692488929841
 30
0.0
 40
37.7396825602682
 50
121.2143451955576978
 51
126.4383790714854001
  0
ARC
  5
4892
  8
0
 10
398.8983191090957234
 20
67.6407565566462807
 30
0.0
 40
8.2502178097625638
 50
91.162246270276853
 51
120.9000891114523029
  0
ARC
  5
4893
  8
0
 10
398.6444414005367207
 20
81.737428638214837
 30
0.0
 40
5.8487917910453424
 50
270.847726333529522
 51
274.5248896935594871
  0
CIRCLE
  5
4894
  8
0
 10
396.0915249773352116
 20
62.4199311047369605
 30
0.0
 40
0.6889793921000003
  0
CIRCLE
  5
4895
  8
0
 10
392.2700471547090046
 20
53.2172398037078977
 30
0.0
 40
0.5258999069596425
  0
LINE
  5
4896
  8
0
 10
381.4609212125670865
 20
67.0766216639078579
 30
0.0
 11
379.206956703884714
 21
67.0766216639078579
 31
0.0
  0
ARC
  5
4897
  8
0
 10
373.4788756780462222
 20
67.1593906984032714
 30
0.0
 40
0.0870382119194169
 50
2.5320137565294232
 51
46.4323772564448731
  0
LINE
  5
4898
  8
0
 10
373.5658289139934141
 20
67.1632358372078642
 30
0.0
 11
375.162379328193424
 21
67.1632358372078642
 31
0.0
  0
ARC
  5
4899
  8
0
 10
373.7230576427933784
 20
67.1159917477078665
 30
0.0
 40
0.1181102486000121
 50
189.9971347072012975
 51
269.9797180529516822
  0
LINE
  5
489A
  8
0
 10
373.5957766684705916
 20
67.1631842123860991
 30
0.0
 11
373.6067407287455922
 21
67.095487935117589
 31
0.0
  0
LINE
  5
489B
  8
0
 10
375.162379328193424
 20
67.1632358372078642
 30
0.0
 11
375.1680759791323112
 21
67.1955437985119346
 31
0.0
  0
ARC
  5
489C
  8
0
 10
375.2475978320924241
 20
67.1808115906121515
 30
0.0
 40
0.0808748476554854
 50
100.5552784809530067
 51
169.5043868581365984
  0
ARC
  5
489D
  8
0
 10
375.0081740803565822
 20
67.1159916835988355
 30
0.0
 40
0.1181101779908401
 50
269.9929273396696772
 51
349.9966329862957082
  0
LINE
  5
489E
  8
0
 10
375.135450210900899
 20
67.1631842247272601
 30
0.0
 11
375.1244886938933973
 21
67.0954752311078835
 31
0.0
  0
ARC
  5
489F
  8
0
 10
382.9321112244894039
 20
96.5030826412640153
 30
0.0
 40
28.4401467495953888
 50
283.7078718996024804
 51
289.1257172976568768
  0
ARC
  5
48A0
  8
0
 10
379.6335382375015115
 20
110.0262979722804033
 30
0.0
 40
42.3598427462586926
 50
278.1818905619088014
 51
283.7078718996024804
  0
ARC
  5
48A1
  8
0
 10
376.2240329432402746
 20
123.1891000485044003
 30
0.0
 40
55.8940634436189399
 50
272.1507401947707763
 51
279.7212533792874751
  0
ARC
  5
48A2
  8
0
 10
392.5728662303399119
 20
69.8303476120608337
 30
0.0
 40
0.0789227003286641
 50
147.4171683708470084
 51
289.8688453529547928
  0
ARC
  5
48A3
  8
0
 10
374.8158090784702949
 20
116.5420036168090974
 30
0.0
 40
50.051823497819818
 50
290.8124044188934931
 51
295.0455595828947821
  0
ARC
  5
48A4
  8
0
 10
399.9229065959182208
 20
62.8076476238487516
 30
0.0
 40
9.2587773445386894
 50
94.747265990108076
 51
115.036129725049193
  0
ARC
  5
48A5
  8
0
 10
399.1412196305375915
 20
72.0762639058636836
 30
0.0
 40
0.0443690112365195
 50
290.343111341994927
 51
345.4041546482534955
  0
LINE
  5
48A6
  8
0
 10
399.0588341596933901
 20
72.026076386807901
 30
0.0
 11
399.0593457421514927
 21
71.996767847261296
 31
0.0
  0
LINE
  5
48A7
  8
0
 10
399.1387375896886169
 20
71.9780993936199565
 30
0.0
 11
398.8869544743934057
 21
71.9780993935078612
 31
0.0
  0
ARC
  5
48A8
  8
0
 10
399.0783428483595117
 20
71.9970994429819342
 30
0.0
 40
0.019
 50
180.9999999949625931
 51
269.9999531708880909
  0
ARC
  5
48A9
  8
0
 10
398.8949197609068733
 20
70.8005694492107835
 30
0.0
 40
1.177556884190945
 50
90.3875658036507161
 51
100.8086144272375009
  0
ARC
  5
48AA
  8
0
 10
15814.5293462421795994
 20
341.0602798058138774
 30
0.0
 40
15418.2038388380005927
 50
180.9999768040393064
 51
181.0000679576149025
  0
ARC
  5
48AB
  8
0
 10
381.7797442690949765
 20
98.9702688241232948
 30
0.0
 40
31.8198754213938813
 50
263.8158752973981223
 51
265.1229692589877232
  0
LINE
  5
48AC
  8
0
 10
379.0688871920461906
 20
67.2975128855401152
 30
0.0
 11
379.0906104242932884
 21
67.174222869607874
 31
0.0
  0
ARC
  5
48AD
  8
0
 10
381.4609212125670865
 20
67.1866216639078715
 30
0.0
 40
0.11
 50
270.0000000000032969
 51
349.9906595515556091
  0
ARC
  5
48AE
  8
0
 10
378.8413330525467018
 20
101.447282196893795
 30
0.0
 40
34.1348744793121668
 50
275.5811028818916952
 51
280.0469246182170764
  0
ARC
  5
48AF
  8
0
 10
382.1776301973491741
 20
67.3851659702142882
 30
0.0
 40
0.0905766787919348
 50
100.5099917670544016
 51
165.1116946532467864
  0
ARC
  5
48B0
  8
0
 10
436.9987239823906862
 20
-103.2813811405570021
 30
0.0
 40
178.9027688920704122
 50
106.675505364220399
 51
106.9652729752986033
  0
LINE
  5
48B1
  8
0
 10
382.0220594072222866
 20
67.0209886329085833
 30
0.0
 11
382.0900943096692117
 21
67.4084383381437249
 31
0.0
  0
LINE
  5
48B2
  8
0
 10
381.6241659460933988
 20
67.4789430247079025
 30
0.0
 11
381.5692469500349944
 21
67.1675027046778013
 31
0.0
  0
ARC
  5
48B3
  8
0
 10
380.7872916590334853
 20
78.9047927244896954
 30
0.0
 40
11.7316950204693509
 50
273.8494615433589274
 51
276.2326124766753992
  0
ARC
  5
48B4
  8
0
 10
378.9465147120017718
 20
67.2629061449449352
 30
0.0
 40
0.1271717357230883
 50
15.7908177526500797
 51
53.4896233558476482
  0
ARC
  5
48B5
  8
0
 10
379.2069161023420065
 20
67.1947196130403057
 30
0.0
 40
0.1180979561113709
 50
189.9947034681746061
 51
270.019698029986273
  0
LINE
  5
48B6
  8
0
 10
389.1092156755433962
 20
66.9978815065078805
 30
0.0
 11
389.648726336793402
 21
68.867365991107917
 31
0.0
  0
LINE
  5
48B7
  8
0
 10
392.7811363825894091
 20
66.9978815065078805
 30
0.0
 11
391.8694055718934237
 21
69.503096355907914
 31
0.0
  0
CIRCLE
  5
48B8
  8
0
 10
393.3682375762933816
 20
67.6671728450078689
 30
0.0
 40
0.2625968819370599
  0
LINE
  5
48B9
  8
0
 10
398.1119995720812881
 20
67.5474730875940708
 30
0.0
 11
398.5057004029814038
 21
67.5474893745940648
 31
0.0
  0
ARC
  5
48BA
  8
0
 10
398.1178995485731207
 20
67.34427408692504
 30
0.0
 40
0.2032846368899994
 50
91.663142054296614
 51
268.2293501377168923
  0
LINE
  5
48BB
  8
0
 10
398.1116183071533783
 20
67.1410865144662097
 30
0.0
 11
398.5053336115934144
 21
67.1410389749079144
 31
0.0
  0
ARC
  5
48BC
  8
0
 10
398.499545491914489
 20
67.3442695636014008
 30
0.0
 40
0.2033129964122678
 50
271.6313745240004778
 51
88.2652151075792801
  0
LINE
  5
48BD
  8
0
 10
390.4155981796943138
 20
66.9978815065078805
 30
0.0
 11
390.4685065295934123
 21
67.1607166639079054
 31
0.0
  0
LINE
  5
48BE
  8
0
 10
390.4685065295934123
 20
67.1607166639079054
 30
0.0
 11
391.1448312217934813
 21
67.1607166639074933
 31
0.0
  0
LINE
  5
48BF
  8
0
 10
391.1448312217934813
 20
67.1607166639074933
 30
0.0
 11
391.197739571692523
 21
66.9978815065078805
 31
0.0
  0
LINE
  5
48C0
  8
0
 10
390.4447280175584183
 20
67.0875339289078596
 30
0.0
 11
391.1686097338284185
 21
67.0875339289078596
 31
0.0
  0
CIRCLE
  5
48C1
  8
0
 10
386.9178989970934026
 20
67.6671728450078689
 30
0.0
 40
0.246851155887274
  0
CIRCLE
  5
48C2
  8
0
 10
387.5478202569934183
 20
67.6671728450078689
 30
0.0
 40
0.2468511558871875
  0
CIRCLE
  5
48C3
  8
0
 10
388.1777415167933896
 20
67.6671728450078689
 30
0.0
 40
0.2468511558872551
  0
CIRCLE
  5
48C4
  8
0
 10
388.8076627766934052
 20
67.6671728450078689
 30
0.0
 40
0.2468511558871701
  0
LINE
  5
48C5
  8
0
 10
392.5025838698439884
 20
70.0362919626135039
 30
0.0
 11
392.5825395898933721
 21
70.021413022007863
 31
0.0
  0
LINE
  5
48C6
  8
0
 10
392.4846412704933982
 20
69.9997413860078694
 30
0.0
 11
392.564822834293409
 21
69.9842877956078695
 31
0.0
  0
LINE
  5
48C7
  8
0
 10
392.4499228152610044
 20
69.9331890155640252
 30
0.0
 11
392.5013190730933843
 21
69.9256223701079165
 31
0.0
  0
LINE
  5
48C8
  8
0
 10
392.5013190730933843
 20
69.9256223701079165
 30
0.0
 11
392.5342307901934191
 21
69.9239495434078862
 31
0.0
  0
LINE
  5
48C9
  8
0
 10
392.3775443383134984
 20
69.8107963510177996
 30
0.0
 11
392.4498263259933992
 21
69.7778934283078769
 31
0.0
  0
LINE
  5
48CA
  8
0
 10
392.290397082293282
 20
69.6812832070078656
 30
0.0
 11
392.3943157112934159
 21
69.6941962018079124
 31
0.0
  0
LINE
  5
48CB
  8
0
 10
392.2255429621931171
 20
69.6234957390980043
 30
0.0
 11
392.3530748643934203
 21
69.6372754770078899
 31
0.0
  0
ARC
  5
48CC
  8
0
 10
392.1108319760840004
 20
69.446869912515794
 30
0.0
 40
0.0590551280941485
 50
197.863574330352094
 51
315.1387424174336047
  0
ARC
  5
48CD
  8
0
 10
390.6139317620667839
 20
70.9365381011822791
 30
0.0
 40
2.1708840896934731
 50
315.1387424174336047
 51
330.6607516537097808
  0
LINE
  5
48CE
  8
0
 10
392.0153857240346724
 20
69.5517598956357546
 30
0.0
 11
392.0546239186010098
 21
69.4287546586401589
 31
0.0
  0
ARC
  5
48CF
  8
0
 10
393.2185355517386256
 20
71.5602458311584257
 30
0.0
 40
1.9746426662711269
 50
244.200187969408006
 51
246.5075655609985006
  0
ARC
  5
48D0
  8
0
 10
392.5267543133080039
 20
70.0876906169428224
 30
0.0
 40
0.3911216649502572
 50
240.6288751986701016
 51
252.3955387337313994
  0
LINE
  5
48D1
  8
0
 10
392.4135462133066881
 20
69.8692984055065125
 30
0.0
 11
392.4928791707932874
 21
69.848975284907894
 31
0.0
  0
ARC
  5
48D2
  8
0
 10
392.5264620792801793
 20
70.2960425204015991
 30
0.0
 40
0.3902142864592326
 50
257.22030830609242
 51
269.719861076196878
  0
ARC
  5
48D3
  8
0
 10
392.534866815813416
 20
70.1052654669133375
 30
0.0
 40
0.3711409123187541
 50
241.3740128476088955
 51
253.7733989912292998
  0
ARC
  5
48D4
  8
0
 10
391.6936834297832206
 20
72.661011086028779
 30
0.0
 40
0.0618548786141677
 50
91.6182715145752837
 51
125.7950975873063015
  0
ARC
  5
48D5
  8
0
 10
391.8361610922713112
 20
72.7707168088139014
 30
0.0
 40
0.0471262081172667
 50
133.1104861965955877
 51
202.3088186014068981
  0
CIRCLE
  5
48D6
  8
0
 10
396.0915249773352116
 20
62.4199311047369605
 30
0.0
 40
0.4881901757999998
  0
ARC
  5
48D7
  8
0
 10
380.682814090488705
 20
91.6203978905603975
 30
0.0
 40
24.1376310517895796
 50
279.8121722059073022
 51
284.8504406891913732
  0
ARC
  5
48D8
  8
0
 10
385.8512684524853853
 20
69.256723266770436
 30
0.0
 40
1.1851026974963399
 50
284.9085542225632253
 51
298.1878140050645811
  0
LINE
  5
48D9
  8
0
 10
382.1393917027148746
 20
67.2252310718078974
 30
0.0
 11
389.1477583080725822
 21
67.2252310718078974
 31
0.0
  0
LINE
  5
48DA
  8
0
 10
389.1928792301617932
 20
67.2252310718078974
 30
0.0
 11
392.6769249995641076
 21
67.2252310718078974
 31
0.0
  0
LINE
  5
48DB
  8
0
 10
392.7230659304049141
 20
67.2252310718078974
 30
0.0
 11
397.8978189843863902
 21
67.2252310718078974
 31
0.0
  0
LINE
  5
48DC
  8
0
 10
398.7198697888073866
 20
67.2252310718078974
 30
0.0
 11
398.8551037049882098
 21
67.2252310718078974
 31
0.0
  0
ARC
  5
48DD
  8
0
 10
382.2740685343889027
 20
68.1241316521571747
 30
0.0
 40
0.9089334972054153
 50
256.4184866483674909
 51
261.479099850180603
  0
ARC
  5
48DE
  8
0
 10
389.1824258517214048
 20
67.332060410459448
 30
0.0
 40
0.1123136063857522
 50
252.0210626271046124
 51
265.3646426657870734
  0
ARC
  5
48DF
  8
0
 10
389.3644790378854736
 20
67.7539614282654696
 30
0.0
 40
0.5558797386580929
 50
250.229121820918408
 51
252.0191250841739077
  0
ARC
  5
48E0
  8
0
 10
392.5937626310221731
 20
67.4297761907658213
 30
0.0
 40
0.2208046313622925
 50
292.1252944168510908
 51
297.3807932913106811
  0
ARC
  5
48E1
  8
0
 10
392.6311456263194941
 20
67.4755683930331855
 30
0.0
 40
0.2666799415494097
 50
285.1761844383352127
 51
290.1625988108967249
  0
ARC
  5
48E2
  8
0
 10
398.8599770141308909
 20
66.7553518208359122
 30
0.0
 40
0.4699045218295448
 50
65.9094736846177227
 51
90.5942165666381101
  0
ARC
  5
48E3
  8
0
 10
399.4215231336112879
 20
68.0522856964101805
 30
0.0
 40
0.9434288429626022
 50
246.9265022152123947
 51
259.0793723151028871
  0
LINE
  5
48E4
  8
0
 10
397.8978189843863902
 20
67.2252310718078974
 30
0.0
 11
397.9370487028584762
 21
67.2514429757617052
 31
0.0
  0
LINE
  5
48E5
  8
0
 10
398.7198697888073866
 20
67.2252310718078974
 30
0.0
 11
398.6800229997309089
 21
67.2506530923876511
 31
0.0
  0
ARC
  5
48E6
  8
0
 10
381.7520066806624186
 20
67.4412791747778755
 30
0.0
 40
0.1332734745052137
 50
113.0569454746246976
 51
163.5842143726081872
  0
CIRCLE
  5
48E7
  8
0
 10
389.8079471563722791
 20
68.8328581652726683
 30
0.0
 40
0.0317610560821363
  0
CIRCLE
  5
48E8
  8
0
 10
389.8912800567935051
 20
68.7437789792078746
 30
0.0
 40
0.0372548279
  0
CIRCLE
  5
48E9
  8
0
 10
390.0135750125933782
 20
68.7740439396078926
 30
0.0
 40
0.0372548279
  0
CIRCLE
  5
48EA
  8
0
 10
390.1358705485934024
 20
68.8043089457079162
 30
0.0
 40
0.0372548268999999
  0
CIRCLE
  5
48EB
  8
0
 10
390.1009327817934036
 20
68.6832658533078728
 30
0.0
 40
0.0387697455999998
  0
CIRCLE
  5
48EC
  8
0
 10
389.978638642093415
 20
68.653000914307853
 30
0.0
 40
0.0387698883999992
  0
CIRCLE
  5
48ED
  8
0
 10
389.8563436863934157
 20
68.6227359539078492
 30
0.0
 40
0.0387698884000009
  0
CIRCLE
  5
48EE
  8
0
 10
389.9437006721933017
 20
68.5319581901078863
 30
0.0
 40
0.0387698883999992
  0
CIRCLE
  5
48EF
  8
0
 10
390.0659954074932898
 20
68.562222623707882
 30
0.0
 40
0.0387698883999992
  0
CIRCLE
  5
48F0
  8
0
 10
390.1882904177933824
 20
68.5924874083078606
 30
0.0
 40
0.0387698883999992
  0
CIRCLE
  5
48F1
  8
0
 10
390.3105853734933817
 20
68.6227523687078786
 30
0.0
 40
0.0387698883999992
  0
CIRCLE
  5
48F2
  8
0
 10
390.2232277232934052
 20
68.7135308083078797
 30
0.0
 40
0.0387698883999992
  0
CIRCLE
  5
48F3
  8
0
 10
390.3455227303933839
 20
68.7437957974078557
 30
0.0
 40
0.0387698883999992
  0
CIRCLE
  5
48F4
  8
0
 10
390.4328803292934253
 20
68.6530173291078967
 30
0.0
 40
0.0387698883999992
  0
CIRCLE
  5
48F5
  8
0
 10
390.555175978393379
 20
68.6832826564078545
 30
0.0
 40
0.0387698883999992
  0
CIRCLE
  5
48F6
  8
0
 10
390.6774711239934277
 20
68.7135475747078743
 30
0.0
 40
0.0387698883999992
  0
CIRCLE
  5
48F7
  8
0
 10
390.4678176853934133
 20
68.7740607490078872
 30
0.0
 40
0.0387698883999992
  0
CIRCLE
  5
48F8
  8
0
 10
390.5901126411934001
 20
68.8043257094078484
 30
0.0
 40
0.0387698883999992
  0
CIRCLE
  5
48F9
  8
0
 10
390.6250499869934174
 20
68.9253687420078762
 30
0.0
 40
0.0387698883999992
  0
CIRCLE
  5
48FA
  8
0
 10
390.5027549652933772
 20
68.8951037370078865
 30
0.0
 40
0.0387698883999992
  0
CIRCLE
  5
48FB
  8
0
 10
390.3804604397934099
 20
68.8648388870078492
 30
0.0
 40
0.0387698883999992
  0
CIRCLE
  5
48FC
  8
0
 10
390.2581654256933916
 20
68.8345740453079031
 30
0.0
 40
0.0387698883999992
  0
CIRCLE
  5
48FD
  8
0
 10
390.1708073662933884
 20
68.9253517094078774
 30
0.0
 40
0.0387698883999992
  0
CIRCLE
  5
48FE
  8
0
 10
390.2931022310934281
 20
68.9556171061078516
 30
0.0
 40
0.0387698883999992
  0
CIRCLE
  5
48FF
  8
0
 10
390.4153972622934248
 20
68.9858821134078966
 30
0.0
 40
0.0387698883999992
  0
CIRCLE
  5
4900
  8
0
 10
390.5376929109934281
 20
69.016146975507894
 30
0.0
 40
0.0387698883999992
  0
CIRCLE
  5
4901
  8
0
 10
390.6599878766933784
 20
69.04641193490788
 30
0.0
 40
0.0387698883999992
  0
CIRCLE
  5
4902
  8
0
 10
390.7822850679934277
 20
69.0766730651078973
 30
0.0
 40
0.0387698883999992
  0
CIRCLE
  5
4903
  8
0
 10
390.9045767286934279
 20
69.1069372917078653
 30
0.0
 40
0.0387698883999992
  0
CIRCLE
  5
4904
  8
0
 10
390.8696401815934109
 20
68.9858986653078858
 30
0.0
 40
0.0387698883999992
  0
CIRCLE
  5
4905
  8
0
 10
390.7473452257934241
 20
68.9556337049078678
 30
0.0
 40
0.0387698883999992
  0
CIRCLE
  5
4906
  8
0
 10
390.7124077410932728
 20
68.8345905379078857
 30
0.0
 40
0.0387698883999992
  0
CIRCLE
  5
4907
  8
0
 10
390.8347027815933075
 20
68.8648555398078628
 30
0.0
 40
0.0387698883999992
  0
CIRCLE
  5
4908
  8
0
 10
390.9569984233933724
 20
68.8951206415078872
 30
0.0
 40
0.0387698883999992
  0
CIRCLE
  5
4909
  8
0
 10
389.7689851448934064
 20
68.7135134387078637
 30
0.0
 40
0.0387698883999992
  0
CIRCLE
  5
490A
  8
0
 10
389.7340482814934148
 20
68.5924702788078946
 30
0.0
 40
0.0387698883999992
  0
CIRCLE
  5
490B
  8
0
 10
389.9262175530934087
 20
68.8648214623078587
 30
0.0
 40
0.0387698883999992
  0
CIRCLE
  5
490C
  8
0
 10
390.0485125280933971
 20
68.8950864232078715
 30
0.0
 40
0.0387698883999992
  0
CIRCLE
  5
490D
  8
0
 10
389.699110493193416
 20
68.471427574807862
 30
0.0
 40
0.0387698883999992
  0
CIRCLE
  5
490E
  8
0
 10
389.6641735122934165
 20
68.3503841627078685
 30
0.0
 40
0.0387698883999992
  0
CIRCLE
  5
490F
  8
0
 10
389.7864684358934255
 20
68.3806503903078635
 30
0.0
 40
0.0387698883999992
  0
CIRCLE
  5
4910
  8
0
 10
389.8214057163933717
 20
68.5016932297078682
 30
0.0
 40
0.0387698883999992
  0
CIRCLE
  5
4911
  8
0
 10
389.9087629214934054
 20
68.410914313007865
 30
0.0
 40
0.0387698883999992
  0
CIRCLE
  5
4912
  8
0
 10
390.0310578771934047
 20
68.441179273407883
 30
0.0
 40
0.0387698883999992
  0
CIRCLE
  5
4913
  8
0
 10
390.1533534102933913
 20
68.4714451316078652
 30
0.0
 40
0.0387698883999992
  0
CIRCLE
  5
4914
  8
0
 10
390.2756483659933906
 20
68.5017100920078832
 30
0.0
 40
0.0387698883999992
  0
CIRCLE
  5
4915
  8
0
 10
390.3979433175933877
 20
68.5319750674078563
 30
0.0
 40
0.0387698883999992
  0
CIRCLE
  5
4916
  8
0
 10
390.5202381030933907
 20
68.5622396997078738
 30
0.0
 40
0.0387698883999992
  0
CIRCLE
  5
4917
  8
0
 10
390.6425332669933823
 20
68.5925046000078709
 30
0.0
 40
0.0387698883999992
  0
CIRCLE
  5
4918
  8
0
 10
390.7648282853933779
 20
68.622769593207849
 30
0.0
 40
0.0387698883999992
  0
CIRCLE
  5
4919
  8
0
 10
390.7997660797934145
 20
68.7438125351078924
 30
0.0
 40
0.0387698883999992
  0
CIRCLE
  5
491A
  8
0
 10
390.8871232410933771
 20
68.653034553607867
 30
0.0
 40
0.0387698883999992
  0
CIRCLE
  5
491B
  8
0
 10
390.8521859752934233
 20
68.5319917169078821
 30
0.0
 40
0.0387698883999992
  0
CIRCLE
  5
491C
  8
0
 10
390.7298904832933886
 20
68.5017259415078996
 30
0.0
 40
0.0387698883999992
  0
CIRCLE
  5
491D
  8
0
 10
390.607595527493288
 20
68.4714609811078816
 30
0.0
 40
0.0387698883999992
  0
CIRCLE
  5
491E
  8
0
 10
390.4853005901935035
 20
68.4411963579078559
 30
0.0
 40
0.0387698883999992
  0
CIRCLE
  5
491F
  8
0
 10
390.3630056343934029
 20
68.4109313975078948
 30
0.0
 40
0.0387698883999992
  0
CIRCLE
  5
4920
  8
0
 10
390.2407106786934037
 20
68.3806664371078767
 30
0.0
 40
0.0387698883999992
  0
CIRCLE
  5
4921
  8
0
 10
390.1184157228934168
 20
68.3504014767079155
 30
0.0
 40
0.0387698883999992
  0
CIRCLE
  5
4922
  8
0
 10
390.2407402285933813
 20
67.5938947972078807
 30
0.0
 40
0.0433138316000008
  0
CIRCLE
  5
4923
  8
0
 10
390.3630354305934134
 20
67.624160122207897
 30
0.0
 40
0.0433138739
  0
CIRCLE
  5
4924
  8
0
 10
390.2756772830933869
 20
67.7149379607078998
 30
0.0
 40
0.0433138739
  0
CIRCLE
  5
4925
  8
0
 10
390.1533824340933734
 20
67.6846732457079128
 30
0.0
 40
0.0433138739
  0
CIRCLE
  5
4926
  8
0
 10
390.1533824340933734
 20
67.6846732457079128
 30
0.0
 40
0.0433138739
  0
CIRCLE
  5
4927
  8
0
 10
390.0310874782935002
 20
67.6544082853078947
 30
0.0
 40
0.0433138739
  0
CIRCLE
  5
4928
  8
0
 10
389.9961504023934253
 20
67.5333650251078978
 30
0.0
 40
0.0433138739
  0
CIRCLE
  5
4929
  8
0
 10
390.1184454701934214
 20
67.5636299800079172
 30
0.0
 40
0.0433138739
  0
CIRCLE
  5
492A
  8
0
 10
389.9087923994933931
 20
67.6241433404078833
 30
0.0
 40
0.0433138739
  0
CIRCLE
  5
492B
  8
0
 10
389.8738554466934261
 20
67.5031000647078798
 30
0.0
 40
0.0433138739
  0
CIRCLE
  5
492C
  8
0
 10
389.8389183825934197
 20
67.3820570458078549
 30
0.0
 40
0.0433138739
  0
CIRCLE
  5
492D
  8
0
 10
389.9612133334935038
 20
67.4123220225078938
 30
0.0
 40
0.0433138739
  0
CIRCLE
  5
492E
  8
0
 10
390.0835082891933894
 20
67.4425869828078675
 30
0.0
 40
0.0433138739
  0
CIRCLE
  5
492F
  8
0
 10
390.205803271093373
 20
67.4728519859078659
 30
0.0
 40
0.0433138739
  0
CIRCLE
  5
4930
  8
0
 10
390.3280982268934167
 20
67.5031169463078839
 30
0.0
 40
0.0433138739
  0
CIRCLE
  5
4931
  8
0
 10
390.450393182593416
 20
67.533381906707902
 30
0.0
 40
0.0433138739
  0
CIRCLE
  5
4932
  8
0
 10
390.572688156393383
 20
67.5636468646078896
 30
0.0
 40
0.0433138739
  0
CIRCLE
  5
4933
  8
0
 10
390.5377505756933942
 20
67.4426040229079007
 30
0.0
 40
0.0433138739
  0
CIRCLE
  5
4934
  8
0
 10
390.660045563193421
 20
67.4728690315078978
 30
0.0
 40
0.0433138739
  0
CIRCLE
  5
4935
  8
0
 10
390.7823407553934203
 20
67.5031337999079
 30
0.0
 40
0.0433138739
  0
CIRCLE
  5
4936
  8
0
 10
390.5028135833933902
 20
67.3215604322078747
 30
0.0
 40
0.0433138739
  0
CIRCLE
  5
4937
  8
0
 10
390.4159304931934003
 20
67.4152043411078665
 30
0.0
 40
0.0433138739
  0
CIRCLE
  5
4938
  8
0
 10
390.2931608270934021
 20
67.3820738878078913
 30
0.0
 40
0.0433138739
  0
CIRCLE
  5
4939
  8
0
 10
390.1708658713934028
 20
67.3518089274078733
 30
0.0
 40
0.0433138739
  0
CIRCLE
  5
493A
  8
0
 10
390.0485706391933718
 20
67.3215441795078817
 30
0.0
 40
0.0433138739
  0
CIRCLE
  5
493B
  8
0
 10
389.9262761770934276
 20
67.291279301107906
 30
0.0
 40
0.0433138739
  0
CIRCLE
  5
493C
  8
0
 10
389.7166232541933937
 20
67.3517920457078816
 30
0.0
 40
0.0433138739
  0
CIRCLE
  5
493D
  8
0
 10
389.5943282983934068
 20
67.3215270854078511
 30
0.0
 40
0.0433138739
  0
CIRCLE
  5
493E
  8
0
 10
389.6292654041932906
 20
67.4425701439079006
 30
0.0
 40
0.0433138739
  0
CIRCLE
  5
493F
  8
0
 10
389.6642023894934255
 20
67.5636133452078838
 30
0.0
 40
0.0433138739
  0
CIRCLE
  5
4940
  8
0
 10
389.7515604908933824
 20
67.4728351043078618
 30
0.0
 40
0.0433138739
  0
CIRCLE
  5
4941
  8
0
 10
389.7864974436934062
 20
67.5938783800078653
 30
0.0
 40
0.0433138739
  0
CIRCLE
  5
4942
  8
0
 10
389.8214348398934135
 20
67.7149212107078569
 30
0.0
 40
0.0433138739
  0
CIRCLE
  5
4943
  8
0
 10
389.6991397714933782
 20
67.6846561355078933
 30
0.0
 40
0.0433138739
  0
CIRCLE
  5
4944
  8
0
 10
389.9442837017933812
 20
67.7459130025078906
 30
0.0
 40
0.0433138739
  0
CIRCLE
  5
4945
  8
0
 10
390.0660247501933782
 20
67.7754510176078924
 30
0.0
 40
0.0433138739
  0
CIRCLE
  5
4946
  8
0
 10
390.1883196044934152
 20
67.8057161495079157
 30
0.0
 40
0.0433138739
  0
CIRCLE
  5
4947
  8
0
 10
390.3106145601934145
 20
67.8359811099078769
 30
0.0
 40
0.0433138739
  0
CIRCLE
  5
4948
  8
0
 10
389.3846752412933938
 20
67.3820403659078551
 30
0.0
 40
0.0433136950000002
  0
CIRCLE
  5
4949
  8
0
 10
389.4196123102934166
 20
67.5030833685078449
 30
0.0
 40
0.0433137950000013
  0
CIRCLE
  5
494A
  8
0
 10
389.5069701969933931
 20
67.4123053263078731
 30
0.0
 40
0.0433137950000013
  0
CIRCLE
  5
494B
  8
0
 10
389.4720330716933745
 20
67.2912626000078689
 30
0.0
 40
0.0433137950000013
  0
CIRCLE
  5
494C
  8
0
 10
389.5419074037934024
 20
67.5333483403078816
 30
0.0
 40
0.0433137950000013
  0
CIRCLE
  5
494D
  8
0
 10
389.4545500644932758
 20
67.6241261568078897
 30
0.0
 40
0.0433137950000013
  0
CIRCLE
  5
494E
  8
0
 10
389.4894872942934967
 20
67.745169559607902
 30
0.0
 40
0.0433137950000013
  0
CIRCLE
  5
494F
  8
0
 10
389.5768448156932777
 20
67.6543911752078628
 30
0.0
 40
0.0433137950000013
  0
CIRCLE
  5
4950
  8
0
 10
389.6117824855933804
 20
67.7754345214078597
 30
0.0
 40
0.0433137950000013
  0
CIRCLE
  5
4951
  8
0
 10
389.6467195219934183
 20
67.8964777232078944
 30
0.0
 40
0.0433137950000013
  0
CIRCLE
  5
4952
  8
0
 10
389.5244246405932813
 20
67.8662126644078825
 30
0.0
 40
0.0433137950000013
  0
CIRCLE
  5
4953
  8
0
 10
389.5593618493934969
 20
67.9872554944079042
 30
0.0
 40
0.0433137950000013
  0
CIRCLE
  5
4954
  8
0
 10
389.681656786293388
 20
68.0175203928078957
 30
0.0
 40
0.0433137950000013
  0
CIRCLE
  5
4955
  8
0
 10
389.7165939605934
 20
68.1385632940078807
 30
0.0
 40
0.0433137950000013
  0
CIRCLE
  5
4956
  8
0
 10
389.8039518095934
 20
68.0477856462078847
 30
0.0
 40
0.0433137950000013
  0
CIRCLE
  5
4957
  8
0
 10
389.8388891319434038
 20
68.1711098529078612
 30
0.0
 40
0.0433137950000013
  0
CIRCLE
  5
4958
  8
0
 10
389.9262467653935005
 20
68.0780506066079028
 30
0.0
 40
0.0433137950000013
  0
CIRCLE
  5
4959
  8
0
 10
390.0485417210933861
 20
68.1083155670078639
 30
0.0
 40
0.0433137950000013
  0
CIRCLE
  5
495A
  8
0
 10
389.96118399199338
 20
68.1990930907078763
 30
0.0
 40
0.0433137950000013
  0
CIRCLE
  5
495B
  8
0
 10
389.8738260579934263
 20
68.2898716336078877
 30
0.0
 40
0.0433137950000013
  0
CIRCLE
  5
495C
  8
0
 10
389.7515310724933784
 20
68.259606442907895
 30
0.0
 40
0.0433137950000013
  0
CIRCLE
  5
495D
  8
0
 10
389.6292360406933994
 20
68.2293417200078665
 30
0.0
 40
0.0433137950000013
  0
CIRCLE
  5
495E
  8
0
 10
389.5942991671934124
 20
68.108298413007887
 30
0.0
 40
0.0433137950000013
  0
CIRCLE
  5
495F
  8
0
 10
389.7340774300934072
 20
67.8056992919078851
 30
0.0
 40
0.0433137950000013
  0
CIRCLE
  5
4960
  8
0
 10
389.7690144331933766
 20
67.9267427136078652
 30
0.0
 40
0.0433137950000013
  0
CIRCLE
  5
4961
  8
0
 10
389.8913095099932775
 20
67.9570077325079041
 30
0.0
 40
0.0433137950000013
  0
CIRCLE
  5
4962
  8
0
 10
390.0136044678934013
 20
67.9872726189079088
 30
0.0
 40
0.0433137950000013
  0
CIRCLE
  5
4963
  8
0
 10
390.1358994940932803
 20
68.0175375175078756
 30
0.0
 40
0.0433137950000013
  0
CIRCLE
  5
4964
  8
0
 10
390.1009624358933934
 20
67.8964942128078945
 30
0.0
 40
0.0433137950000013
  0
CIRCLE
  5
4965
  8
0
 10
389.9786674801933941
 20
67.8662292524078765
 30
0.0
 40
0.0433137950000013
  0
CIRCLE
  5
4966
  8
0
 10
389.8563724127932915
 20
67.8359642985079034
 30
0.0
 40
0.0433137950000013
  0
CIRCLE
  5
4967
  8
0
 10
389.9961211247933761
 20
68.3201365886078946
 30
0.0
 40
0.0433137950000013
  0
CIRCLE
  5
4968
  8
0
 10
390.0834792020933719
 20
68.2293584242079163
 30
0.0
 40
0.0433137950000013
  0
CIRCLE
  5
4969
  8
0
 10
390.2057740397934253
 20
68.2596230030078885
 30
0.0
 40
0.0433137950000013
  0
CIRCLE
  5
496A
  8
0
 10
390.3280689955934122
 20
68.2898879634078497
 30
0.0
 40
0.0433137950000013
  0
CIRCLE
  5
496B
  8
0
 10
390.1708364964933935
 20
68.1385804147079028
 30
0.0
 40
0.0433137950000013
  0
CIRCLE
  5
496C
  8
0
 10
390.2931088699434099
 20
68.1711098529078612
 30
0.0
 40
0.0433137950000013
  0
CIRCLE
  5
496D
  8
0
 10
390.4503639512934114
 20
68.3201529238078678
 30
0.0
 40
0.0433137950000013
  0
CIRCLE
  5
496E
  8
0
 10
390.415426569493377
 20
68.1991103862078916
 30
0.0
 40
0.0433137950000013
  0
CIRCLE
  5
496F
  8
0
 10
390.5377217961934093
 20
68.2293751866078964
 30
0.0
 40
0.0433137950000013
  0
CIRCLE
  5
4970
  8
0
 10
390.5027846083934264
 20
68.1083324311078826
 30
0.0
 40
0.0433137950000013
  0
CIRCLE
  5
4971
  8
0
 10
390.3804894055933801
 20
68.0780674383079116
 30
0.0
 40
0.0433137950000013
  0
CIRCLE
  5
4972
  8
0
 10
390.2581944498933808
 20
68.0478024779078936
 30
0.0
 40
0.0433137950000013
  0
CIRCLE
  5
4973
  8
0
 10
390.2232573375933953
 20
67.9267593276078827
 30
0.0
 40
0.0433137950000013
  0
CIRCLE
  5
4974
  8
0
 10
390.345552374193403
 20
67.9570242892078653
 30
0.0
 40
0.0433137950000013
  0
CIRCLE
  5
4975
  8
0
 10
390.4678471894932841
 20
67.9872890371078569
 30
0.0
 40
0.0433137950000013
  0
CIRCLE
  5
4976
  8
0
 10
390.4329095159934013
 20
67.8662460702078931
 30
0.0
 40
0.0433137950000013
  0
CIRCLE
  5
4977
  8
0
 10
390.555204634493407
 20
67.8965110791078672
 30
0.0
 40
0.0433137950000013
  0
CIRCLE
  5
4978
  8
0
 10
390.6774996769934205
 20
67.9267760373078744
 30
0.0
 40
0.0433137950000013
  0
CIRCLE
  5
4979
  8
0
 10
390.520267194593373
 20
67.775467881507879
 30
0.0
 40
0.0433137950000013
  0
CIRCLE
  5
497A
  8
0
 10
390.6425626460933813
 20
67.8057327598078672
 30
0.0
 40
0.0433137950000013
  0
CIRCLE
  5
497B
  8
0
 10
390.3979722387933862
 20
67.745202921107861
 30
0.0
 40
0.0433137950000013
  0
CIRCLE
  5
497C
  8
0
 10
390.4867966348933805
 20
67.6553618214579018
 30
0.0
 40
0.0433137950000013
  0
CIRCLE
  5
497D
  8
0
 10
390.6076252271934095
 20
67.684689659307864
 30
0.0
 40
0.0433137950000013
  0
CIRCLE
  5
497E
  8
0
 10
390.7299201828934088
 20
67.714954619707882
 30
0.0
 40
0.0433137950000013
  0
CIRCLE
  5
497F
  8
0
 10
390.8522153591932806
 20
67.7452199657079035
 30
0.0
 40
0.0433137950000013
  0
CIRCLE
  5
4980
  8
0
 10
390.8172779682934106
 20
67.6241769281078717
 30
0.0
 40
0.0433137950000013
  0
CIRCLE
  5
4981
  8
0
 10
390.6949830269934978
 20
67.5939120727078802
 30
0.0
 40
0.0433137950000013
  0
CIRCLE
  5
4982
  8
0
 10
390.6251085391933771
 20
67.3518253926078927
 30
0.0
 40
0.0433137950000013
  0
CIRCLE
  5
4983
  8
0
 10
390.7474032494932885
 20
67.3820904597078965
 30
0.0
 40
0.0433137950000013
  0
CIRCLE
  5
4984
  8
0
 10
390.869698205293389
 20
67.4123554201079145
 30
0.0
 40
0.0433137950000013
  0
CIRCLE
  5
4985
  8
0
 10
390.9919932108933835
 20
67.4426204942079011
 30
0.0
 40
0.0433137950000013
  0
CIRCLE
  5
4986
  8
0
 10
390.9570558205933821
 20
67.3215775410078834
 30
0.0
 40
0.0433137950000013
  0
CIRCLE
  5
4987
  8
0
 10
390.8347616222933993
 20
67.2913128720078788
 30
0.0
 40
0.0433137950000013
  0
CIRCLE
  5
4988
  8
0
 10
390.9046359623933995
 20
67.5333986180078654
 30
0.0
 40
0.0433137950000013
  0
CIRCLE
  5
4989
  8
0
 10
391.0269309456933797
 20
67.5636633290078947
 30
0.0
 40
0.0433137950000013
  0
CIRCLE
  5
498A
  8
0
 10
391.1492256649934234
 20
67.5939284443078776
 30
0.0
 40
0.0433137950000013
  0
CIRCLE
  5
498B
  8
0
 10
391.0618680038933803
 20
67.6847069092078613
 30
0.0
 40
0.0433137950000013
  0
CIRCLE
  5
498C
  8
0
 10
390.9395729240932837
 20
67.6544418885078898
 30
0.0
 40
0.0433137950000013
  0
CIRCLE
  5
498D
  8
0
 10
390.9777885856317994
 20
67.7744890246262202
 30
0.0
 40
0.0433137950000013
  0
CIRCLE
  5
498E
  8
0
 10
391.096805360893427
 20
67.8057497133078613
 30
0.0
 40
0.0433137950000013
  0
CIRCLE
  5
498F
  8
0
 10
391.0094475890933836
 20
67.8965275955078909
 30
0.0
 40
0.0433137950000013
  0
CIRCLE
  5
4990
  8
0
 10
390.8871526333933843
 20
67.8662626351078728
 30
0.0
 40
0.0433137950000013
  0
CIRCLE
  5
4991
  8
0
 10
390.7997946327934073
 20
67.9570409977078924
 30
0.0
 40
0.0433137950000013
  0
CIRCLE
  5
4992
  8
0
 10
390.7648576775933975
 20
67.8359976747078548
 30
0.0
 40
0.0433137950000013
  0
CIRCLE
  5
4993
  8
0
 10
390.9220895437933905
 20
67.987305749307879
 30
0.0
 40
0.0433137950000013
  0
CIRCLE
  5
4994
  8
0
 10
391.0443846649934017
 20
68.0175708558078753
 30
0.0
 40
0.0433137950000013
  0
CIRCLE
  5
4995
  8
0
 10
390.5901421451932833
 20
68.0175539975078749
 30
0.0
 40
0.0433137950000013
  0
CIRCLE
  5
4996
  8
0
 10
390.71243711679341
 20
68.0478189241078866
 30
0.0
 40
0.0433137950000013
  0
CIRCLE
  5
4997
  8
0
 10
390.8347320265933718
 20
68.0780837811079067
 30
0.0
 40
0.0433137950000013
  0
CIRCLE
  5
4998
  8
0
 10
390.9570269823934154
 20
68.1083487415078679
 30
0.0
 40
0.0433137950000013
  0
CIRCLE
  5
4999
  8
0
 10
391.0793217830934054
 20
68.1386138311078611
 30
0.0
 40
0.0433137950000013
  0
CIRCLE
  5
499A
  8
0
 10
390.9919646228934198
 20
68.2293919064078835
 30
0.0
 40
0.0433137950000013
  0
CIRCLE
  5
499B
  8
0
 10
390.8696695526933809
 20
68.1991269478078692
 30
0.0
 40
0.0433137950000013
  0
CIRCLE
  5
499C
  8
0
 10
390.7473745968932803
 20
68.168861987407908
 30
0.0
 40
0.0433137950000013
  0
CIRCLE
  5
499D
  8
0
 10
390.6250796411932811
 20
68.13859702700789
 30
0.0
 40
0.0433137950000013
  0
CIRCLE
  5
499E
  8
0
 10
390.5726593346934123
 20
68.3504182960078737
 30
0.0
 40
0.0433137950000013
  0
CIRCLE
  5
499F
  8
0
 10
390.6949545386934233
 20
68.3806832826078761
 30
0.0
 40
0.0433137950000013
  0
CIRCLE
  5
49A0
  8
0
 10
390.8172494943934225
 20
68.4109482429079065
 30
0.0
 40
0.0433137950000013
  0
CIRCLE
  5
49A1
  8
0
 10
390.7823117409932934
 20
68.2899053426078666
 30
0.0
 40
0.0433137950000013
  0
CIRCLE
  5
49A2
  8
0
 10
390.6600166641933924
 20
68.2596403237078988
 30
0.0
 40
0.0433137950000013
  0
CIRCLE
  5
49A3
  8
0
 10
390.9046066987933727
 20
68.3201702290078714
 30
0.0
 40
0.0433137950000013
  0
CIRCLE
  5
49A4
  8
0
 10
391.0269019073933805
 20
68.3504342896078896
 30
0.0
 40
0.0433137950000013
  0
CIRCLE
  5
49A5
  8
0
 10
390.9395455037933971
 20
68.4412147916078624
 30
0.0
 40
0.0433137950000013
  0
CIRCLE
  5
49A6
  8
0
 10
391.1841346172934095
 20
68.5017449712079127
 30
0.0
 40
0.0433137950000013
  0
CIRCLE
  5
49A7
  8
0
 10
391.0618396402933854
 20
68.4714799960079148
 30
0.0
 40
0.0433137950000013
  0
CIRCLE
  5
49A8
  8
0
 10
390.9744807618932896
 20
68.5622558057078635
 30
0.0
 40
0.0433137950000013
  0
CIRCLE
  5
49A9
  8
0
 10
391.0967755528934049
 20
68.5925207626079185
 30
0.0
 40
0.0433137950000013
  0
CIRCLE
  5
49AA
  8
0
 10
391.2190708756933759
 20
68.6227855876078792
 30
0.0
 40
0.0433137950000013
  0
CIRCLE
  5
49AB
  8
0
 10
391.1491968623934099
 20
68.3806992229078645
 30
0.0
 40
0.0433137950000013
  0
CIRCLE
  5
49AC
  8
0
 10
391.2714918181932831
 20
68.4109641833078825
 30
0.0
 40
0.0433137950000013
  0
CIRCLE
  5
49AD
  8
0
 10
391.3937867368933894
 20
68.441229106507862
 30
0.0
 40
0.0433137950000013
  0
CIRCLE
  5
49AE
  8
0
 10
391.3064286171933759
 20
68.5320083667078706
 30
0.0
 40
0.0433137950000013
  0
CIRCLE
  5
49AF
  8
0
 10
391.3413657434933839
 20
68.6530509883078679
 30
0.0
 40
0.0387698618000005
  0
CIRCLE
  5
49B0
  8
0
 10
391.4636606992934276
 20
68.6833159487078859
 30
0.0
 40
0.0387698618000005
  0
CIRCLE
  5
49B1
  8
0
 10
391.4287235729934196
 20
68.562273327007901
 30
0.0
 40
0.0387698618000005
  0
CIRCLE
  5
49B2
  8
0
 10
391.5510185640933969
 20
68.5925380908079063
 30
0.0
 40
0.0387698618000005
  0
CIRCLE
  5
49B3
  8
0
 10
391.6733137029934255
 20
68.6228023362078545
 30
0.0
 40
0.0387698618000005
  0
CIRCLE
  5
49B4
  8
0
 10
391.5859564182932786
 20
68.7135811110078834
 30
0.0
 40
0.0387698618000005
  0
CIRCLE
  5
49B5
  8
0
 10
391.498598709893372
 20
68.8043593686078765
 30
0.0
 40
0.0387698618000005
  0
CIRCLE
  5
49B6
  8
0
 10
391.3763036385934129
 20
68.7740944163078751
 30
0.0
 40
0.0387698618000005
  0
CIRCLE
  5
49B7
  8
0
 10
391.2540081128934162
 20
68.7438292673078735
 30
0.0
 40
0.0387698618000005
  0
CIRCLE
  5
49B8
  8
0
 10
391.1317131570933725
 20
68.7135643069078554
 30
0.0
 40
0.0387698618000005
  0
CIRCLE
  5
49B9
  8
0
 10
391.0094181968934208
 20
68.6832995139078974
 30
0.0
 40
0.0387698618000005
  0
CIRCLE
  5
49BA
  8
0
 10
391.0443553603934106
 20
68.8043424567078858
 30
0.0
 40
0.0387698618000005
  0
CIRCLE
  5
49BB
  8
0
 10
391.166650468293426
 20
68.8346073663078499
 30
0.0
 40
0.0387698618000005
  0
CIRCLE
  5
49BC
  8
0
 10
391.2889454240934128
 20
68.864872326707868
 30
0.0
 40
0.0387698618000005
  0
CIRCLE
  5
49BD
  8
0
 10
391.4112403798933997
 20
68.895137287107886
 30
0.0
 40
0.0387698618000005
  0
CIRCLE
  5
49BE
  8
0
 10
391.5335353385934241
 20
68.925402177807868
 30
0.0
 40
0.0387698618000005
  0
CIRCLE
  5
49BF
  8
0
 10
391.5160818923934016
 20
68.4714951709079145
 30
0.0
 40
0.0387698618000005
  0
CIRCLE
  5
49C0
  8
0
 10
391.6383764251934281
 20
68.5017604317078934
 30
0.0
 40
0.0387698618000005
  0
CIRCLE
  5
49C1
  8
0
 10
391.7606718038933877
 20
68.5320250917078937
 30
0.0
 40
0.0387698618000005
  0
CIRCLE
  5
49C2
  8
0
 10
391.8829663408934039
 20
68.5622903034078917
 30
0.0
 40
0.0387698618000005
  0
CIRCLE
  5
49C3
  8
0
 10
391.8480296968933771
 20
68.4412467990078852
 30
0.0
 40
0.0387698618000005
  0
CIRCLE
  5
49C4
  8
0
 10
391.7257347552933879
 20
68.4109818011078659
 30
0.0
 40
0.0387698618000005
  0
CIRCLE
  5
49C5
  8
0
 10
391.6034397995933887
 20
68.3807168407079047
 30
0.0
 40
0.0387698618000005
  0
CIRCLE
  5
49C6
  8
0
 10
391.4811447947934084
 20
68.3504518535078631
 30
0.0
 40
0.0387698618000005
  0
CIRCLE
  5
49C7
  8
0
 10
391.3588495608934181
 20
68.3201868596079152
 30
0.0
 40
0.0387698618000005
  0
CIRCLE
  5
49C8
  8
0
 10
391.2365546051934189
 20
68.2899218992078829
 30
0.0
 40
0.0387698618000005
  0
CIRCLE
  5
49C9
  8
0
 10
391.1142595433934162
 20
68.2596569598078844
 30
0.0
 40
0.0387698618000005
  0
CIRCLE
  5
49CA
  8
0
 10
391.7082513779934061
 20
68.7438460795078612
 30
0.0
 40
0.0387698618000005
  0
CIRCLE
  5
49CB
  8
0
 10
391.8305458352933783
 20
68.7741109090078879
 30
0.0
 40
0.0387698618000005
  0
CIRCLE
  5
49CC
  8
0
 10
391.7956094703934014
 20
68.6530678689078826
 30
0.0
 40
0.0387698618000005
  0
CIRCLE
  5
49CD
  8
0
 10
391.935386553393414
 20
68.3504684889078789
 30
0.0
 40
0.0387698618000005
  0
CIRCLE
  5
49CE
  8
0
 10
391.8130916909934172
 20
68.3202034707078809
 30
0.0
 40
0.0387698618000005
  0
CIRCLE
  5
49CF
  8
0
 10
391.7431885034932861
 20
68.8648891001079022
 30
0.0
 40
0.0387698618000005
  0
CIRCLE
  5
49D0
  8
0
 10
391.7781254399934028
 20
68.9859319221078948
 30
0.0
 40
0.0387698618000005
  0
CIRCLE
  5
49D1
  8
0
 10
391.6558312033934044
 20
68.955667146907885
 30
0.0
 40
0.0387698618000005
  0
CIRCLE
  5
49D2
  8
0
 10
391.618989333511081
 20
68.8433093199787152
 30
0.0
 40
0.0387698618000005
  0
CIRCLE
  5
49D3
  8
0
 10
391.0792933536934015
 20
68.9253856221078962
 30
0.0
 40
0.0357404182999996
  0
CIRCLE
  5
49D4
  8
0
 10
391.2015879408933756
 20
68.9556504473078888
 30
0.0
 40
0.0357404182999996
  0
CIRCLE
  5
49D5
  8
0
 10
391.3238824787933936
 20
68.9859150471078664
 30
0.0
 40
0.0357404182999996
  0
CIRCLE
  5
49D6
  8
0
 10
391.4461774303933908
 20
69.0161799530078923
 30
0.0
 40
0.0357404182999996
  0
CIRCLE
  5
49D7
  8
0
 10
391.5684733960933954
 20
69.0464451056079014
 30
0.0
 40
0.0357404182999996
  0
CIRCLE
  5
49D8
  8
0
 10
391.6907705124933727
 20
69.0767068449078749
 30
0.0
 40
0.0357404182999996
  0
CIRCLE
  5
49D9
  8
0
 10
391.7257089035933859
 20
69.1977524266078916
 30
0.0
 40
0.0357404182999996
  0
CIRCLE
  5
49DA
  8
0
 10
391.6034138238935043
 20
69.1674906171078732
 30
0.0
 40
0.0357404182999996
  0
CIRCLE
  5
49DB
  8
0
 10
391.4811181094934227
 20
69.1372199401078831
 30
0.0
 40
0.0357404182999996
  0
CIRCLE
  5
49DC
  8
0
 10
391.3588162614934163
 20
69.1069590232078639
 30
0.0
 40
0.0357404182999996
  0
CIRCLE
  5
49DD
  8
0
 10
391.2365285468933962
 20
69.0766955135078859
 30
0.0
 40
0.0357404182999996
  0
CIRCLE
  5
49DE
  8
0
 10
391.114230093093397
 20
69.046428586107865
 30
0.0
 40
0.0357404182999996
  0
CIRCLE
  5
49DF
  8
0
 10
390.9919351372934102
 20
69.0161636257079039
 30
0.0
 40
0.0357404182999996
  0
CIRCLE
  5
49E0
  8
0
 10
391.0268716843934271
 20
69.1372022521078833
 30
0.0
 40
0.0357404182999996
  0
CIRCLE
  5
49E1
  8
0
 10
391.1491666401933003
 20
69.1674672124079137
 30
0.0
 40
0.0357404182999996
  0
CIRCLE
  5
49E2
  8
0
 10
391.2714657607933759
 20
69.1977385819078989
 30
0.0
 40
0.0357404182999996
  0
CIRCLE
  5
49E3
  8
0
 10
391.3937568859934117
 20
69.2279972525078477
 30
0.0
 40
0.0357404182999996
  0
CIRCLE
  5
49E4
  8
0
 10
391.516051841693411
 20
69.2582622129078658
 30
0.0
 40
0.0357404182999996
  0
CIRCLE
  5
49E5
  8
0
 10
391.6383439119933882
 20
69.2885317567079113
 30
0.0
 40
0.0357404182999996
  0
CIRCLE
  5
49E6
  8
0
 10
391.2015941292934826
 20
68.1711098529078612
 30
0.0
 40
0.0411141136646886
  0
CIRCLE
  5
49E7
  8
0
 10
391.3239116945932778
 20
68.1991437519078971
 30
0.0
 40
0.0433138056000002
  0
CIRCLE
  5
49E8
  8
0
 10
391.288974469793402
 20
68.0781005311078928
 30
0.0
 40
0.0433137153000001
  0
CIRCLE
  5
49E9
  8
0
 10
391.1666796207933885
 20
68.0478358162078933
 30
0.0
 40
0.0433137447000007
  0
CIRCLE
  5
49EA
  8
0
 10
391.4112694254934013
 20
68.1083654915079109
 30
0.0
 40
0.0433137153000001
  0
CIRCLE
  5
49EB
  8
0
 10
391.533564483393377
 20
68.1386306258078633
 30
0.0
 40
0.0433136504
  0
CIRCLE
  5
49EC
  8
0
 10
391.5685017794933742
 20
68.2596735499079017
 30
0.0
 40
0.0433136504
  0
CIRCLE
  5
49ED
  8
0
 10
391.4462068218933837
 20
68.2294087745078599
 30
0.0
 40
0.0433136504
  0
CIRCLE
  5
49EE
  8
0
 10
391.6784465965540107
 20
68.2904002831228212
 30
0.0
 40
0.0433136504
  0
CIRCLE
  5
49EF
  8
0
 10
391.7781548591934211
 20
68.1991602633079168
 30
0.0
 40
0.0433136504
  0
CIRCLE
  5
49F0
  8
0
 10
391.9004497858934997
 20
68.2294251780078724
 30
0.0
 40
0.0433136504
  0
CIRCLE
  5
49F1
  8
0
 10
391.9878074339932823
 20
68.1386472034078992
 30
0.0
 40
0.0433136504
  0
CIRCLE
  5
49F2
  8
0
 10
391.8655125458934094
 20
68.1083825362078841
 30
0.0
 40
0.0433136504
  0
CIRCLE
  5
49F3
  8
0
 10
391.7432173695934239
 20
68.0781171902078626
 30
0.0
 40
0.0433136504
  0
CIRCLE
  5
49F4
  8
0
 10
391.6209224138934246
 20
68.0478522298079014
 30
0.0
 40
0.0433136504
  0
CIRCLE
  5
49F5
  8
0
 10
391.7082802136932855
 20
67.9570746431078732
 30
0.0
 40
0.0433136504
  0
CIRCLE
  5
49F6
  8
0
 10
391.8305751694933861
 20
67.9873396035078912
 30
0.0
 40
0.0433136504
  0
CIRCLE
  5
49F7
  8
0
 10
391.9629911039090757
 20
68.0239983639038854
 30
0.0
 40
0.0433136504
  0
CIRCLE
  5
49F8
  8
0
 10
392.0402281372934112
 20
67.9268262607078839
 30
0.0
 40
0.0433136504
  0
CIRCLE
  5
49F9
  8
0
 10
391.9198675010932789
 20
67.8955193017078926
 30
0.0
 40
0.0433136504
  0
CIRCLE
  5
49FA
  8
0
 10
391.7956381932934278
 20
67.8662962280078972
 30
0.0
 40
0.0433136504
  0
CIRCLE
  5
49FB
  8
0
 10
391.6733427498933793
 20
67.8360316020078784
 30
0.0
 40
0.0433136504
  0
CIRCLE
  5
49FC
  8
0
 10
391.1841629617933904
 20
67.7149717956078661
 30
0.0
 40
0.0433137950000013
  0
CIRCLE
  5
49FD
  8
0
 10
391.3064580009934161
 20
67.7452367999078859
 30
0.0
 40
0.0433137950000013
  0
CIRCLE
  5
49FE
  8
0
 10
391.4287529567932893
 20
67.775501760307904
 30
0.0
 40
0.0433137950000013
  0
CIRCLE
  5
49FF
  8
0
 10
391.341395413593375
 20
67.8662795168078645
 30
0.0
 40
0.0433137950000013
  0
CIRCLE
  5
4A00
  8
0
 10
391.2191004577933882
 20
67.8360145564079033
 30
0.0
 40
0.0433137950000013
  0
CIRCLE
  5
4A01
  8
0
 10
391.27152070359341
 20
67.6241934499079065
 30
0.0
 40
0.0433137950000013
  0
CIRCLE
  5
4A02
  8
0
 10
391.3938155134932799
 20
67.6544580880078996
 30
0.0
 40
0.0433137950000013
  0
CIRCLE
  5
4A03
  8
0
 10
391.516110596193414
 20
67.6847231047079134
 30
0.0
 40
0.0433137950000013
  0
CIRCLE
  5
4A04
  8
0
 10
391.358878474393407
 20
67.5334151831078628
 30
0.0
 40
0.0433137950000013
  0
CIRCLE
  5
4A05
  8
0
 10
391.4811734300934063
 20
67.5636801435078809
 30
0.0
 40
0.0433137950000013
  0
CIRCLE
  5
4A06
  8
0
 10
391.3239409097934072
 20
67.4123723009079043
 30
0.0
 40
0.0433137950000013
  0
CIRCLE
  5
4A07
  8
0
 10
391.236583153993422
 20
67.5031504689078901
 30
0.0
 40
0.0433137950000013
  0
CIRCLE
  5
4A08
  8
0
 10
391.1127808868934039
 20
67.4703224513078652
 30
0.0
 40
0.0433137950000013
  0
CIRCLE
  5
4A09
  8
0
 10
391.203332067993415
 20
67.3797712702578764
 30
0.0
 40
0.0433137950000013
  0
CIRCLE
  5
4A0A
  8
0
 10
391.0773478159935053
 20
67.3443381994078862
 30
0.0
 40
0.0433137950000013
  0
CIRCLE
  5
4A0B
  8
0
 10
391.4462359774934157
 20
67.4426372558078668
 30
0.0
 40
0.0433137950000013
  0
CIRCLE
  5
4A0C
  8
0
 10
391.5685309608933835
 20
67.4729022621078656
 30
0.0
 40
0.0433137950000013
  0
CIRCLE
  5
4A0D
  8
0
 10
391.6908259166934272
 20
67.5031672225078836
 30
0.0
 40
0.0433137950000013
  0
CIRCLE
  5
4A0E
  8
0
 10
391.6034681262934214
 20
67.5939451796078714
 30
0.0
 40
0.0433137950000013
  0
CIRCLE
  5
4A0F
  8
0
 10
391.725763224193372
 20
67.6242103095079159
 30
0.0
 40
0.0433137950000013
  0
CIRCLE
  5
4A10
  8
0
 10
391.6384055519934009
 20
67.7149880651078746
 30
0.0
 40
0.0433137950000013
  0
CIRCLE
  5
4A11
  8
0
 10
391.7607005076934001
 20
67.7452530255078926
 30
0.0
 40
0.0433137950000013
  0
CIRCLE
  5
4A12
  8
0
 10
391.882995463493387
 20
67.7755179859078538
 30
0.0
 40
0.0433137950000013
  0
CIRCLE
  5
4A13
  8
0
 10
392.0052905777934029
 20
67.8057830333078613
 30
0.0
 40
0.0433137950000013
  0
CIRCLE
  5
4A14
  8
0
 10
392.0926481397934253
 20
67.7150051595078679
 30
0.0
 40
0.0433137950000013
  0
CIRCLE
  5
4A15
  8
0
 10
391.970353135693415
 20
67.6847402303078951
 30
0.0
 40
0.0433137950000013
  0
CIRCLE
  5
4A16
  8
0
 10
391.9331215149434229
 20
67.5648106403078543
 30
0.0
 40
0.0433137950000013
  0
CIRCLE
  5
4A17
  8
0
 10
392.0204792639434004
 20
67.4740325866078905
 30
0.0
 40
0.0433137950000013
  0
CIRCLE
  5
4A18
  8
0
 10
392.0554163138432955
 20
67.5950753997078522
 30
0.0
 40
0.0433137950000013
  0
CIRCLE
  5
4A19
  8
0
 10
392.1427742482434269
 20
67.504297701707884
 30
0.0
 40
0.0433137950000013
  0
CIRCLE
  5
4A1A
  8
0
 10
392.1078368514433805
 20
67.3832546617078805
 30
0.0
 40
0.0433137950000013
  0
CIRCLE
  5
4A1B
  8
0
 10
391.9855418956433937
 20
67.3529897013078624
 30
0.0
 40
0.0433137950000013
  0
CIRCLE
  5
4A1C
  8
0
 10
391.8624547228433812
 20
67.321829837807897
 30
0.0
 40
0.0433137950000013
  0
CIRCLE
  5
4A1D
  8
0
 10
391.7758891805434018
 20
67.4135027348078637
 30
0.0
 40
0.0433137950000013
  0
CIRCLE
  5
4A1E
  8
0
 10
391.8981842782433773
 20
67.4437675818078759
 30
0.0
 40
0.0433137950000013
  0
CIRCLE
  5
4A1F
  8
0
 10
391.8108263078433993
 20
67.5345458227078979
 30
0.0
 40
0.0433137950000013
  0
CIRCLE
  5
4A20
  8
0
 10
391.6535942520433764
 20
67.3832377738078634
 30
0.0
 40
0.0433137950000013
  0
CIRCLE
  5
4A21
  8
0
 10
391.5859852579932863
 20
67.9268096828078995
 30
0.0
 40
0.0433136504
  0
CIRCLE
  5
4A22
  8
0
 10
391.4636903692934879
 20
67.8965444772078826
 30
0.0
 40
0.0433136504
  0
CIRCLE
  5
4A23
  8
0
 10
391.5510477661933919
 20
67.8057666860079138
 30
0.0
 40
0.0433136504
  0
CIRCLE
  5
4A24
  8
0
 10
391.4986076585433921
 20
68.021503553707916
 30
0.0
 40
0.0433136504
  0
CIRCLE
  5
4A25
  8
0
 10
391.3763325023933817
 20
67.9873223090078653
 30
0.0
 40
0.0433136504
  0
CIRCLE
  5
4A26
  8
0
 10
391.2540376615933724
 20
67.9570577323079164
 30
0.0
 40
0.0433136504
  0
CIRCLE
  5
4A27
  8
0
 10
391.1317424595933971
 20
67.9267924073079001
 30
0.0
 40
0.0433136504
  0
CIRCLE
  5
4A28
  8
0
 10
391.4112989053934939
 20
67.3215941786078673
 30
0.0
 40
0.0433136504
  0
CIRCLE
  5
4A29
  8
0
 10
391.5335938601933776
 20
67.3518591425079052
 30
0.0
 40
0.0433136504
  0
CIRCLE
  5
4A2A
  8
0
 10
391.7432468487933761
 20
67.291346267707894
 30
0.0
 40
0.0433136504
  0
CIRCLE
  5
4A2B
  8
0
 10
391.6558596909933954
 20
68.1688954434078909
 30
0.0
 40
0.0433136504
  0
CIRCLE
  5
4A2C
  8
0
 10
390.9220604046934113
 20
68.7740774963078678
 30
0.0
 40
0.0372549771999999
  0
CIRCLE
  5
4A2D
  8
0
 10
391.8480581799934157
 20
67.6544752699078771
 30
0.0
 40
0.0432745877248098
  0
CIRCLE
  5
4A2E
  8
0
 10
392.1974892293932839
 20
67.2913632630078808
 30
0.0
 40
0.0393710961
  0
CIRCLE
  5
4A2F
  8
0
 10
392.0751943872933794
 20
67.2610981453078551
 30
0.0
 40
0.0354337424000004
  0
CIRCLE
  5
4A30
  8
0
 10
391.6209516607933097
 20
67.2610812037079171
 30
0.0
 40
0.0354338932000005
  0
CIRCLE
  5
4A31
  8
0
 10
391.2890037553934235
 20
67.2913296801078644
 30
0.0
 40
0.0393711664000005
  0
CIRCLE
  5
4A32
  8
0
 10
391.1667088115934234
 20
67.2610647668078485
 30
0.0
 40
0.0354338479000003
  0
CIRCLE
  5
4A33
  8
0
 10
390.7124661249933979
 20
67.2610478840078798
 30
0.0
 40
0.0354340391000001
  0
CIRCLE
  5
4A34
  8
0
 10
390.3805185185934192
 20
67.2912961770078795
 30
0.0
 40
0.0393712113000007
  0
CIRCLE
  5
4A35
  8
0
 10
389.8039809370932858
 20
67.2610142173078742
 30
0.0
 40
0.0354339213999992
  0
CIRCLE
  5
4A36
  8
0
 10
389.3497380141932922
 20
67.2609977976078852
 30
0.0
 40
0.0354338555000009
  0
LINE
  5
4A37
  8
0
 10
390.2933614439717758
 20
67.2656005735199045
 30
0.0
 11
390.2230857350164115
 21
67.2656009872244312
 31
0.0
  0
ARC
  5
4A38
  8
0
 10
390.2582109732250046
 20
67.261045508879576
 30
0.0
 40
0.0354194119397924
 50
7.384778882400143
 51
172.6104167860418102
  0
ARC
  5
4A39
  8
0
 10
391.673282187193422
 20
69.4095771939079071
 30
0.0
 40
0.0296772433000001
 50
123.7881795250215049
 51
91.9743105267691448
  0
ARC
  5
4A3A
  8
0
 10
391.5509858411934943
 20
69.3793100445079034
 30
0.0
 40
0.0296772361999989
 50
155.0482020212529051
 51
60.20824252584638
  0
ARC
  5
4A3B
  8
0
 10
391.4286976526934154
 20
69.3490463944078641
 30
0.0
 40
0.0296774447000004
 50
173.1628776040276136
 51
41.5872656621121877
  0
ARC
  5
4A3C
  8
0
 10
391.3064029119934162
 20
69.3187818257078732
 30
0.0
 40
0.0296773485999999
 50
187.7852044414356101
 51
26.4583394101016012
  0
ARC
  5
4A3D
  8
0
 10
391.1841011964933728
 20
69.2885152127079067
 30
0.0
 40
0.0311920397000002
 50
200.5187980088402071
 51
13.2178648697627601
  0
ARC
  5
4A3E
  8
0
 10
391.0618121906932743
 20
69.2582462769079115
 30
0.0
 40
0.0311918591999984
 50
211.9080817478852055
 51
1.321513937941873
  0
ARC
  5
4A3F
  8
0
 10
390.9395172348934011
 20
69.227981316607881
 30
0.0
 40
0.0311918591999991
 50
222.8616402269904881
 51
349.8606570791598074
  0
ARC
  5
4A40
  8
0
 10
390.8172237408933825
 20
69.1977186580078722
 30
0.0
 40
0.0311918518000001
 50
233.7595369436155863
 51
338.4552770909359083
  0
ARC
  5
4A41
  8
0
 10
390.6949242223934107
 20
69.1674502210079112
 30
0.0
 40
0.0327064309000006
 50
242.1070422071007044
 51
329.6000854364838233
  0
ARC
  5
4A42
  8
0
 10
390.5726334056934093
 20
69.1371918566078847
 30
0.0
 40
0.0326724328045012
 50
253.4153674983643043
 51
317.7839650771394986
  0
ARC
  5
4A43
  8
0
 10
396.0844264948480031
 20
62.8713180675344887
 30
0.0
 40
0.0454349810155937
 50
53.216248581484102
 51
128.5856624108718904
  0
ARC
  5
4A44
  8
0
 10
396.0986242494350904
 20
61.9684939373437231
 30
0.0
 40
0.0453952553067441
 50
233.1775070748896894
 51
308.6244039424324228
  0
ARC
  5
4A45
  8
0
 10
395.6400878100293994
 20
62.4128318326368614
 30
0.0
 40
0.0453952552941515
 50
143.1775072928597012
 51
218.6244037248845871
  0
ARC
  5
4A46
  8
0
 10
396.542962144735327
 20
62.4270303767369583
 30
0.0
 40
0.0453952553000016
 50
323.1775070631028939
 51
38.6244039288614118
  0
CIRCLE
  5
4A47
  8
0
 10
396.0915249773352116
 20
62.4199311047369605
 30
0.0
 40
0.4727024989000004
  0
ARC
  5
4A48
  8
0
 10
396.0915249773352116
 20
62.4199311047369605
 30
0.0
 40
0.4928782921999996
 50
93.165165521302626
 51
178.6350791868414944
  0
ARC
  5
4A49
  8
0
 10
396.0915249773352116
 20
62.4199311047369605
 30
0.0
 40
0.4928782921999996
 50
183.1668318308944094
 51
268.6350791595866099
  0
ARC
  5
4A4A
  8
0
 10
396.0915249773352116
 20
62.4199311047369605
 30
0.0
 40
0.4928782921999996
 50
273.1668318577526975
 51
358.6350791475099982
  0
ARC
  5
4A4B
  8
0
 10
396.0915249773352116
 20
62.4199311047369605
 30
0.0
 40
0.4928782921999996
 50
3.1668318444507881
 51
88.6367454710665186
  0
LINE
  5
4A4C
  8
0
 10
399.1975885782366049
 20
66.8478815065078464
 30
0.0
 11
399.1975885782366049
 21
51.6435505426078834
 31
0.0
  0
ARC
  5
4A4D
  8
0
 10
399.0475885782366277
 20
66.8478815065078464
 30
0.0
 40
0.15
 50
0.0000000000032569
 51
89.9999999999934914
  0
LINE
  5
4A4E
  8
0
 10
370.8771147612865775
 20
86.5301521150079083
 30
0.0
 11
374.8662079804370251
 21
86.5301521150079083
 31
0.0
  0
LINE
  5
4A4F
  8
0
 10
366.4047005184502837
 20
84.8766309904078469
 30
0.0
 11
375.3494964457680112
 21
84.8766309904078469
 31
0.0
  0
LINE
  5
4A50
  8
0
 10
375.3767651130390277
 20
85.3286300913215285
 30
0.0
 11
375.3691934295662804
 21
84.8959862742214995
 31
0.0
  0
ARC
  5
4A51
  8
0
 10
375.3494964457680112
 20
84.8963309904078471
 30
0.0
 40
0.0197
 50
269.999999999980389
 51
358.9973710323222917
  0
LINE
  5
4A52
  8
0
 10
375.0594181905403843
 20
85.3486748075078765
 30
0.0
 11
375.3570681292408153
 21
85.3486748075078765
 31
0.0
  0
LINE
  5
4A53
  8
0
 10
374.9448601644695032
 20
86.4541950964033248
 30
0.0
 11
374.9807660065080199
 21
85.4246318261124031
 31
0.0
  0
ARC
  5
4A54
  8
0
 10
374.8662079804370251
 20
86.4514521150078679
 30
0.0
 40
0.0787
 50
1.9973709522360721
 51
90.0000000000065086
  0
ARC
  5
4A55
  8
0
 10
375.0594181905403843
 20
85.4273748075079169
 30
0.0
 40
0.0787
 50
181.9973709522361105
 51
270.0
  0
ARC
  5
4A56
  8
0
 10
375.3570681292408153
 20
85.3289748075078762
 30
0.0
 40
0.0197
 50
358.9973710323126284
 51
90.0
  0
LINE
  5
4A57
  8
0
 10
375.2472742480366037
 20
87.0890249395780529
 30
0.0
 11
375.2472742480366037
 21
85.3486661892724072
 31
0.0
  0
CIRCLE
  5
4A58
  8
0
 10
373.2393402581366217
 20
85.7818291909078852
 30
0.0
 40
0.0807086613999992
  0
LINE
  5
4A59
  8
0
 10
375.2031781341125907
 20
87.0534283173837906
 30
0.0
 11
375.2031781341125907
 21
85.3486682126399359
 31
0.0
  0
LINE
  5
4A5A
  8
0
 10
375.1803781341125159
 20
87.0762283173838654
 30
0.0
 11
366.5740453145214133
 21
87.0762283173838654
 31
0.0
  0
ARC
  5
4A5B
  8
0
 10
375.1803781341125159
 20
87.0534283173837906
 30
0.0
 40
0.0228
 50
359.9999999999805027
 51
90.0000000000162856
  0
LINE
  5
4A5C
  8
0
 10
370.8771147612865775
 20
86.5301521150079083
 30
0.0
 11
366.8880215421360731
 21
86.5301521150079083
 31
0.0
  0
LINE
  5
4A5D
  8
0
 10
366.3774644095341273
 20
85.3286300913215285
 30
0.0
 11
366.3850360930069883
 21
84.8959862742214995
 31
0.0
  0
ARC
  5
4A5E
  8
0
 10
366.4047330768053143
 20
84.8963309904078471
 30
0.0
 40
0.0197
 50
181.0026289676742977
 51
270.000000000019611
  0
LINE
  5
4A5F
  8
0
 10
366.6948113320327138
 20
85.3486748075078765
 30
0.0
 11
366.3971613933325102
 21
85.3486748075078765
 31
0.0
  0
LINE
  5
4A60
  8
0
 10
366.8093693581038224
 20
86.4541950964033248
 30
0.0
 11
366.7734635160650782
 21
85.4246318261124031
 31
0.0
  0
ARC
  5
4A61
  8
0
 10
366.8880215421360731
 20
86.4514521150078679
 30
0.0
 40
0.0787
 50
89.9999999999934914
 51
178.0026290477638895
  0
ARC
  5
4A62
  8
0
 10
366.6948113320327138
 20
85.4273748075079169
 30
0.0
 40
0.0787
 50
270.0
 51
358.0026290477607063
  0
ARC
  5
4A63
  8
0
 10
366.3971613933325102
 20
85.3289748075078762
 30
0.0
 40
0.0197
 50
90.0
 51
181.0026289676841031
  0
LINE
  5
4A64
  8
0
 10
366.5069552745366082
 20
87.0890249395780387
 30
0.0
 11
366.5069552745366082
 21
85.3486661892724072
 31
0.0
  0
LINE
  5
4A65
  8
0
 10
366.551051388460678
 20
87.0534283173837906
 30
0.0
 11
366.551051388460678
 21
85.3486682126399359
 31
0.0
  0
ARC
  5
4A66
  8
0
 10
366.5738513884606959
 20
87.0534283173837906
 30
0.0
 40
0.0228
 50
89.9999999999804601
 51
180.0000000000163141
  0
LINE
  5
4A67
  8
0
 10
368.4834310478835278
 20
85.7013387566079246
 30
0.0
 11
368.5471099353728732
 21
85.7013387566079246
 31
0.0
  0
ARC
  5
4A68
  8
0
 10
368.5464268772366268
 20
85.782044527507864
 30
0.0
 40
0.0807086614000012
 50
269.5150853092989109
 51
89.9973709774261152
  0
ARC
  5
4A69
  8
0
 10
368.4834347513365742
 20
85.782047417907819
 30
0.0
 40
0.0807086614000012
 50
89.997370956165156
 51
270.0028522373369242
  0
LINE
  5
4A6A
  8
0
 10
368.4834384546916795
 20
85.8627560792228763
 30
0.0
 11
368.5464305804288756
 21
85.8627531888079005
 31
0.0
  0
LINE
  5
4A6B
  8
0
 10
375.2157742480366096
 20
87.1205249395780612
 30
0.0
 11
366.5384552745364886
 21
87.1205249395780612
 31
0.0
  0
ARC
  5
4A6C
  8
0
 10
375.2157742480366096
 20
87.0890249395780529
 30
0.0
 40
0.0315
 50
359.9999999999935199
 51
90.0000000000130314
  0
ARC
  5
4A6D
  8
0
 10
366.5384552745364886
 20
87.0890249395780529
 30
0.0
 40
0.0315
 50
89.9999999999804601
 51
180.0000000000129887
  0
ENDSEC
  0
EOF
