  0
SECTION
  2
HEADER
  9
$ACADVER
  1
AC1009
  9
$INSBASE
 10
254.2717754476958021
 20
25.8590563192285394
 30
0.0
  9
$EXTMIN
 10
249.6800863737360885
 20
25.8544379887552402
 30
0.0
  9
$EXTMAX
 10
256.0633103886956974
 20
31.3422395550553503
 30
0.0
  9
$LIMMIN
 10
0.0
 20
0.0
  9
$LIMMAX
 10
11.6929133858000007
 20
8.2677165353999982
  9
$ORTHOMODE
 70
     0
  9
$REGENMODE
 70
     1
  9
$FILLMODE
 70
     1
  9
$QTEXTMODE
 70
     0
  9
$MIRRTEXT
 70
     0
  9
$DRAGMODE
 70
     2
  9
$LTSCALE
 40
0.6431102362
  9
$OSMODE
 70
  3839
  9
$ATTMODE
 70
     1
  9
$TEXTSIZE
 40
0.2
  9
$TRACEWID
 40
0.05
  9
$TEXTSTYLE
  7
STANDARD
  9
$CLAYER
  8
0
  9
$CELTYPE
  6
BYLAYER
  9
$CECOLOR
 62
   256
  9
$DIMSCALE
 40
1.0
  9
$DIMASZ
 40
0.1875
  9
$DIMEXO
 40
0.0625
  9
$DIMDLI
 40
0.4443307087
  9
$DIMRND
 40
0.0
  9
$DIMDLE
 40
0.0
  9
$DIMEXE
 40
0.125
  9
$DIMTP
 40
0.01
  9
$DIMTM
 40
0.01
  9
$DIMTXT
 40
1.0
  9
$DIMCEN
 40
0.1052362205
  9
$DIMTSZ
 40
0.0
  9
$DIMTOL
 70
     1
  9
$DIMLIM
 70
     0
  9
$DIMTIH
 70
     0
  9
$DIMTOH
 70
     1
  9
$DIMSE1
 70
     0
  9
$DIMSE2
 70
     0
  9
$DIMTAD
 70
     0
  9
$DIMZIN
 70
     0
  9
$DIMBLK
  1

  9
$DIMASO
 70
     1
  9
$DIMSHO
 70
     1
  9
$DIMPOST
  1
\X
  9
$DIMAPOST
  1

  9
$DIMALT
 70
     1
  9
$DIMALTD
 70
     2
  9
$DIMALTF
 40
25.3999999999999986
  9
$DIMLFAC
 40
1.0
  9
$DIMTOFL
 70
     0
  9
$DIMTVP
 40
0.0
  9
$DIMTIX
 70
     0
  9
$DIMSOXD
 70
     0
  9
$DIMSAH
 70
     0
  9
$DIMBLK1
  1

  9
$DIMBLK2
  1

  9
$DIMSTYLE
  2
STANDARD
  9
$DIMCLRD
 70
     0
  9
$DIMCLRE
 70
     0
  9
$DIMCLRT
 70
     0
  9
$DIMTFAC
 40
1.0
  9
$DIMGAP
 40
0.09
  9
$LUNITS
 70
     2
  9
$LUPREC
 70
     4
  9
$SKETCHINC
 40
0.1
  9
$FILLETRAD
 40
0.0
  9
$AUNITS
 70
     0
  9
$AUPREC
 70
     0
  9
$MENU
  1
.
  9
$ELEVATION
 40
0.0
  9
$PELEVATION
 40
0.0
  9
$THICKNESS
 40
0.0
  9
$LIMCHECK
 70
     0
  9
$BLIPMODE
 70
     0
  9
$CHAMFERA
 40
0.0
  9
$CHAMFERB
 40
0.0
  9
$SKPOLY
 70
     0
  9
$TDCREATE
 40
2458172.5207638889551163
  9
$TDUPDATE
 40
2459129.856446759775281
  9
$TDINDWG
 40
0.1824416088
  9
$TDUSRTIMER
 40
0.1824416088
  9
$USRTIMER
 70
     1
  9
$ANGBASE
 50
0.0
  9
$ANGDIR
 70
     0
  9
$PDMODE
 70
     0
  9
$PDSIZE
 40
0.3125
  9
$PLINEWID
 40
0.0
  9
$COORDS
 70
     1
  9
$SPLFRAME
 70
     0
  9
$SPLINETYPE
 70
     6
  9
$SPLINESEGS
 70
     8
  9
$ATTDIA
 70
     1
  9
$ATTREQ
 70
     1
  9
$HANDLING
 70
     1
  9
$HANDSEED
  5
4B40
  9
$SURFTAB1
 70
     6
  9
$SURFTAB2
 70
     6
  9
$SURFTYPE
 70
     6
  9
$SURFU
 70
     6
  9
$SURFV
 70
     6
  9
$UCSNAME
  2

  9
$UCSORG
 10
0.0
 20
0.0
 30
0.0
  9
$UCSXDIR
 10
1.0
 20
0.0
 30
0.0
  9
$UCSYDIR
 10
0.0
 20
1.0
 30
0.0
  9
$PUCSNAME
  2

  9
$PUCSORG
 10
0.0
 20
0.0
 30
0.0
  9
$PUCSXDIR
 10
1.0
 20
0.0
 30
0.0
  9
$PUCSYDIR
 10
0.0
 20
1.0
 30
0.0
  9
$USERI1
 70
     0
  9
$USERI2
 70
     0
  9
$USERI3
 70
     0
  9
$USERI4
 70
     0
  9
$USERI5
 70
     0
  9
$USERR1
 40
0.0
  9
$USERR2
 40
0.0
  9
$USERR3
 40
0.0
  9
$USERR4
 40
0.0
  9
$USERR5
 40
0.0
  9
$WORLDVIEW
 70
     1
  9
$SHADEDGE
 70
     3
  9
$SHADEDIF
 70
    70
  9
$TILEMODE
 70
     1
  9
$MAXACTVP
 70
    64
  9
$PLIMCHECK
 70
     0
  9
$PEXTMIN
 10
1.0000000000000000E+20
 20
1.0000000000000000E+20
 30
1.0000000000000000E+20
  9
$PEXTMAX
 10
-1.0000000000000000E+20
 20
-1.0000000000000000E+20
 30
-1.0000000000000000E+20
  9
$PLIMMIN
 10
0.0
 20
0.0
  9
$PLIMMAX
 10
12.0
 20
9.0
  9
$UNITMODE
 70
     0
  9
$VISRETAIN
 70
     1
  9
$PLINEGEN
 70
     0
  9
$PSLTSCALE
 70
     1
  0
ENDSEC
  0
SECTION
  2
TABLES
  0
TABLE
  2
VPORT
 70
     1
  0
VPORT
  2
*ACTIVE
 70
     0
 10
0.0
 20
0.0
 11
1.0
 21
1.0
 12
0.0
 22
0.0
 13
0.0
 23
0.0
 14
1.0
 24
1.0
 15
0.0
 25
0.0
 16
0.0
 26
0.0
 36
33.2860038786749115
 17
252.8720016479491903
 27
28.598338684319021
 37
0.0
 40
8.4174887513450312
 41
3.1396160558464219
 42
50.0
 43
0.0
 44
0.0
 50
0.0
 51
0.0
 71
     0
 72
   100
 73
     1
 74
     1
 75
     0
 76
     0
 77
     0
 78
     0
  0
ENDTAB
  0
TABLE
  2
LTYPE
 70
     2
  0
LTYPE
  2
CONTINUOUS
 70
     0
  3
Solid line
 72
    65
 73
     0
 40
0.0
  0
LTYPE
  2
PHANTOM2
 70
     0
  3
___ _ _ ___ _ _ ___ _ _ ___ _ _
 72
    65
 73
     6
 40
1.25
 49
0.625
 49
-0.125
 49
0.125
 49
-0.125
 49
0.125
 49
-0.125
  0
ENDTAB
  0
TABLE
  2
LAYER
 70
     2
  0
LAYER
  2
0
 70
     0
 62
   255
  6
CONTINUOUS
  0
LAYER
  2
DEFPOINTS
 70
     0
 62
     7
  6
CONTINUOUS
  0
ENDTAB
  0
TABLE
  2
STYLE
 70
     1
  0
STYLE
  2
STANDARD
 70
     0
 40
0.0
 41
0.8
 50
0.0
 71
     0
 42
0.2
  3
txt
  4

  0
ENDTAB
  0
TABLE
  2
VIEW
 70
     0
  0
ENDTAB
  0
TABLE
  2
UCS
 70
     0
  0
ENDTAB
  0
TABLE
  2
APPID
 70
    10
  0
APPID
  2
ACAD
 70
     0
  0
APPID
  2
ACAD_MLEADERVER
 70
     0
  0
APPID
  2
ACAD_EXEMPT_FROM_CAD_STANDARDS
 70
     0
  0
APPID
  2
ACAD_DSTYLE_DIMJAG
 70
     0
  0
APPID
  2
ACAD_DSTYLE_DIMTALN
 70
     0
  0
APPID
  2
ACAD_NAV_VCDISPLAY
 70
     0
  0
APPID
  2
ACAECLAYERSTANDARD
 70
     0
  0
APPID
  2
ACCMTRANSPARENCY
 70
     0
  0
APPID
  2
DCO15
 70
     0
  0
APPID
  2
ACDBATTR
 70
     0
  0
ENDTAB
  0
TABLE
  2
DIMSTYLE
 70
     1
  0
DIMSTYLE
  2
STANDARD
 70
     0
  3

  4

  5

  6

  7

 40
1.0
 41
0.1875
 42
0.0625
 43
0.38
 44
0.125
 45
0.0
 46
0.0
 47
0.01
 48
0.01
140
0.15625
141
0.09
142
0.0
143
25.3999999999999986
144
1.0
145
0.0
146
1.0
147
0.09
 71
     1
 72
     0
 73
     1
 74
     1
 75
     0
 76
     0
 77
     0
 78
     4
170
     0
171
     2
172
     0
173
     0
174
     0
175
     0
176
     0
177
     0
178
     0
  0
ENDTAB
  0
ENDSEC
  0
SECTION
  2
BLOCKS
  0
BLOCK
  8
0
  2
$MODEL_SPACE
 70
     0
 10
0.0
 20
0.0
 30
0.0
  3
$MODEL_SPACE
  1

  0
ENDBLK
  5
21
  8
0
  0
BLOCK
 67
     1
  8
0
  2
$PAPER_SPACE
 70
     0
 10
0.0
 20
0.0
 30
0.0
  3
$PAPER_SPACE
  1

  0
ENDBLK
  5
1D
 67
     1
  8
0
  0
BLOCK
  8
0
  2
_FILLED
 70
     0
 10
0.0
 20
0.0
 30
0.0
  3
_FILLED
  1

  0
SOLID
  5
2836
  8
0
  6
BYBLOCK
 62
     0
 10
0.0
 20
0.0
 30
0.0
 11
-1.0
 21
0.1666666667
 31
0.0
 12
-1.0
 22
-0.1666666667
 32
0.0
 13
-1.0
 23
-0.1666666667
 33
0.0
  0
ENDBLK
  5
2837
  8
0
  6
BYBLOCK
 62
     0
  0
ENDSEC
  0
SECTION
  2
ENTITIES
  0
ATTDEF
  5
829
  8
DEFPOINTS
 10
254.2603566490251978
 20
25.8577713220885705
 30
0.0
 40
0.001
  1
K-29928IN-4
  3

  2
MODELNUMBER
 70
     0
1001
ACDBATTR
1070
     0
1070
     1
  0
ATTDEF
  5
82A
  8
DEFPOINTS
 10
254.2603566490251978
 20
25.8561046554218983
 30
0.0
 40
0.001
  1
JULY
  3

  2
TRADENAME
 70
     0
1001
ACDBATTR
1070
     0
1070
     1
  0
ATTDEF
  5
82B
  8
DEFPOINTS
 10
254.2603566490251978
 20
25.8544379887552402
 30
0.0
 40
0.001
  1
BATHROOM SINK FAUCET
  3

  2
PRODUCT
 70
     0
1001
ACDBATTR
1070
     0
1070
     1
  0
LINE
  5
4927
  8
0
 10
254.6547995369957107
 20
30.0016170769285395
 30
0.0
 11
255.2928602571957981
 21
30.3008276611285403
 31
0.0
  0
LINE
  5
4928
  8
0
 10
253.2141237523958068
 20
30.3927588300285407
 30
0.0
 11
253.2141237523958068
 21
29.9478745591285396
 31
0.0
  0
LINE
  5
4929
  8
0
 10
253.2150405066958001
 20
28.3408069227289303
 30
0.0
 11
253.2150405066958001
 21
25.8590563192285394
 31
0.0
  0
LINE
  5
492A
  8
0
 10
255.3285103886958041
 20
30.3569130850864788
 30
0.0
 11
255.3285103886958041
 21
31.2482528749285393
 31
0.0
  0
LINE
  5
492B
  8
0
 10
255.3285103886958041
 20
29.7662786327273317
 30
0.0
 11
255.3285103886958041
 21
25.8590563192285394
 31
0.0
  0
LINE
  5
492C
  8
0
 10
253.2150405066958001
 20
25.8590563192285394
 30
0.0
 11
255.3285103886958041
 21
25.8590563192285394
 31
0.0
  0
LINE
  5
492D
  8
0
 10
250.8203021660465026
 20
28.86108257522854
 30
0.0
 11
252.6055548259930958
 21
28.8600378071628683
 31
0.0
  0
LINE
  5
492E
  8
0
 10
249.7023769316232915
 20
29.8053336899399994
 30
0.0
 11
250.2467220437279138
 21
29.8456679350684304
 31
0.0
  0
LINE
  5
492F
  8
0
 10
255.2901264629369962
 20
29.8053336899399994
 30
0.0
 11
249.7023769316232915
 21
29.8053336899399994
 31
0.0
  0
LINE
  5
4930
  8
0
 10
253.2534733455746903
 20
29.9085068615285401
 30
0.0
 11
254.236925994995687
 21
29.9085068615285401
 31
0.0
  0
ARC
  5
4931
  8
0
 10
249.7180999294079129
 20
29.7713672158785485
 30
0.0
 40
0.0374290531472365
 50
114.839302879417005
 51
180.864468192075293
  0
ARC
  5
4932
  8
0
 10
254.3936746772492938
 20
23.9350271536966908
 30
0.0
 40
7.4072124787840918
 50
83.0275983033404543
 51
89.9917157714789653
  0
ARC
  5
4933
  8
0
 10
254.2369259752958044
 20
30.8927588300285407
 30
0.0
 40
0.9842519684999999
 50
270.0000011507008821
 51
295.1227868334012214
  0
ARC
  5
4934
  8
0
 10
254.4980430328957937
 20
29.8054281616285408
 30
0.0
 40
0.8661417323
 50
173.165084819642999
 51
180.0062493571726918
  0
ARC
  5
4935
  8
0
 10
254.3878068227957101
 20
29.8054281409285409
 30
0.0
 40
0.8661417323
 50
359.9937520121441139
 51
29.3790710440576213
  0
ARC
  5
4936
  8
0
 10
255.2899324024664054
 20
29.7667532720504511
 30
0.0
 40
0.0385809059509825
 50
359.2951042671900268
 51
89.7118032211514276
  0
ARC
  5
4937
  8
0
 10
248.2405113610664102
 20
24.9337010753736585
 30
0.0
 40
4.4958830860389369
 50
62.8097205174233366
 51
70.66140494493159
  0
ARC
  5
4938
  8
0
 10
251.0823001601754925
 20
31.9179583090836587
 30
0.0
 40
3.087298298103081
 50
255.2235872073291034
 51
261.7875369817684827
  0
ARC
  5
4939
  8
0
 10
250.794125369385398
 20
38.0246108343792883
 30
0.0
 40
9.1635656477671272
 50
269.0443891861847874
 51
270.1636723157051279
  0
ARC
  5
493A
  8
0
 10
252.6006948522615971
 20
28.0331539971298298
 30
0.0
 40
0.8268980920521158
 50
56.2388054628860488
 51
89.6632504184096462
  0
ARC
  5
493B
  8
0
 10
252.7506200767707014
 20
28.3729528475311312
 30
0.0
 40
0.465531627511174
 50
356.0404566392689958
 51
48.3126427496345414
  0
ARC
  5
493C
  8
0
 10
253.5629270133248099
 20
29.7031874532706794
 30
0.0
 40
3.8828406395887232
 50
179.002211569027196
 51
184.8907983561819037
  0
LINE
  5
493D
  8
0
 10
250.2467220437279138
 20
29.8456679350684304
 30
0.0
 11
252.7655530784115001
 21
29.8456679350684304
 31
0.0
  0
ARC
  5
493E
  8
0
 10
253.7947554474384901
 20
40.4099447761594774
 30
0.0
 40
10.6142923782804992
 50
264.4356394905905177
 51
267.5526742287481738
  0
ARC
  5
493F
  8
0
 10
253.2521768533522959
 20
29.9465605628790286
 30
0.0
 40
0.0380757807346758
 50
178.0223283781679129
 51
271.951316372932979
  0
ARC
  5
4940
  8
0
 10
255.2645522762990993
 20
30.358194376803759
 30
0.0
 40
0.0639709453565158
 50
296.2643366270575029
 51
358.8523302772078978
  0
ARC
  5
4941
  8
0
 10
255.2891145428660025
 20
31.2482425680698093
 30
0.0
 40
0.0393958471780465
 50
0.0149898924405611
 51
84.5658831083278812
  0
ARC
  5
4942
  8
0
 10
252.3154813339972975
 20
30.5313435248082712
 30
0.0
 40
0.909265590337775
 50
351.2331596710478152
 51
8.7668442630688102
  0
ARC
  5
4943
  8
0
 10
252.8623823903664913
 20
30.7324003919380786
 30
0.0
 40
0.3572460548091259
 50
349.9288266851347089
 51
48.6980006121745177
  0
ARC
  5
4944
  8
0
 10
252.8212230497807127
 20
30.5991452690585994
 30
0.0
 40
0.4878640630600431
 50
55.4112504929965368
 51
93.0066677174504406
  0
ARC
  5
4945
  8
0
 10
251.9127604808082879
 20
12.3603026600477097
 30
0.0
 40
18.7468358729469813
 50
87.3006849408656791
 51
90.5997254122142124
  0
ARC
  5
4946
  8
0
 10
252.2548972869932982
 20
237.2957872020710113
 30
0.0
 40
206.1903784549755017
 50
269.6991280900626862
 51
269.8504014645988036
  0
ARC
  5
4947
  8
0
 10
251.1804222841911098
 20
28.4105344637817083
 30
0.0
 40
2.6977298130854099
 50
90.1756016299675309
 51
96.2377999212278041
  0
ARC
  5
4948
  8
0
 10
250.7684085988898062
 20
32.2338047106664973
 30
0.0
 40
1.1476870605545439
 50
271.1218513072807923
 51
275.9460566173714824
  0
ARC
  5
4949
  8
0
 10
250.7244626134813075
 20
32.5452413325719192
 30
0.0
 40
1.460414701599356
 50
259.0285754557543214
 51
272.6065777031923858
  0
ARC
  5
494A
  8
0
 10
250.5195985168087134
 20
31.3912618552696401
 30
0.0
 40
0.2891305812587262
 50
213.3877653336338938
 51
255.3590012882073097
  0
ARC
  5
494B
  8
0
 10
250.3124368782235081
 20
31.2515653734711307
 30
0.0
 40
0.0393710880231598
 50
114.2538145091930062
 51
209.5427071609626921
  0
LINE
  5
494C
  8
0
 10
254.3947456643479086
 20
31.3422395550553503
 30
0.0
 11
250.8014818635936933
 21
31.3422395550553503
 31
0.0
  0
ARC
  5
494D
  8
0
 10
250.8031524683921987
 20
28.9696372779893707
 30
0.0
 40
2.372602865221876
 50
90.0403432928053746
 51
102.3358885725609042
  0
LINE
  5
494E
  8
0
 10
250.2962640402865873
 20
31.2874613605058016
 30
0.0
 11
255.2928453731676086
 21
31.2874613605058016
 31
0.0
  0
ARC
  5
494F
  8
0
 10
250.8475378839939083
 20
29.4771862743844117
 30
0.0
 40
1.158087362017461
 50
185.2038436888385888
 51
195.0785505445984995
  0
LINE
  5
4951
  8
0
 10
250.6538331051189061
 20
28.8621191720897805
 30
0.0
 11
250.5742480927517022
 21
28.6651393542206101
 31
0.0
  0
ARC
  5
4952
  8
0
 10
250.54643257712641
 20
28.676377552016671
 30
0.0
 40
0.0299999999868266
 50
247.9999999748409891
 51
338.0000000030714205
  0
LINE
  5
4953
  8
0
 10
250.5351943793166072
 20
28.648562036396811
 30
0.0
 11
249.7164910358835925
 21
28.9793396587408694
 31
0.0
  0
ARC
  5
4954
  8
0
 10
249.7277292337128927
 20
29.0071551744091707
 30
0.0
 40
0.0300000000390685
 50
158.0000008527661919
 51
247.9999999748409891
  0
LINE
  5
4955
  8
0
 10
249.6999137178723913
 20
29.0183933718122802
 30
0.0
 11
249.7592642604172113
 21
29.1652911257028116
 31
0.0
  0
LINE
  5
4956
  8
0
 10
250.4662359927451121
 20
28.6764230330981995
 30
0.0
 11
250.4575256519190987
 21
28.6548641833338102
 31
0.0
  0
ARC
  5
4957
  8
0
 10
250.4429243312835922
 20
28.6607634998852596
 30
0.0
 40
0.0157480316254173
 50
248.0000008464600967
 51
337.9999997204421902
  0
LINE
  5
4958
  8
0
 10
250.4370250150190884
 20
28.6461621791338104
 30
0.0
 11
249.7854410817722055
 21
28.9094191653008501
 31
0.0
  0
ARC
  5
4959
  8
0
 10
249.7913403978809868
 20
28.9240204856669116
 30
0.0
 40
0.0157480312097653
 50
157.9999609858465988
 51
248.0000008464581924
  0
LINE
  5
495A
  8
0
 10
249.7767390816190982
 20
28.9299198119338108
 30
0.0
 11
249.7854494371397891
 21
28.951478656106449
 31
0.0
  0
LINE
  5
495B
  8
0
 10
249.964059230819089
 20
28.9116716571338088
 30
0.0
 11
250.0105104483992022
 21
29.0266424551014701
 31
0.0
  0
LINE
  5
495C
  8
0
 10
250.0105104483992022
 20
29.0266424551014701
 30
0.0
 11
250.3565537973697133
 21
28.8868318667114998
 31
0.0
  0
LINE
  5
495D
  8
0
 10
250.3565537973697133
 20
28.8868318667114998
 30
0.0
 11
250.3101025798368937
 21
28.7718610689266292
 31
0.0
  0
ARC
  5
495E
  8
0
 10
250.2693896009025138
 20
28.870430231330829
 30
0.0
 40
0.1066462677636209
 50
253.5829182927487864
 51
292.4425692561350729
  0
ARC
  5
495F
  8
0
 10
250.0399739242236876
 20
28.9339760759455302
 30
0.0
 40
0.0791234969731079
 50
196.3732618433168966
 51
247.3523031938267991
  0
LINE
  5
4960
  8
0
 10
256.0633103886956974
 20
27.5564327906307014
 30
0.0
 11
255.981536698895809
 21
27.3030859134285286
 31
0.0
  0
LINE
  5
4961
  8
0
 10
255.981536698895809
 20
27.3030859134285286
 30
0.0
 11
255.5120418244958103
 21
27.5741489055285314
 31
0.0
  0
LINE
  5
4962
  8
0
 10
255.5120418244958103
 20
27.5741489055285314
 30
0.0
 11
255.6897740485958082
 21
27.7730014176285387
 31
0.0
  0
ARC
  5
4963
  8
0
 10
255.3092275859256972
 20
26.6862160417698
 30
0.0
 40
1.151485155540916
 50
49.0895666986511827
 51
70.7018955331182752
  0
ARC
  5
4964
  8
0
 10
256.1893209756353826
 20
26.7751835610534705
 30
0.0
 40
0.5673228351682321
 50
111.4847784674608988
 51
149.9999999888592868
  0
LINE
  5
4965
  8
0
 10
255.6980049882878063
 20
27.05884497873312
 30
0.0
 11
255.6411827760128972
 21
26.9604260201186499
 31
0.0
  0
LINE
  5
4966
  8
0
 10
255.6411827760128972
 20
26.9604260201186499
 30
0.0
 11
255.3854666134957938
 21
27.1080638154285403
 31
0.0
  0
LINE
  5
4967
  8
0
 10
255.3854666134957938
 20
27.1080638154285403
 30
0.0
 11
255.4422888257226987
 21
27.2064827740129616
 31
0.0
  0
ARC
  5
4968
  8
0
 10
254.9509728385783944
 20
27.4901441914224485
 30
0.0
 40
0.5673228348571639
 50
330.0000000022262157
 51
8.5152215456198093
  0
LINE
  5
4969
  8
0
 10
255.3285103886958041
 20
26.5566568347316903
 30
0.0
 11
255.5815156714014051
 21
26.9948748390382498
 31
0.0
  0
LINE
  5
496A
  8
0
 10
255.3285103886958041
 20
26.8716174647463895
 30
0.0
 11
255.4451337180902044
 21
27.0736149965188204
 31
0.0
  0
ENDSEC
  0
EOF
