  0
SECTION
  2
HEADER
  9
$ACADVER
  1
AC1009
  9
$INSBASE
 10
251.7825005788020007
 20
26.1663903217932585
 30
0.0
  9
$EXTMIN
 10
250.8461275768520125
 20
20.86659031025372
 30
0.0
  9
$EXTMAX
 10
252.7188735807521027
 20
27.9579374241468095
 30
0.0
  9
$LIMMIN
 10
0.0
 20
0.0
  9
$LIMMAX
 10
11.6929133858000007
 20
8.2677165353999982
  9
$ORTHOMODE
 70
     0
  9
$REGENMODE
 70
     1
  9
$FILLMODE
 70
     1
  9
$QTEXTMODE
 70
     0
  9
$MIRRTEXT
 70
     0
  9
$DRAGMODE
 70
     2
  9
$LTSCALE
 40
0.6431102362
  9
$OSMODE
 70
  3839
  9
$ATTMODE
 70
     1
  9
$TEXTSIZE
 40
0.2
  9
$TRACEWID
 40
0.05
  9
$TEXTSTYLE
  7
STANDARD
  9
$CLAYER
  8
0
  9
$CELTYPE
  6
BYLAYER
  9
$CECOLOR
 62
   256
  9
$DIMSCALE
 40
1.0
  9
$DIMASZ
 40
0.1875
  9
$DIMEXO
 40
0.0625
  9
$DIMDLI
 40
0.4443307087
  9
$DIMRND
 40
0.0
  9
$DIMDLE
 40
0.0
  9
$DIMEXE
 40
0.125
  9
$DIMTP
 40
0.01
  9
$DIMTM
 40
0.01
  9
$DIMTXT
 40
1.0
  9
$DIMCEN
 40
0.1052362205
  9
$DIMTSZ
 40
0.0
  9
$DIMTOL
 70
     1
  9
$DIMLIM
 70
     0
  9
$DIMTIH
 70
     0
  9
$DIMTOH
 70
     1
  9
$DIMSE1
 70
     0
  9
$DIMSE2
 70
     0
  9
$DIMTAD
 70
     0
  9
$DIMZIN
 70
     0
  9
$DIMBLK
  1

  9
$DIMASO
 70
     1
  9
$DIMSHO
 70
     1
  9
$DIMPOST
  1
\X
  9
$DIMAPOST
  1

  9
$DIMALT
 70
     1
  9
$DIMALTD
 70
     2
  9
$DIMALTF
 40
25.3999999999999986
  9
$DIMLFAC
 40
1.0
  9
$DIMTOFL
 70
     0
  9
$DIMTVP
 40
0.0
  9
$DIMTIX
 70
     0
  9
$DIMSOXD
 70
     0
  9
$DIMSAH
 70
     0
  9
$DIMBLK1
  1

  9
$DIMBLK2
  1

  9
$DIMSTYLE
  2
STANDARD
  9
$DIMCLRD
 70
     0
  9
$DIMCLRE
 70
     0
  9
$DIMCLRT
 70
     0
  9
$DIMTFAC
 40
1.0
  9
$DIMGAP
 40
0.09
  9
$LUNITS
 70
     2
  9
$LUPREC
 70
     4
  9
$SKETCHINC
 40
0.1
  9
$FILLETRAD
 40
0.0
  9
$AUNITS
 70
     0
  9
$AUPREC
 70
     0
  9
$MENU
  1
.
  9
$ELEVATION
 40
0.0
  9
$PELEVATION
 40
0.0
  9
$THICKNESS
 40
0.0
  9
$LIMCHECK
 70
     0
  9
$BLIPMODE
 70
     0
  9
$CHAMFERA
 40
0.0
  9
$CHAMFERB
 40
0.0
  9
$SKPOLY
 70
     0
  9
$TDCREATE
 40
2458172.5207638889551163
  9
$TDUPDATE
 40
2459129.858993056230247
  9
$TDINDWG
 40
0.1828814236
  9
$TDUSRTIMER
 40
0.1828814236
  9
$USRTIMER
 70
     1
  9
$ANGBASE
 50
0.0
  9
$ANGDIR
 70
     0
  9
$PDMODE
 70
     0
  9
$PDSIZE
 40
0.3125
  9
$PLINEWID
 40
0.0
  9
$COORDS
 70
     1
  9
$SPLFRAME
 70
     0
  9
$SPLINETYPE
 70
     6
  9
$SPLINESEGS
 70
     8
  9
$ATTDIA
 70
     1
  9
$ATTREQ
 70
     1
  9
$HANDLING
 70
     1
  9
$HANDSEED
  5
5777
  9
$SURFTAB1
 70
     6
  9
$SURFTAB2
 70
     6
  9
$SURFTYPE
 70
     6
  9
$SURFU
 70
     6
  9
$SURFV
 70
     6
  9
$UCSNAME
  2

  9
$UCSORG
 10
0.0
 20
0.0
 30
0.0
  9
$UCSXDIR
 10
1.0
 20
0.0
 30
0.0
  9
$UCSYDIR
 10
0.0
 20
1.0
 30
0.0
  9
$PUCSNAME
  2

  9
$PUCSORG
 10
0.0
 20
0.0
 30
0.0
  9
$PUCSXDIR
 10
1.0
 20
0.0
 30
0.0
  9
$PUCSYDIR
 10
0.0
 20
1.0
 30
0.0
  9
$USERI1
 70
     0
  9
$USERI2
 70
     0
  9
$USERI3
 70
     0
  9
$USERI4
 70
     0
  9
$USERI5
 70
     0
  9
$USERR1
 40
0.0
  9
$USERR2
 40
0.0
  9
$USERR3
 40
0.0
  9
$USERR4
 40
0.0
  9
$USERR5
 40
0.0
  9
$WORLDVIEW
 70
     1
  9
$SHADEDGE
 70
     3
  9
$SHADEDIF
 70
    70
  9
$TILEMODE
 70
     1
  9
$MAXACTVP
 70
    64
  9
$PLIMCHECK
 70
     0
  9
$PEXTMIN
 10
1.0000000000000000E+20
 20
1.0000000000000000E+20
 30
1.0000000000000000E+20
  9
$PEXTMAX
 10
-1.0000000000000000E+20
 20
-1.0000000000000000E+20
 30
-1.0000000000000000E+20
  9
$PLIMMIN
 10
0.0
 20
0.0
  9
$PLIMMAX
 10
12.0
 20
9.0
  9
$UNITMODE
 70
     0
  9
$VISRETAIN
 70
     1
  9
$PLINEGEN
 70
     0
  9
$PSLTSCALE
 70
     1
  0
ENDSEC
  0
SECTION
  2
TABLES
  0
TABLE
  2
VPORT
 70
     1
  0
VPORT
  2
*ACTIVE
 70
     0
 10
0.0
 20
0.0
 11
1.0
 21
1.0
 12
0.0
 22
0.0
 13
0.0
 23
0.0
 14
1.0
 24
1.0
 15
0.0
 25
0.0
 16
0.0
 26
0.0
 36
28.9997388970198493
 17
251.7825012207030966
 27
24.4117975234985316
 37
0.0
 40
7.3335620835517732
 41
3.1396160558464219
 42
50.0
 43
0.0
 44
0.0
 50
0.0
 51
0.0
 71
     0
 72
   100
 73
     1
 74
     1
 75
     0
 76
     0
 77
     0
 78
     0
  0
ENDTAB
  0
TABLE
  2
LTYPE
 70
     2
  0
LTYPE
  2
CONTINUOUS
 70
     0
  3
Solid line
 72
    65
 73
     0
 40
0.0
  0
LTYPE
  2
PHANTOM2
 70
     0
  3
___ _ _ ___ _ _ ___ _ _ ___ _ _
 72
    65
 73
     6
 40
1.25
 49
0.625
 49
-0.125
 49
0.125
 49
-0.125
 49
0.125
 49
-0.125
  0
ENDTAB
  0
TABLE
  2
LAYER
 70
     2
  0
LAYER
  2
0
 70
     0
 62
   255
  6
CONTINUOUS
  0
LAYER
  2
DEFPOINTS
 70
     0
 62
     7
  6
CONTINUOUS
  0
ENDTAB
  0
TABLE
  2
STYLE
 70
     1
  0
STYLE
  2
STANDARD
 70
     0
 40
0.0
 41
0.8
 50
0.0
 71
     0
 42
0.2
  3
txt
  4

  0
ENDTAB
  0
TABLE
  2
VIEW
 70
     0
  0
ENDTAB
  0
TABLE
  2
UCS
 70
     0
  0
ENDTAB
  0
TABLE
  2
APPID
 70
    10
  0
APPID
  2
ACAD
 70
     0
  0
APPID
  2
ACAD_MLEADERVER
 70
     0
  0
APPID
  2
ACAD_EXEMPT_FROM_CAD_STANDARDS
 70
     0
  0
APPID
  2
ACAD_DSTYLE_DIMJAG
 70
     0
  0
APPID
  2
ACAD_DSTYLE_DIMTALN
 70
     0
  0
APPID
  2
ACAD_NAV_VCDISPLAY
 70
     0
  0
APPID
  2
ACAECLAYERSTANDARD
 70
     0
  0
APPID
  2
ACCMTRANSPARENCY
 70
     0
  0
APPID
  2
DCO15
 70
     0
  0
APPID
  2
ACDBATTR
 70
     0
  0
ENDTAB
  0
TABLE
  2
DIMSTYLE
 70
     1
  0
DIMSTYLE
  2
STANDARD
 70
     0
  3

  4

  5

  6

  7

 40
1.0
 41
0.1875
 42
0.0625
 43
0.38
 44
0.125
 45
0.0
 46
0.0
 47
0.01
 48
0.01
140
0.15625
141
0.09
142
0.0
143
25.3999999999999986
144
1.0
145
0.0
146
1.0
147
0.09
 71
     1
 72
     0
 73
     1
 74
     1
 75
     0
 76
     0
 77
     0
 78
     4
170
     0
171
     2
172
     0
173
     0
174
     0
175
     0
176
     0
177
     0
178
     0
  0
ENDTAB
  0
ENDSEC
  0
SECTION
  2
BLOCKS
  0
BLOCK
  8
0
  2
$MODEL_SPACE
 70
     0
 10
0.0
 20
0.0
 30
0.0
  3
$MODEL_SPACE
  1

  0
ENDBLK
  5
21
  8
0
  0
BLOCK
 67
     1
  8
0
  2
$PAPER_SPACE
 70
     0
 10
0.0
 20
0.0
 30
0.0
  3
$PAPER_SPACE
  1

  0
ENDBLK
  5
1D
 67
     1
  8
0
  0
BLOCK
  8
0
  2
_FILLED
 70
     0
 10
0.0
 20
0.0
 30
0.0
  3
_FILLED
  1

  0
SOLID
  5
2836
  8
0
  6
BYBLOCK
 62
     0
 10
0.0
 20
0.0
 30
0.0
 11
-1.0
 21
0.1666666667
 31
0.0
 12
-1.0
 22
-0.1666666667
 32
0.0
 13
-1.0
 23
-0.1666666667
 33
0.0
  0
ENDBLK
  5
2837
  8
0
  6
BYBLOCK
 62
     0
  0
ENDSEC
  0
SECTION
  2
ENTITIES
  0
ATTDEF
  5
829
  8
DEFPOINTS
 10
251.7831103609410093
 20
26.1703592297773184
 30
0.0
 40
0.001
  1
K-29929IN-4
  3

  2
MODELNUMBER
 70
     0
1001
ACDBATTR
1070
     0
1070
     1
  0
ATTDEF
  5
82A
  8
DEFPOINTS
 10
251.7831103609410093
 20
26.1686925631106604
 30
0.0
 40
0.001
  1
JULY
  3

  2
TRADENAME
 70
     0
1001
ACDBATTR
1070
     0
1070
     1
  0
ATTDEF
  5
82B
  8
DEFPOINTS
 10
251.7831103609410093
 20
26.1670258964439917
 30
0.0
 40
0.001
  1
BATHROOM SINK FAUCET
  3

  2
PRODUCT
 70
     0
1001
ACDBATTR
1070
     0
1070
     1
  0
ARC
  5
546D
  8
0
 10
361.5565603966763888
 20
20.2923477028264898
 30
0.0
 40
109.152959441215998
 50
177.7066699746764868
 51
179.3690625066886071
  0
ARC
  5
546E
  8
0
 10
257.16461273124429
 20
24.5109233622622291
 30
0.0
 40
4.675968767400553
 50
163.9997784350566974
 51
178.1711179054744889
  0
ARC
  5
546F
  8
0
 10
250.3631449739046104
 20
26.2859887545838191
 30
0.0
 40
2.35732257184356
 50
348.0978498243758281
 51
357.8928668115195251
  0
ARC
  5
5470
  8
0
 10
251.7929358577806909
 20
26.3029284855336698
 30
0.0
 40
0.9117806711215026
 50
14.7455557705594504
 51
44.4111791096109911
  0
ARC
  5
5471
  8
0
 10
251.7743053574245948
 20
26.2935972311038917
 30
0.0
 40
0.9316409395966037
 50
44.0192976094546324
 51
69.8150472419628016
  0
ARC
  5
5472
  8
0
 10
251.7670450287218102
 20
26.2166122264920709
 30
0.0
 40
1.0065967565760421
 50
70.9392599304166396
 51
89.1202310336220478
  0
ARC
  5
5473
  8
0
 10
3455.9619164741720851
 20
-151.9820442119695088
 30
0.0
 40
3208.3638093779609335
 50
176.8437351858688089
 51
176.8788052981342105
  0
ARC
  5
5474
  8
0
 10
257.8873403441170922
 20
24.2549761474618784
 30
0.0
 40
5.4381497750307144
 50
166.274653601025193
 51
175.639992276376006
  0
ARC
  5
5475
  8
0
 10
251.0367494933587125
 20
26.1486505476965689
 30
0.0
 40
1.6828868869663121
 50
1.7251695868890611
 51
13.2721187635997797
  0
ARC
  5
5476
  8
0
 10
142.0285950233829055
 20
20.2930411383614491
 30
0.0
 40
109.1327935730198959
 50
0.6304331735387552
 51
2.2933896675905832
  0
ARC
  5
5477
  8
0
 10
246.4003884263597968
 20
24.5109233622622291
 30
0.0
 40
4.675968767400553
 50
1.828882094525478
 51
16.0002215649433204
  0
ARC
  5
5478
  8
0
 10
253.2018561836995048
 20
26.2859887545838191
 30
0.0
 40
2.35732257184356
 50
182.1071331884797075
 51
191.9021501756238024
  0
ARC
  5
5479
  8
0
 10
251.7720652998233959
 20
26.3029284855336698
 30
0.0
 40
0.9117806711215026
 50
135.5888208903890018
 51
165.2544442294405087
  0
ARC
  5
547A
  8
0
 10
251.7906958001796056
 20
26.2935972311038917
 30
0.0
 40
0.9316409395966037
 50
110.1849527580371984
 51
135.9807023905453036
  0
ARC
  5
547B
  8
0
 10
251.7979561288823049
 20
26.2166122264920709
 30
0.0
 40
1.0065967565760421
 50
90.8797689663779664
 51
109.0607400695833036
  0
ARC
  5
547C
  8
0
 10
-2952.3969153165680837
 20
-151.9820442119695088
 30
0.0
 40
3208.3638093779609335
 50
3.1211947018657571
 51
3.156264814131363
  0
ARC
  5
547D
  8
0
 10
245.6776608134869946
 20
24.2549761474618784
 30
0.0
 40
5.4381497750307144
 50
4.3600077236240233
 51
13.7253463989747306
  0
ARC
  5
547E
  8
0
 10
252.5282516642454027
 20
26.1486505476965689
 30
0.0
 40
1.6828868869663121
 50
166.7278812364002079
 51
178.2748304131110899
  0
ARC
  5
547F
  8
0
 10
251.7825005788020007
 20
21.4943087139638287
 30
0.0
 40
0.6277184037101137
 50
180.0446331176179058
 51
359.9553668823797921
  0
ARC
  5
5480
  8
0
 10
251.7825005788020007
 20
22.7442737554598615
 30
0.0
 40
0.5760741784457613
 50
183.6556870923926112
 51
356.3443129076067066
  0
LINE
  5
5482
  8
0
 10
251.8612542233020974
 20
27.2187906826593995
 30
0.0
 11
251.8612542233020974
 21
27.2982449717129292
 31
0.0
  0
ARC
  5
5483
  8
0
 10
251.8025502131723954
 20
27.411644891675909
 30
0.0
 40
0.1277102089766384
 50
297.3695202475560109
 51
357.6373869227883802
  0
LINE
  5
5484
  8
0
 10
251.9301518611019901
 20
27.4063802053129315
 30
0.0
 11
251.9316642313430066
 21
27.4430359378152211
 31
0.0
  0
ARC
  5
5485
  8
0
 10
251.8121134117413078
 20
27.6565372140693597
 30
0.0
 40
0.2446940813129383
 50
299.2468047710696055
 51
342.6289414726117002
  0
ARC
  5
5486
  8
0
 10
251.864527107603891
 20
27.6401408283380512
 30
0.0
 40
0.1897756237688766
 50
342.6289414726118139
 51
19.4349552185955297
  0
LINE
  5
5487
  8
0
 10
252.0434892852732105
 20
27.7032861079771884
 30
0.0
 11
251.9846331575467957
 21
27.8377452716314799
 31
0.0
  0
ARC
  5
5488
  8
0
 10
251.8034399643250936
 20
27.4689342320451892
 30
0.0
 40
0.1275476158962034
 50
299.904082731927474
 51
347.358080426900699
  0
ARC
  5
5489
  8
0
 10
251.8041547870535055
 20
27.7535968291950397
 30
0.0
 40
0.199131621246835
 50
24.9973912915627103
 51
65.6269284932108263
  0
ARC
  5
548A
  8
0
 10
251.8288661257709862
 20
27.7692388967232198
 30
0.0
 40
0.1701660706232128
 50
302.7050156345284222
 51
23.7399038677135117
  0
LINE
  5
548B
  8
0
 10
251.703746934302103
 20
27.2187906826594102
 30
0.0
 11
251.703746934302103
 21
27.2982449717129292
 31
0.0
  0
ARC
  5
548C
  8
0
 10
251.7624509444316914
 20
27.411644891675909
 30
0.0
 40
0.1277102089766384
 50
182.3626130772113925
 51
242.6304797524439039
  0
LINE
  5
548D
  8
0
 10
251.6348492965020966
 20
27.4063802053129315
 30
0.0
 11
251.6333369262611086
 21
27.4430359378152211
 31
0.0
  0
ARC
  5
548E
  8
0
 10
251.7528877458626937
 20
27.6565372140693597
 30
0.0
 40
0.2446940813129383
 50
197.3710585273881861
 51
240.7531952289303945
  0
ARC
  5
548F
  8
0
 10
251.7004740500003095
 20
27.6401408283380512
 30
0.0
 40
0.1897756237688766
 50
160.5650447814045094
 51
197.3710585273881861
  0
LINE
  5
5490
  8
0
 10
251.5215118723309047
 20
27.7032861079771884
 30
0.0
 11
251.5803680000572911
 21
27.8377452716314799
 31
0.0
  0
ARC
  5
5491
  8
0
 10
251.7615611932791069
 20
27.4689342320451892
 30
0.0
 40
0.1275476158962034
 50
192.6419195730989031
 51
240.0959172680724976
  0
ARC
  5
5492
  8
0
 10
251.7608463705506097
 20
27.7535968291950397
 30
0.0
 40
0.199131621246835
 50
114.3730715067891026
 51
155.0026087084380038
  0
ARC
  5
5493
  8
0
 10
251.7361350318331858
 20
27.7692388967232198
 30
0.0
 40
0.1701660706232128
 50
156.2600961322862929
 51
237.2949843654716062
  0
ARC
  5
5494
  8
0
 10
251.7824831449511862
 20
27.4456854443353109
 30
0.0
 40
0.1671633205929542
 50
241.8968230804840971
 51
298.1136656086540029
  0
ARC
  5
5495
  8
0
 10
251.7825005788020007
 20
27.5020222618055286
 30
0.0
 40
0.1666778882443254
 50
239.5268202545144902
 51
300.4731797454854245
  0
ARC
  5
5496
  8
0
 10
251.7825005788020007
 20
27.7173008817005986
 30
0.0
 40
0.3122035468789824
 50
241.4596897294231894
 51
298.5403102705768106
  0
ARC
  5
5497
  8
0
 10
251.7825005788020007
 20
27.7116431487180215
 30
0.0
 40
0.246294275428789
 50
65.066035222190564
 51
114.9339647778078017
  0
ARC
  5
5498
  8
0
 10
251.7825005788020007
 20
27.825737148429031
 30
0.0
 40
0.2429075888332239
 50
235.2924432089920117
 51
304.7075567910077893
  0
ENDSEC
  0
EOF
