  0
SECTION
  2
HEADER
  9
$ACADVER
  1
AC1009
  9
$INSBASE
 10
2915.1801250564708425
 20
77.5917907773657873
 30
0.0
  9
$EXTMIN
 10
2899.7423624057601046
 20
57.4483943856220591
 30
-0.0015258207003583
  9
$EXTMAX
 10
2930.596390349864123
 20
97.7351935393053139
 30
0.0000000349246037
  9
$LIMMIN
 10
0.0
 20
0.0
  9
$LIMMAX
 10
11.6929133858000007
 20
8.2677165353999982
  9
$ORTHOMODE
 70
     0
  9
$REGENMODE
 70
     1
  9
$FILLMODE
 70
     1
  9
$QTEXTMODE
 70
     0
  9
$MIRRTEXT
 70
     0
  9
$DRAGMODE
 70
     2
  9
$LTSCALE
 40
0.6431102362
  9
$OSMODE
 70
  4095
  9
$ATTMODE
 70
     1
  9
$TEXTSIZE
 40
0.2
  9
$TRACEWID
 40
0.05
  9
$TEXTSTYLE
  7
STANDARD
  9
$CLAYER
  8
0
  9
$CELTYPE
  6
BYLAYER
  9
$CECOLOR
 62
   256
  9
$DIMSCALE
 40
1.0
  9
$DIMASZ
 40
0.1875
  9
$DIMEXO
 40
0.0625
  9
$DIMDLI
 40
0.4443307087
  9
$DIMRND
 40
0.0
  9
$DIMDLE
 40
0.0
  9
$DIMEXE
 40
0.125
  9
$DIMTP
 40
0.01
  9
$DIMTM
 40
0.01
  9
$DIMTXT
 40
2.0
  9
$DIMCEN
 40
0.1052362205
  9
$DIMTSZ
 40
0.0
  9
$DIMTOL
 70
     1
  9
$DIMLIM
 70
     0
  9
$DIMTIH
 70
     1
  9
$DIMTOH
 70
     1
  9
$DIMSE1
 70
     0
  9
$DIMSE2
 70
     0
  9
$DIMTAD
 70
     0
  9
$DIMZIN
 70
     0
  9
$DIMBLK
  1

  9
$DIMASO
 70
     1
  9
$DIMSHO
 70
     1
  9
$DIMPOST
  1
\X
  9
$DIMAPOST
  1

  9
$DIMALT
 70
     1
  9
$DIMALTD
 70
     2
  9
$DIMALTF
 40
25.3999999999999986
  9
$DIMLFAC
 40
1.0
  9
$DIMTOFL
 70
     0
  9
$DIMTVP
 40
0.0
  9
$DIMTIX
 70
     0
  9
$DIMSOXD
 70
     0
  9
$DIMSAH
 70
     0
  9
$DIMBLK1
  1

  9
$DIMBLK2
  1

  9
$DIMSTYLE
  2
STANDARD
  9
$DIMCLRD
 70
     0
  9
$DIMCLRE
 70
     0
  9
$DIMCLRT
 70
     0
  9
$DIMTFAC
 40
1.0
  9
$DIMGAP
 40
0.09
  9
$LUNITS
 70
     2
  9
$LUPREC
 70
     4
  9
$SKETCHINC
 40
0.1
  9
$FILLETRAD
 40
0.0
  9
$AUNITS
 70
     0
  9
$AUPREC
 70
     0
  9
$MENU
  1
.
  9
$ELEVATION
 40
0.0
  9
$PELEVATION
 40
0.0
  9
$THICKNESS
 40
0.0
  9
$LIMCHECK
 70
     0
  9
$BLIPMODE
 70
     0
  9
$CHAMFERA
 40
0.0
  9
$CHAMFERB
 40
0.0
  9
$SKPOLY
 70
     0
  9
$TDCREATE
 40
2458060.468368056230247
  9
$TDUPDATE
 40
2459957.4458101848140359
  9
$TDINDWG
 40
0.4900996528
  9
$TDUSRTIMER
 40
0.4900996528
  9
$USRTIMER
 70
     1
  9
$ANGBASE
 50
0.0
  9
$ANGDIR
 70
     0
  9
$PDMODE
 70
     0
  9
$PDSIZE
 40
0.3125
  9
$PLINEWID
 40
0.0
  9
$COORDS
 70
     1
  9
$SPLFRAME
 70
     0
  9
$SPLINETYPE
 70
     6
  9
$SPLINESEGS
 70
     8
  9
$ATTDIA
 70
     1
  9
$ATTREQ
 70
     1
  9
$HANDLING
 70
     1
  9
$HANDSEED
  5
2FF1C
  9
$SURFTAB1
 70
     6
  9
$SURFTAB2
 70
     6
  9
$SURFTYPE
 70
     6
  9
$SURFU
 70
     6
  9
$SURFV
 70
     6
  9
$UCSNAME
  2

  9
$UCSORG
 10
0.0
 20
0.0
 30
0.0
  9
$UCSXDIR
 10
1.0
 20
0.0
 30
0.0
  9
$UCSYDIR
 10
0.0
 20
1.0
 30
0.0
  9
$PUCSNAME
  2

  9
$PUCSORG
 10
0.0
 20
0.0
 30
0.0
  9
$PUCSXDIR
 10
1.0
 20
0.0
 30
0.0
  9
$PUCSYDIR
 10
0.0
 20
1.0
 30
0.0
  9
$USERI1
 70
     0
  9
$USERI2
 70
     0
  9
$USERI3
 70
     0
  9
$USERI4
 70
     0
  9
$USERI5
 70
     0
  9
$USERR1
 40
0.0
  9
$USERR2
 40
0.0
  9
$USERR3
 40
0.0
  9
$USERR4
 40
0.0
  9
$USERR5
 40
0.0
  9
$WORLDVIEW
 70
     1
  9
$SHADEDGE
 70
     3
  9
$SHADEDIF
 70
    70
  9
$TILEMODE
 70
     1
  9
$MAXACTVP
 70
    64
  9
$PLIMCHECK
 70
     0
  9
$PEXTMIN
 10
1.0000000000000000E+20
 20
1.0000000000000000E+20
 30
1.0000000000000000E+20
  9
$PEXTMAX
 10
-1.0000000000000000E+20
 20
-1.0000000000000000E+20
 30
-1.0000000000000000E+20
  9
$PLIMMIN
 10
0.0
 20
0.0
  9
$PLIMMAX
 10
12.0
 20
9.0
  9
$UNITMODE
 70
     0
  9
$VISRETAIN
 70
     1
  9
$PLINEGEN
 70
     0
  9
$PSLTSCALE
 70
     1
  0
ENDSEC
  0
SECTION
  2
TABLES
  0
TABLE
  2
VPORT
 70
     1
  0
VPORT
  2
*ACTIVE
 70
     0
 10
0.0
 20
0.0
 11
1.0
 21
1.0
 12
-888.3746910050002725
 22
-48.4034682342862368
 13
0.0
 23
0.0
 14
1.0
 24
1.0
 15
0.0
 25
0.0
 16
0.0
 26
0.0
 36
17.1152628219792007
 17
3803.5440673828129547
 27
125.9952621967499056
 37
0.0
 40
40.5624214968099182
 41
2.1792237442922371
 42
50.0
 43
0.0
 44
0.0
 50
0.0
 51
0.0
 71
     0
 72
   100
 73
     1
 74
     1
 75
     0
 76
     0
 77
     0
 78
     0
  0
ENDTAB
  0
TABLE
  2
LTYPE
 70
     2
  0
LTYPE
  2
CONTINUOUS
 70
     0
  3
Solid line
 72
    65
 73
     0
 40
0.0
  0
LTYPE
  2
PHANTOM2
 70
     0
  3
___ _ _ ___ _ _ ___ _ _ ___ _ _
 72
    65
 73
     6
 40
1.25
 49
0.625
 49
-0.125
 49
0.125
 49
-0.125
 49
0.125
 49
-0.125
  0
ENDTAB
  0
TABLE
  2
LAYER
 70
     2
  0
LAYER
  2
0
 70
     0
 62
   255
  6
CONTINUOUS
  0
LAYER
  2
DEFPOINTS
 70
     0
 62
     7
  6
CONTINUOUS
  0
ENDTAB
  0
TABLE
  2
STYLE
 70
     1
  0
STYLE
  2
STANDARD
 70
     0
 40
0.0
 41
0.8
 50
0.0
 71
     0
 42
0.2
  3
txt
  4

  0
ENDTAB
  0
TABLE
  2
VIEW
 70
     0
  0
ENDTAB
  0
TABLE
  2
UCS
 70
     0
  0
ENDTAB
  0
TABLE
  2
APPID
 70
    10
  0
APPID
  2
ACAD
 70
     0
  0
APPID
  2
ACAD_MLEADERVER
 70
     0
  0
APPID
  2
ACAD_EXEMPT_FROM_CAD_STANDARDS
 70
     0
  0
APPID
  2
ACAD_NAV_VCDISPLAY
 70
     0
  0
APPID
  2
ACAECLAYERSTANDARD
 70
     0
  0
APPID
  2
ACCMTRANSPARENCY
 70
     0
  0
APPID
  2
ACAD_DSTYLE_DIMJAG
 70
     0
  0
APPID
  2
ACAD_DSTYLE_DIMTALN
 70
     0
  0
APPID
  2
ACDBATTR
 70
     0
  0
APPID
  2
DCO15
 70
     0
  0
ENDTAB
  0
TABLE
  2
DIMSTYLE
 70
     1
  0
DIMSTYLE
  2
STANDARD
 70
     0
  3

  4

  5

  6

  7

 40
1.0
 41
0.1875
 42
0.0625
 43
0.38
 44
0.125
 45
0.0
 46
0.0
 47
0.01
 48
0.01
140
0.15625
141
0.09
142
0.0
143
25.3999999999999986
144
1.0
145
0.0
146
1.0
147
0.09
 71
     1
 72
     0
 73
     1
 74
     1
 75
     0
 76
     0
 77
     0
 78
     4
170
     0
171
     2
172
     0
173
     0
174
     0
175
     0
176
     0
177
     0
178
     0
  0
ENDTAB
  0
ENDSEC
  0
SECTION
  2
BLOCKS
  0
BLOCK
  8
0
  2
$MODEL_SPACE
 70
     0
 10
0.0
 20
0.0
 30
0.0
  3
$MODEL_SPACE
  1

  0
ENDBLK
  5
21
  8
0
  0
BLOCK
 67
     1
  8
0
  2
$PAPER_SPACE
 70
     0
 10
0.0
 20
0.0
 30
0.0
  3
$PAPER_SPACE
  1

  0
ENDBLK
  5
1D
 67
     1
  8
0
  0
BLOCK
  8
0
  2
_FILLED
 70
     0
 10
0.0
 20
0.0
 30
0.0
  3
_FILLED
  1

  0
SOLID
  5
2FD00
  8
0
  6
BYBLOCK
 62
     0
 10
0.0
 20
0.0
 30
0.0
 11
-1.0
 21
0.1666666667
 31
0.0
 12
-1.0
 22
-0.1666666667
 32
0.0
 13
-1.0
 23
-0.1666666667
 33
0.0
  0
ENDBLK
  5
2FD01
  8
0
  6
BYBLOCK
 62
     0
  0
ENDSEC
  0
SECTION
  2
ENTITIES
  0
ATTDEF
  5
2F239
  8
DEFPOINTS
 10
2915.1803339141310971
 20
77.5963789720673844
 30
0.0
 40
0.001
  1
K-30012T
  3

  2
MODELNUMBER
 70
     0
1001
ACDBATTR
1070
     0
1070
     1
  0
ATTDEF
  5
2F23A
  8
DEFPOINTS
 10
2915.1803339141310971
 20
77.5947123054007051
 30
0.0
 40
0.001
  1

  3

  2
TRADENAME
 70
     0
1001
ACDBATTR
1070
     0
1070
     1
  0
ATTDEF
  5
2F23B
  8
DEFPOINTS
 10
2915.1803339141310971
 20
77.5930456387340541
 30
0.0
 40
0.001
  1
MIRROR CABINET
  3

  2
PRODUCT
 70
     0
1001
ACDBATTR
1070
     0
1070
     1
  0
LINE
  5
2FD4D
  8
0
 10
2900.6919360802880874
 20
57.4520269978157927
 30
0.0
 11
2929.6891418144641648
 21
57.4520269978157927
 31
0.0
  0
LINE
  5
2FD4E
  8
0
 10
2900.6919360802880874
 20
66.6291923521157941
 30
0.0
 11
2918.4478415921898886
 21
66.6291923521157941
 31
0.0
  0
LINE
  5
2FD4F
  8
0
 10
2918.9596526156888103
 20
66.6291923521157941
 30
0.0
 11
2929.6683140327481851
 21
66.6291923521157941
 31
0.0
  0
ARC
  5
2FD50
  8
0
 10
2900.6919360802880874
 20
67.4165939269157946
 30
0.0
 40
0.7874015747999979
 50
180.0
 51
270.0
  0
LINE
  5
2FD51
  8
0
 10
2899.9045345054878453
 20
67.4165939269157946
 30
0.0
 11
2899.9045345054878453
 21
96.9441529821157957
 31
0.0
  0
ARC
  5
2FD52
  8
0
 10
2900.6919360802880874
 20
96.9441529821157957
 30
0.0
 40
0.7874015748000005
 50
90.0
 51
180.0
  0
ARC
  5
2FD53
  8
0
 10
2900.2982352928879664
 20
66.9284049505157839
 30
0.0
 40
0.4448818898000174
 50
144.0688261886070904
 51
179.9999999999992042
  0
LINE
  5
2FD54
  8
0
 10
2899.8533534030880219
 20
66.9284049505157981
 30
0.0
 11
2899.8533534030880219
 21
58.2906096750157872
 31
0.0
  0
ARC
  5
2FD55
  8
0
 10
2900.6919360802880874
 20
58.2906096750157872
 30
0.0
 40
0.8385826771999926
 50
179.9999999999992042
 51
270.0
  0
ARC
  5
2FD56
  8
0
 10
2929.6692869397388677
 20
58.2894705789756387
 30
0.0
 40
0.8376789168149054
 50
271.3581660530119848
 51
0.7361860319961476
  0
LINE
  5
2FD57
  8
0
 10
2930.506896709846842
 20
58.3002335104639897
 30
0.0
 11
2930.5068967099468864
 21
66.9284049505157981
 31
0.0
  0
ARC
  5
2FD58
  8
0
 10
2930.0617389979020118
 20
66.9284049505209424
 30
0.0
 40
0.4451577120455355
 50
359.9999999993380015
 51
27.7451516790537589
  0
ARC
  5
2FD59
  8
0
 10
2918.4478415921898886
 20
66.8260427457135933
 30
0.0
 40
0.1968503935978161
 50
269.999999970245085
 51
0.0000000297419012
  0
ARC
  5
2FD5A
  8
0
 10
2918.9596526156888103
 20
66.8260427458157977
 30
0.0
 40
0.1968503937000046
 50
180.0000000000007958
 51
270.0
  0
LINE
  5
2FD5B
  8
0
 10
2918.7628022219892046
 20
66.8260427458157977
 30
0.0
 11
2918.7628022219878403
 21
97.5347041632157925
 31
0.0
  0
ARC
  5
2FD5C
  8
0
 10
2918.9596526156879008
 20
97.5347041632157925
 30
0.0
 40
0.196850393699993
 50
89.9999999998436664
 51
180.0000000000007958
  0
LINE
  5
2FD5D
  8
0
 10
2918.9596526156888103
 20
97.7315545569157962
 30
0.0
 11
2929.6683140327481851
 21
97.7315545568748121
 31
0.0
  0
ARC
  5
2FD5E
  8
0
 10
2929.6683140327450019
 20
96.9441529820725947
 30
0.0
 40
0.7874015748022032
 50
0.0000000031420827
 51
89.9999999998436664
  0
LINE
  5
2FD5F
  8
0
 10
2930.4557156075479725
 20
96.9441529821157957
 30
0.0
 11
2930.4557156093610502
 21
63.8778925069157921
 31
0.0
  0
LINE
  5
2FD60
  8
0
 10
2930.4557156093610502
 20
63.8778925069157921
 30
0.0
 11
2918.6446919857880857
 21
63.8778925069157921
 31
0.0
  0
ARC
  5
2FD61
  8
0
 10
2929.6683098683861317
 20
67.4166142443937986
 30
0.0
 40
0.7874218922890155
 50
270.000303014631811
 51
359.6330026434990828
  0
LINE
  5
2FD62
  8
0
 10
2918.6446919857880857
 20
63.8778925069157921
 30
0.0
 11
2918.6446919857880857
 21
97.5347041632157783
 31
0.0
  0
ARC
  5
2FD63
  8
0
 10
2918.4478415920880252
 20
97.5347041632157783
 30
0.0
 40
0.1968503937000037
 50
0.0
 51
90.0
  0
LINE
  5
2FD64
  8
0
 10
2918.4478415920880252
 20
97.7315545569157962
 30
0.0
 11
2900.6919360802880874
 21
97.7315545569157962
 31
0.0
  0
LINE
  5
2FD65
  8
0
 10
2918.6446919857880857
 20
96.9441529821157957
 30
0.0
 11
2918.7628022219892046
 21
96.9441529821157957
 31
0.0
  0
LINE
  5
2FD66
  8
0
 10
2918.6446919857880857
 20
96.2512395963157843
 30
0.0
 11
2918.7628022219892046
 21
96.2512395963157843
 31
0.0
  0
LINE
  5
2FD67
  8
0
 10
2899.9045345054878453
 20
96.7473025884157636
 30
0.0
 11
2918.6446919857880857
 21
96.7473025884157636
 31
0.0
  0
LINE
  5
2FD68
  8
0
 10
2918.7628022219878403
 20
96.7473025884157636
 30
0.0
 11
2930.4557156075479725
 21
96.7473025884157636
 31
0.0
  0
LINE
  5
2FD69
  8
0
 10
2899.9360305684881496
 20
96.7158065254157862
 30
0.0
 11
2918.6131959227877815
 21
96.7158065254157862
 31
0.0
  0
LINE
  5
2FD6A
  8
0
 10
2918.7942982849881446
 20
96.7158065254157862
 30
0.0
 11
2930.4242195445472134
 21
96.7158065254157862
 31
0.0
  0
LINE
  5
2FD6B
  8
0
 10
2899.9360305684881496
 20
96.7158065254157862
 30
0.0
 11
2899.9045345054878453
 21
96.7473025884157636
 31
0.0
  0
LINE
  5
2FD6C
  8
0
 10
2899.9360305684881496
 20
96.7158065254157862
 30
0.0
 11
2899.9360305684881496
 21
67.6449403836157899
 31
0.0
  0
LINE
  5
2FD6D
  8
0
 10
2899.9360305684881496
 20
67.6449403836157899
 30
0.0
 11
2918.6131959227877815
 21
67.6449403836157899
 31
0.0
  0
LINE
  5
2FD6E
  8
0
 10
2918.7942982849881446
 20
67.6449403836157899
 30
0.0
 11
2930.4242195445472134
 21
67.6449403836157899
 31
0.0
  0
LINE
  5
2FD6F
  8
0
 10
2899.9045345054878453
 20
67.6134443206157982
 30
0.0
 11
2918.6446919857880857
 21
67.6134443206157982
 31
0.0
  0
LINE
  5
2FD70
  8
0
 10
2918.7628022219892046
 20
67.6134443206157982
 30
0.0
 11
2930.4557156091559591
 21
67.6134443206157982
 31
0.0
  0
LINE
  5
2FD71
  8
0
 10
2899.9360305684881496
 20
67.6449403836157899
 30
0.0
 11
2899.9045345054878453
 21
67.6134443206157982
 31
0.0
  0
LINE
  5
2FD72
  8
0
 10
2918.6131959227877815
 20
67.6449403836157899
 30
0.0
 11
2918.6131959227877815
 21
96.7158065254157862
 31
0.0
  0
LINE
  5
2FD73
  8
0
 10
2918.7942982849881446
 20
67.6449403836157899
 30
0.0
 11
2918.7942982849881446
 21
96.7158065254157862
 31
0.0
  0
LINE
  5
2FD74
  8
0
 10
2918.7628022219892046
 20
67.6449403836157899
 30
0.0
 11
2918.7942982849881446
 21
67.6134443206157982
 31
0.0
  0
LINE
  5
2FD75
  8
0
 10
2918.7942982849881446
 20
67.6449403836157899
 30
0.0
 11
2918.7785502534889019
 21
67.6291923521157941
 31
0.0
  0
LINE
  5
2FD76
  8
0
 10
2918.6131959227877815
 20
67.6449403836157899
 30
0.0
 11
2918.6446919857880857
 21
67.6134443206157982
 31
0.0
  0
LINE
  5
2FD77
  8
0
 10
2918.6446919857880857
 20
67.2906096749157996
 30
0.0
 11
2918.7628022219892046
 21
67.2906096749157996
 31
0.0
  0
LINE
  5
2FD78
  8
0
 10
2918.6446919857880857
 20
68.1095073127157917
 30
0.0
 11
2918.7628022219892046
 21
68.1095073127157917
 31
0.0
  0
LINE
  5
2FD79
  8
0
 10
2918.6446919857880857
 20
64.3523178006854266
 30
0.0
 11
2918.9580946273158588
 21
64.3870195775157868
 31
0.0
  0
LINE
  5
2FD7A
  8
0
 10
2918.9580946273158588
 20
64.3870195775157868
 30
0.0
 11
2930.0098131305471725
 21
64.3870199684157853
 31
0.0
  0
LINE
  5
2FD7B
  8
0
 10
2930.0098131305471725
 20
64.3870199684157853
 30
0.0
 11
2930.4557156075479725
 21
64.3371904074163439
 31
0.0
  0
LINE
  5
2FD7C
  8
0
 10
2930.4557156075479725
 20
64.2391397481163438
 30
0.0
 11
2929.8651644264468814
 21
64.2888944332775196
 31
0.0
  0
LINE
  5
2FD7D
  8
0
 10
2929.8651644264468814
 20
64.2888944332775196
 30
0.0
 11
2919.1021688686951165
 21
64.2888944332775196
 31
0.0
  0
LINE
  5
2FD7E
  8
0
 10
2919.1021688686951165
 20
64.2888944332775196
 30
0.0
 11
2918.6446919857880857
 21
64.2341355527725852
 31
0.0
  0
LINE
  5
2FD7F
  8
0
 10
2918.6131959227877815
 20
96.7158065254157862
 30
0.0
 11
2918.6446919857880857
 21
96.7473025884157636
 31
0.0
  0
LINE
  5
2FD80
  8
0
 10
2918.7628022219878403
 20
96.7158065254152746
 30
0.0
 11
2918.7942982849881446
 21
96.7473025884157636
 31
0.0
  0
LINE
  5
2FD81
  8
0
 10
2918.7785502534889019
 20
96.731554556915782
 30
0.0
 11
2918.7942982849881446
 21
96.7158065254157862
 31
0.0
  0
LINE
  5
2FD82
  8
0
 10
2902.6801250566882118
 20
95.589822273415777
 30
0.0
 11
2902.6801250566882118
 21
94.2118695175157939
 31
0.0
  0
LINE
  5
2FD83
  8
0
 10
2902.6801250566882118
 20
94.2118695175157939
 30
0.0
 11
2915.846876520080059
 21
94.2118695175157939
 31
0.0
  0
LINE
  5
2FD84
  8
0
 10
2915.846876520080059
 20
94.2118695175157939
 30
0.0
 11
2915.846876520080059
 21
95.589822273415777
 31
0.0
  0
LINE
  5
2FD85
  8
0
 10
2915.846876520080059
 20
95.589822273415777
 30
0.0
 11
2902.6801250566882118
 21
95.589822273415777
 31
0.0
  0
LINE
  5
2FD86
  8
0
 10
2930.4242195445472134
 20
96.7158065254157862
 30
0.0
 11
2930.4399675760469108
 21
96.731554556915782
 31
0.0
  0
LINE
  5
2FD87
  8
0
 10
2930.4242195445472134
 20
96.7473025884157636
 30
0.0
 11
2930.4557156075597959
 21
96.7158065254032664
 31
0.0
  0
LINE
  5
2FD88
  8
0
 10
2930.4242195445472134
 20
96.7158065254157862
 30
0.0
 11
2930.4242195445472134
 21
67.6449403836157899
 31
0.0
  0
LINE
  5
2FD89
  8
0
 10
2930.4242195445472134
 20
67.6449403836157899
 30
0.0
 11
2930.4399675760469108
 21
67.6291923521157941
 31
0.0
  0
LINE
  5
2FD8A
  8
0
 10
2930.4399675760469108
 20
67.6291923521157941
 30
0.0
 11
2930.4399675760469108
 21
67.6134443206157982
 31
0.0
  0
LINE
  5
2FD8B
  8
0
 10
2930.4242195445472134
 20
67.6134443206157982
 30
0.0
 11
2930.4557156075479725
 21
67.6449403836157899
 31
0.0
  0
LINE
  5
2FD8C
  8
0
 10
2900.1683140329760136
 20
66.8285282914925034
 30
0.0
 11
2900.1683140330878814
 21
58.2906096750157872
 31
0.0
  0
ARC
  5
2FD8D
  8
0
 10
2900.691936080394953
 20
58.2906096750226723
 30
0.0
 40
0.5236220473068798
 50
180.00000000075309
 51
269.9999999883012833
  0
LINE
  5
2FD8E
  8
0
 10
2900.6919360802880874
 20
57.7669876277157925
 30
0.0
 11
2929.6683140327490946
 21
57.7669876201940298
 31
0.0
  0
ARC
  5
2FD8F
  8
0
 10
2929.6683140328559602
 20
58.2906096672857288
 30
0.0
 40
0.5236220470916991
 50
269.9999999883012833
 51
0.0000008458382387
  0
LINE
  5
2FD90
  8
0
 10
2930.1919360799479364
 20
58.2906096750157872
 30
0.0
 11
2930.1919359971147969
 21
63.8778925069157921
 31
0.0
  0
ENDSEC
  0
EOF
