  0
SECTION
  2
HEADER
  9
$ACADVER
  1
AC1009
  9
$INSBASE
 10
2915.1822119548091905
 20
108.5484607339212033
 30
0.0
  9
$EXTMIN
 10
2899.742293984978005
 20
102.4302086148354931
 30
-0.0015258207003583
  9
$EXTMAX
 10
2930.5963212010669849
 20
108.5589929080680065
 30
0.0000000349246037
  9
$LIMMIN
 10
0.0
 20
0.0
  9
$LIMMAX
 10
11.6929133858000007
 20
8.2677165353999982
  9
$ORTHOMODE
 70
     0
  9
$REGENMODE
 70
     1
  9
$FILLMODE
 70
     1
  9
$QTEXTMODE
 70
     0
  9
$MIRRTEXT
 70
     0
  9
$DRAGMODE
 70
     2
  9
$LTSCALE
 40
0.6431102362
  9
$OSMODE
 70
  4095
  9
$ATTMODE
 70
     1
  9
$TEXTSIZE
 40
0.2
  9
$TRACEWID
 40
0.05
  9
$TEXTSTYLE
  7
STANDARD
  9
$CLAYER
  8
0
  9
$CELTYPE
  6
BYLAYER
  9
$CECOLOR
 62
   256
  9
$DIMSCALE
 40
1.0
  9
$DIMASZ
 40
0.1875
  9
$DIMEXO
 40
0.0625
  9
$DIMDLI
 40
0.4443307087
  9
$DIMRND
 40
0.0
  9
$DIMDLE
 40
0.0
  9
$DIMEXE
 40
0.125
  9
$DIMTP
 40
0.01
  9
$DIMTM
 40
0.01
  9
$DIMTXT
 40
2.0
  9
$DIMCEN
 40
0.1052362205
  9
$DIMTSZ
 40
0.0
  9
$DIMTOL
 70
     1
  9
$DIMLIM
 70
     0
  9
$DIMTIH
 70
     1
  9
$DIMTOH
 70
     1
  9
$DIMSE1
 70
     0
  9
$DIMSE2
 70
     0
  9
$DIMTAD
 70
     0
  9
$DIMZIN
 70
     0
  9
$DIMBLK
  1

  9
$DIMASO
 70
     1
  9
$DIMSHO
 70
     1
  9
$DIMPOST
  1
\X
  9
$DIMAPOST
  1

  9
$DIMALT
 70
     1
  9
$DIMALTD
 70
     2
  9
$DIMALTF
 40
25.3999999999999986
  9
$DIMLFAC
 40
1.0
  9
$DIMTOFL
 70
     0
  9
$DIMTVP
 40
0.0
  9
$DIMTIX
 70
     0
  9
$DIMSOXD
 70
     0
  9
$DIMSAH
 70
     0
  9
$DIMBLK1
  1

  9
$DIMBLK2
  1

  9
$DIMSTYLE
  2
STANDARD
  9
$DIMCLRD
 70
     0
  9
$DIMCLRE
 70
     0
  9
$DIMCLRT
 70
     0
  9
$DIMTFAC
 40
1.0
  9
$DIMGAP
 40
0.09
  9
$LUNITS
 70
     2
  9
$LUPREC
 70
     4
  9
$SKETCHINC
 40
0.1
  9
$FILLETRAD
 40
0.0
  9
$AUNITS
 70
     0
  9
$AUPREC
 70
     0
  9
$MENU
  1
.
  9
$ELEVATION
 40
0.0
  9
$PELEVATION
 40
0.0
  9
$THICKNESS
 40
0.0
  9
$LIMCHECK
 70
     0
  9
$BLIPMODE
 70
     0
  9
$CHAMFERA
 40
0.0
  9
$CHAMFERB
 40
0.0
  9
$SKPOLY
 70
     0
  9
$TDCREATE
 40
2458060.468368056230247
  9
$TDUPDATE
 40
2459957.445474537089467
  9
$TDINDWG
 40
0.4894630787
  9
$TDUSRTIMER
 40
0.4894630787
  9
$USRTIMER
 70
     1
  9
$ANGBASE
 50
0.0
  9
$ANGDIR
 70
     0
  9
$PDMODE
 70
     0
  9
$PDSIZE
 40
0.3125
  9
$PLINEWID
 40
0.0
  9
$COORDS
 70
     1
  9
$SPLFRAME
 70
     0
  9
$SPLINETYPE
 70
     6
  9
$SPLINESEGS
 70
     8
  9
$ATTDIA
 70
     1
  9
$ATTREQ
 70
     1
  9
$HANDLING
 70
     1
  9
$HANDSEED
  5
30184
  9
$SURFTAB1
 70
     6
  9
$SURFTAB2
 70
     6
  9
$SURFTYPE
 70
     6
  9
$SURFU
 70
     6
  9
$SURFV
 70
     6
  9
$UCSNAME
  2

  9
$UCSORG
 10
0.0
 20
0.0
 30
0.0
  9
$UCSXDIR
 10
1.0
 20
0.0
 30
0.0
  9
$UCSYDIR
 10
0.0
 20
1.0
 30
0.0
  9
$PUCSNAME
  2

  9
$PUCSORG
 10
0.0
 20
0.0
 30
0.0
  9
$PUCSXDIR
 10
1.0
 20
0.0
 30
0.0
  9
$PUCSYDIR
 10
0.0
 20
1.0
 30
0.0
  9
$USERI1
 70
     0
  9
$USERI2
 70
     0
  9
$USERI3
 70
     0
  9
$USERI4
 70
     0
  9
$USERI5
 70
     0
  9
$USERR1
 40
0.0
  9
$USERR2
 40
0.0
  9
$USERR3
 40
0.0
  9
$USERR4
 40
0.0
  9
$USERR5
 40
0.0
  9
$WORLDVIEW
 70
     1
  9
$SHADEDGE
 70
     3
  9
$SHADEDIF
 70
    70
  9
$TILEMODE
 70
     1
  9
$MAXACTVP
 70
    64
  9
$PLIMCHECK
 70
     0
  9
$PEXTMIN
 10
1.0000000000000000E+20
 20
1.0000000000000000E+20
 30
1.0000000000000000E+20
  9
$PEXTMAX
 10
-1.0000000000000000E+20
 20
-1.0000000000000000E+20
 30
-1.0000000000000000E+20
  9
$PLIMMIN
 10
0.0
 20
0.0
  9
$PLIMMAX
 10
12.0
 20
9.0
  9
$UNITMODE
 70
     0
  9
$VISRETAIN
 70
     1
  9
$PLINEGEN
 70
     0
  9
$PSLTSCALE
 70
     1
  0
ENDSEC
  0
SECTION
  2
TABLES
  0
TABLE
  2
VPORT
 70
     1
  0
VPORT
  2
*ACTIVE
 70
     0
 10
0.0
 20
0.0
 11
1.0
 21
1.0
 12
-888.3747597897898913
 22
-20.50066143529817
 13
0.0
 23
0.0
 14
1.0
 24
1.0
 15
0.0
 25
0.0
 16
0.0
 26
0.0
 36
17.1152628219792007
 17
3803.5440673828129547
 27
125.9952621967499056
 37
0.0
 40
14.2027137597241104
 41
2.1792237442922371
 42
50.0
 43
0.0
 44
0.0
 50
0.0
 51
0.0
 71
     0
 72
   100
 73
     1
 74
     1
 75
     0
 76
     0
 77
     0
 78
     0
  0
ENDTAB
  0
TABLE
  2
LTYPE
 70
     2
  0
LTYPE
  2
CONTINUOUS
 70
     0
  3
Solid line
 72
    65
 73
     0
 40
0.0
  0
LTYPE
  2
PHANTOM2
 70
     0
  3
___ _ _ ___ _ _ ___ _ _ ___ _ _
 72
    65
 73
     6
 40
1.25
 49
0.625
 49
-0.125
 49
0.125
 49
-0.125
 49
0.125
 49
-0.125
  0
ENDTAB
  0
TABLE
  2
LAYER
 70
     2
  0
LAYER
  2
0
 70
     0
 62
   255
  6
CONTINUOUS
  0
LAYER
  2
DEFPOINTS
 70
     0
 62
     7
  6
CONTINUOUS
  0
ENDTAB
  0
TABLE
  2
STYLE
 70
     1
  0
STYLE
  2
STANDARD
 70
     0
 40
0.0
 41
0.8
 50
0.0
 71
     0
 42
0.2
  3
txt
  4

  0
ENDTAB
  0
TABLE
  2
VIEW
 70
     0
  0
ENDTAB
  0
TABLE
  2
UCS
 70
     0
  0
ENDTAB
  0
TABLE
  2
APPID
 70
    10
  0
APPID
  2
ACAD
 70
     0
  0
APPID
  2
ACAD_MLEADERVER
 70
     0
  0
APPID
  2
ACAD_EXEMPT_FROM_CAD_STANDARDS
 70
     0
  0
APPID
  2
ACAD_NAV_VCDISPLAY
 70
     0
  0
APPID
  2
ACAECLAYERSTANDARD
 70
     0
  0
APPID
  2
ACCMTRANSPARENCY
 70
     0
  0
APPID
  2
ACAD_DSTYLE_DIMJAG
 70
     0
  0
APPID
  2
ACAD_DSTYLE_DIMTALN
 70
     0
  0
APPID
  2
ACDBATTR
 70
     0
  0
APPID
  2
DCO15
 70
     0
  0
ENDTAB
  0
TABLE
  2
DIMSTYLE
 70
     1
  0
DIMSTYLE
  2
STANDARD
 70
     0
  3

  4

  5

  6

  7

 40
1.0
 41
0.1875
 42
0.0625
 43
0.38
 44
0.125
 45
0.0
 46
0.0
 47
0.01
 48
0.01
140
0.15625
141
0.09
142
0.0
143
25.3999999999999986
144
1.0
145
0.0
146
1.0
147
0.09
 71
     1
 72
     0
 73
     1
 74
     1
 75
     0
 76
     0
 77
     0
 78
     4
170
     0
171
     2
172
     0
173
     0
174
     0
175
     0
176
     0
177
     0
178
     0
  0
ENDTAB
  0
ENDSEC
  0
SECTION
  2
BLOCKS
  0
BLOCK
  8
0
  2
$MODEL_SPACE
 70
     0
 10
0.0
 20
0.0
 30
0.0
  3
$MODEL_SPACE
  1

  0
ENDBLK
  5
21
  8
0
  0
BLOCK
 67
     1
  8
0
  2
$PAPER_SPACE
 70
     0
 10
0.0
 20
0.0
 30
0.0
  3
$PAPER_SPACE
  1

  0
ENDBLK
  5
1D
 67
     1
  8
0
  0
BLOCK
  8
0
  2
_FILLED
 70
     0
 10
0.0
 20
0.0
 30
0.0
  3
_FILLED
  1

  0
SOLID
  5
2FC7E
  8
0
  6
BYBLOCK
 62
     0
 10
0.0
 20
0.0
 30
0.0
 11
-1.0
 21
0.1666666667
 31
0.0
 12
-1.0
 22
-0.1666666667
 32
0.0
 13
-1.0
 23
-0.1666666667
 33
0.0
  0
ENDBLK
  5
2FC7F
  8
0
  6
BYBLOCK
 62
     0
  0
ENDSEC
  0
SECTION
  2
ENTITIES
  0
ATTDEF
  5
2FAED
  8
DEFPOINTS
 10
2915.1834882183798072
 20
108.5528978273187022
 30
0.0
 40
0.001
  1
K-30012T
  3

  2
MODELNUMBER
 70
     0
1001
ACDBATTR
1070
     0
1070
     1
  0
ATTDEF
  5
2FAEE
  8
DEFPOINTS
 10
2915.1834882183798072
 20
108.5512311606519944
 30
0.0
 40
0.001
  1

  3

  2
TRADENAME
 70
     0
1001
ACDBATTR
1070
     0
1070
     1
  0
ATTDEF
  5
2FAEF
  8
DEFPOINTS
 10
2915.1834882183798072
 20
108.5495644939853008
 30
0.0
 40
0.001
  1
MIRROR CABINET
  3

  2
PRODUCT
 70
     0
1001
ACDBATTR
1070
     0
1070
     1
  0
LINE
  5
2FE1F
  8
0
 10
2900.2215820338969934
 20
108.4815316000211993
 30
0.0
 11
2900.1743379392260067
 21
108.4815316000211993
 31
0.0
  0
LINE
  5
2FE20
  8
0
 10
2900.6152828211261294
 20
108.4815316000211993
 30
0.0
 11
2929.7491410884849756
 21
108.4815316000211993
 31
0.0
  0
LINE
  5
2FE21
  8
0
 10
2930.1270938444849889
 20
108.4815316000211993
 30
0.0
 11
2930.2058340018847957
 21
108.4815316000211993
 31
0.0
  0
ARC
  5
2FE22
  8
0
 10
2900.2215820338969934
 20
108.4657835686919043
 30
0.0
 40
0.0157480313293022
 50
359.9999997427767084
 51
90.0000006210755146
  0
LINE
  5
2FE23
  8
0
 10
2900.2373300652261605
 20
108.4657835686212053
 30
0.0
 11
2900.2373300645181189
 21
108.3083032536212045
 31
0.0
  0
ARC
  5
2FE24
  8
0
 10
2900.2530780959477852
 20
108.3083032535505055
 30
0.0
 40
0.0157480314292986
 50
179.9999997427700862
 51
270.0000028294539902
  0
LINE
  5
2FE25
  8
0
 10
2900.2530780967258579
 20
108.2925552221211944
 30
0.0
 11
2900.5483536872261539
 21
108.2925552367028956
 31
0.0
  0
LINE
  5
2FE26
  8
0
 10
2900.5483536872261539
 20
108.2925552367028956
 30
0.0
 11
2900.5483536872261539
 21
108.296492230021201
 31
0.0
  0
ARC
  5
2FE27
  8
0
 10
2900.5641017187258512
 20
108.296492230021201
 30
0.0
 40
0.01574803150001
 50
90.0000000000260485
 51
179.9999999999739089
  0
ARC
  5
2FE28
  8
0
 10
2900.5995347896250678
 20
108.296492230021201
 30
0.0
 40
0.0157480315000171
 50
0.0000000000521102
 51
89.9999999999739515
  0
LINE
  5
2FE29
  8
0
 10
2900.6152828211261294
 20
108.4815316000211993
 30
0.0
 11
2900.6152828211261294
 21
103.3634213638212032
 31
0.0
  0
LINE
  5
2FE2A
  8
0
 10
2900.6152828211261294
 20
103.3634213638212032
 30
0.0
 11
2930.4578025058858657
 21
103.3634213638212032
 31
0.0
  0
LINE
  5
2FE2B
  8
0
 10
2930.4578025058858657
 20
103.3634213638212032
 30
0.0
 11
2930.4578025058858657
 21
103.678381993721203
 31
0.0
  0
LINE
  5
2FE2C
  8
0
 10
2930.4578025058858657
 20
103.678381993721203
 30
0.0
 11
2930.3200072302861372
 21
103.678381993721203
 31
0.0
  0
LINE
  5
2FE2D
  8
0
 10
2930.3200072302861372
 20
103.678381993721203
 30
0.0
 11
2930.3200072302861372
 21
103.579956796921195
 31
0.0
  0
LINE
  5
2FE2E
  8
0
 10
2930.3200072302861372
 20
103.579956796921195
 30
0.0
 11
2930.3593773089851311
 21
103.579956796921195
 31
0.0
  0
LINE
  5
2FE2F
  8
0
 10
2930.3593773089851311
 20
103.579956796921195
 30
0.0
 11
2930.3593773089851311
 21
103.4618465607211988
 31
0.0
  0
LINE
  5
2FE30
  8
0
 10
2930.3593773089851311
 20
103.4618465607211988
 30
0.0
 11
2929.8475662853848007
 21
103.4618465607211988
 31
0.0
  0
LINE
  5
2FE31
  8
0
 10
2929.8475662853848007
 20
103.4618465607211988
 30
0.0
 11
2929.8475662853848007
 21
104.0228701827212063
 31
0.0
  0
LINE
  5
2FE32
  8
0
 10
2929.8475662853848007
 20
104.0228701827212063
 30
0.0
 11
2929.8672513247847746
 21
104.0228701827212063
 31
0.0
  0
LINE
  5
2FE33
  8
0
 10
2929.8672513247847746
 20
104.0228701827212063
 30
0.0
 11
2929.8672513247847746
 21
104.1390119150212001
 31
0.0
  0
LINE
  5
2FE34
  8
0
 10
2929.8672513247847746
 20
104.1390119150212001
 30
0.0
 11
2929.8554403010862188
 21
104.1508229386212037
 31
0.0
  0
LINE
  5
2FE35
  8
0
 10
2929.8554403010862188
 20
104.1508229386212037
 30
0.0
 11
2929.8672513247847746
 21
104.1626339623211948
 31
0.0
  0
LINE
  5
2FE36
  8
0
 10
2929.8672513247847746
 20
104.1626339623211948
 30
0.0
 11
2929.8672513247847746
 21
104.278775694521201
 31
0.0
  0
LINE
  5
2FE37
  8
0
 10
2929.8672513247847746
 20
104.278775694521201
 30
0.0
 11
2929.8475662853848007
 21
104.278775694521201
 31
0.0
  0
LINE
  5
2FE38
  8
0
 10
2929.8475662853848007
 20
104.278775694521201
 30
0.0
 11
2929.8475662853848007
 21
104.6232638835212043
 31
0.0
  0
LINE
  5
2FE39
  8
0
 10
2929.8475662853848007
 20
104.6232638835212043
 30
0.0
 11
2929.8672513247847746
 21
104.6232638835212043
 31
0.0
  0
LINE
  5
2FE3A
  8
0
 10
2929.8672513247847746
 20
104.6232638835212043
 30
0.0
 11
2929.8672513247847746
 21
104.8083032536212045
 31
0.0
  0
LINE
  5
2FE3B
  8
0
 10
2929.8672513247847746
 20
104.8083032536212045
 30
0.0
 11
2929.8554403010862188
 21
104.8201142772211938
 31
0.0
  0
LINE
  5
2FE3C
  8
0
 10
2929.8554403010862188
 20
104.8201142772211938
 30
0.0
 11
2929.8672513247847746
 21
104.8319253008211973
 31
0.0
  0
LINE
  5
2FE3D
  8
0
 10
2929.8672513247847746
 20
104.8319253008211973
 30
0.0
 11
2929.8672513247847746
 21
105.0169646709211975
 31
0.0
  0
LINE
  5
2FE3E
  8
0
 10
2929.8672513247847746
 20
105.0169646709211975
 30
0.0
 11
2929.8475662853848007
 21
105.0169646709211975
 31
0.0
  0
LINE
  5
2FE3F
  8
0
 10
2929.8475662853848007
 20
105.0169646709211975
 30
0.0
 11
2929.8475662853848007
 21
105.7945237260211968
 31
0.0
  0
LINE
  5
2FE40
  8
0
 10
2929.8475662853848007
 20
105.7945237260211968
 30
0.0
 11
2929.8672513247847746
 21
105.7945237260211968
 31
0.0
  0
LINE
  5
2FE41
  8
0
 10
2929.8672513247847746
 20
105.7945237260211968
 30
0.0
 11
2929.8672513247847746
 21
105.9106654583212048
 31
0.0
  0
LINE
  5
2FE42
  8
0
 10
2929.8672513247847746
 20
105.9106654583212048
 30
0.0
 11
2929.8554403011357863
 21
105.9224764819712021
 31
0.0
  0
LINE
  5
2FE43
  8
0
 10
2929.8554403011357863
 20
105.9224764819712021
 30
0.0
 11
2929.8672513247847746
 21
105.9342875056211994
 31
0.0
  0
LINE
  5
2FE44
  8
0
 10
2929.8672513247847746
 20
105.9342875056211994
 30
0.0
 11
2929.8672513247847746
 21
106.0504292378212057
 31
0.0
  0
LINE
  5
2FE45
  8
0
 10
2929.8672513247847746
 20
106.0504292378212057
 30
0.0
 11
2929.8475662853848007
 21
106.0504292378212057
 31
0.0
  0
LINE
  5
2FE46
  8
0
 10
2929.8475662853848007
 20
106.0504292378212057
 30
0.0
 11
2929.8475662853848007
 21
107.329956796921195
 31
0.0
  0
LINE
  5
2FE47
  8
0
 10
2929.8475662853848007
 20
107.329956796921195
 30
0.0
 11
2929.8672513247847746
 21
107.329956796921195
 31
0.0
  0
LINE
  5
2FE48
  8
0
 10
2929.8672513247847746
 20
107.329956796921195
 30
0.0
 11
2929.8672513247847746
 21
107.4106654584210929
 31
0.0
  0
LINE
  5
2FE49
  8
0
 10
2929.8672513247847746
 20
107.4106654584210929
 30
0.0
 11
2929.855440301184899
 21
107.4224764821210982
 31
0.0
  0
LINE
  5
2FE4A
  8
0
 10
2929.855440301184899
 20
107.4224764821210982
 30
0.0
 11
2929.8672513247847746
 21
107.4342875056211994
 31
0.0
  0
LINE
  5
2FE4B
  8
0
 10
2929.8672513247847746
 20
107.4342875056211994
 30
0.0
 11
2929.8672513247847746
 21
107.5504292379210938
 31
0.0
  0
LINE
  5
2FE4C
  8
0
 10
2929.8672513247847746
 20
107.5504292379210938
 30
0.0
 11
2929.8475662853848007
 21
107.5504292379210938
 31
0.0
  0
LINE
  5
2FE4D
  8
0
 10
2929.8475662853848007
 20
107.5504292379210938
 30
0.0
 11
2929.8475662853848007
 21
107.8614528599212008
 31
0.0
  0
LINE
  5
2FE4E
  8
0
 10
2929.8475662853848007
 20
107.8614528599212008
 30
0.0
 11
2929.8672513247847746
 21
107.8614528599212008
 31
0.0
  0
LINE
  5
2FE4F
  8
0
 10
2929.8672513247847746
 20
107.8614528599212008
 30
0.0
 11
2929.8672513247847746
 21
107.9775945922211946
 31
0.0
  0
LINE
  5
2FE50
  8
0
 10
2929.8672513247847746
 20
107.9775945922211946
 30
0.0
 11
2929.8554403010862188
 21
107.9894056158211981
 31
0.0
  0
LINE
  5
2FE51
  8
0
 10
2929.8554403010862188
 20
107.9894056158211981
 30
0.0
 11
2929.8672513247847746
 21
108.0012166394212016
 31
0.0
  0
LINE
  5
2FE52
  8
0
 10
2929.8672513247847746
 20
108.0012166394212016
 30
0.0
 11
2929.8672513247847746
 21
108.1173583717211955
 31
0.0
  0
LINE
  5
2FE53
  8
0
 10
2929.8672513247847746
 20
108.1173583717211955
 30
0.0
 11
2929.8475662853848007
 21
108.1173583717211955
 31
0.0
  0
LINE
  5
2FE54
  8
0
 10
2929.8475662853848007
 20
108.1173583717211955
 30
0.0
 11
2929.8475662853848007
 21
108.1941300252211988
 31
0.0
  0
LINE
  5
2FE55
  8
0
 10
2929.8475662853848007
 20
108.1941300252211988
 30
0.0
 11
2930.2058340018847957
 21
108.1941300252211988
 31
0.0
  0
LINE
  5
2FE56
  8
0
 10
2930.2058340018847957
 20
108.1941300252211988
 30
0.0
 11
2930.2058340018847957
 21
108.4815316000211993
 31
0.0
  0
LINE
  5
2FE57
  8
0
 10
2930.1270938444849889
 20
108.4815316000211993
 30
0.0
 11
2930.1270938444849889
 21
108.2925552221211944
 31
0.0
  0
LINE
  5
2FE58
  8
0
 10
2930.1270938444849889
 20
108.2925552221211944
 30
0.0
 11
2929.8160702223849512
 21
108.2925552221211944
 31
0.0
  0
LINE
  5
2FE59
  8
0
 10
2929.8160702223849512
 20
108.2925552221211944
 30
0.0
 11
2929.8160702223849512
 21
108.3122402615211968
 31
0.0
  0
LINE
  5
2FE5A
  8
0
 10
2929.7491410884849756
 20
108.4815316000211993
 30
0.0
 11
2929.7491410884849756
 21
103.3634213638212032
 31
0.0
  0
LINE
  5
2FE5B
  8
0
 10
2929.7491410884849756
 20
108.446098529221203
 30
0.0
 11
2930.1270938444849889
 21
108.446098529221203
 31
0.0
  0
LINE
  5
2FE5C
  8
0
 10
2930.3396922696852016
 20
108.4027914426211936
 30
0.0
 11
2930.379062348385105
 21
108.4421615213211965
 31
0.0
  0
LINE
  5
2FE5D
  8
0
 10
2930.379062348385105
 20
108.4421615213211965
 30
0.0
 11
2930.4184324270850084
 21
108.4421615213211965
 31
0.0
  0
LINE
  5
2FE5E
  8
0
 10
2930.4184324270850084
 20
108.4421615213211965
 30
0.0
 11
2930.4578025059017818
 21
108.4027914426211936
 31
0.0
  0
LINE
  5
2FE5F
  8
0
 10
2930.4578025059017818
 20
108.4027914426211936
 30
0.0
 11
2930.4578025059017818
 21
103.7177520725211934
 31
0.0
  0
LINE
  5
2FE60
  8
0
 10
2930.4578025059017818
 20
103.7177520725211934
 30
0.0
 11
2930.4184324270850084
 21
103.678381993721203
 31
0.0
  0
LINE
  5
2FE61
  8
0
 10
2930.379062348385105
 20
103.678381993721203
 30
0.0
 11
2930.3396922696852016
 21
103.7177520725211934
 31
0.0
  0
LINE
  5
2FE62
  8
0
 10
2930.3396922696852016
 20
103.7177520725211934
 30
0.0
 11
2930.3396922696852016
 21
108.4027914426211936
 31
0.0
  0
LINE
  5
2FE63
  8
0
 10
2929.7491410884849756
 20
108.3122402615211968
 30
0.0
 11
2930.0483536873261983
 21
108.3122402615211968
 31
0.0
  0
LINE
  5
2FE64
  8
0
 10
2930.0483536873261983
 20
108.3122402615211968
 30
0.0
 11
2930.0877237660261017
 21
108.3516103402211996
 31
0.0
  0
LINE
  5
2FE65
  8
0
 10
2930.0877237660261017
 20
108.3516103402211996
 30
0.0
 11
2930.0877237660261017
 21
108.3909804189212025
 31
0.0
  0
LINE
  5
2FE66
  8
0
 10
2930.0877237660261017
 20
108.3909804189212025
 30
0.0
 11
2930.0483536873261983
 21
108.4303504977211929
 31
0.0
  0
LINE
  5
2FE67
  8
0
 10
2930.0483536873261983
 20
108.4303504977211929
 30
0.0
 11
2929.7491410884849756
 21
108.4303504977211929
 31
0.0
  0
ARC
  5
2FE68
  8
0
 10
2900.174337938197823
 20
108.4657835695492025
 30
0.0
 40
0.0157480304719968
 50
89.9999962598419359
 51
180.0000033763415956
  0
LINE
  5
2FE69
  8
0
 10
2900.1585899077258546
 20
108.4657835686212053
 30
0.0
 11
2900.1585899228061862
 21
108.2098780567211946
 31
0.0
  0
ARC
  5
2FE6A
  8
0
 10
2900.1751237969338035
 20
108.209878057695505
 30
0.0
 40
0.0165338741277364
 50
180.0000033763448926
 51
287.735897331433307
  0
LINE
  5
2FE6B
  8
0
 10
2900.1801605088430733
 20
108.1941300252211988
 30
0.0
 11
2900.5011095928261966
 21
108.1941300252211988
 31
0.0
  0
ARC
  5
2FE6C
  8
0
 10
2900.5011095928261966
 20
108.1783819937211035
 30
0.0
 40
0.0157480315000385
 50
0.0000000001294613
 51
89.9999999998957776
  0
LINE
  5
2FE6D
  8
0
 10
2900.5168576243249845
 20
108.178381993721203
 30
0.0
 11
2900.516857624325894
 21
108.1173583717211955
 31
0.0
  0
LINE
  5
2FE6E
  8
0
 10
2900.516857624325894
 20
108.1173583717211955
 30
0.0
 11
2900.505046600625974
 21
108.1173583717211955
 31
0.0
  0
LINE
  5
2FE6F
  8
0
 10
2900.505046600625974
 20
108.1173583717211955
 30
0.0
 11
2900.505046600625974
 21
107.9972796315211951
 31
0.0
  0
LINE
  5
2FE70
  8
0
 10
2900.505046600625974
 20
107.9815316000211993
 30
0.0
 11
2900.505046600625974
 21
107.8614528599212008
 31
0.0
  0
LINE
  5
2FE71
  8
0
 10
2900.505046600625974
 20
107.8614528599212008
 30
0.0
 11
2900.5168576243249845
 21
107.8614528599212008
 31
0.0
  0
LINE
  5
2FE72
  8
0
 10
2900.5168576243249845
 20
107.8614528599212008
 30
0.0
 11
2900.5168576243249845
 21
107.565677203821096
 31
0.0
  0
ARC
  5
2FE73
  8
0
 10
2900.5011095928948635
 20
107.565677203821096
 30
0.0
 40
0.0157480314314142
 50
284.4775117108140989
 51
359.9999999999968168
  0
LINE
  5
2FE74
  8
0
 10
2900.505046600625974
 20
107.5504292379210938
 30
0.0
 11
2900.505046600625974
 21
107.4303504978211947
 31
0.0
  0
LINE
  5
2FE75
  8
0
 10
2900.505046600625974
 20
107.4303504978211947
 30
0.0
 11
2900.51292061637605
 21
107.4224764819712021
 31
0.0
  0
LINE
  5
2FE76
  8
0
 10
2900.51292061637605
 20
107.4224764819712021
 30
0.0
 11
2900.505046600625974
 21
107.4146024663211989
 31
0.0
  0
LINE
  5
2FE77
  8
0
 10
2900.505046600625974
 20
107.4146024663211989
 30
0.0
 11
2900.505046600625974
 21
107.329956796921195
 31
0.0
  0
ARC
  5
2FE78
  8
0
 10
2900.5011095931058662
 20
107.3147088311851007
 30
0.0
 40
0.0157480312197905
 50
359.99999940360442
 51
75.5224888856099739
  0
LINE
  5
2FE79
  8
0
 10
2900.5168576243249845
 20
107.3147088310212069
 30
0.0
 11
2900.5168576113242125
 21
106.0656772038211955
 31
0.0
  0
ARC
  5
2FE7A
  8
0
 10
2900.5011095752788606
 20
106.0656772039851035
 30
0.0
 40
0.0157480360453875
 50
284.4775738491966877
 51
359.9999994036068074
  0
LINE
  5
2FE7B
  8
0
 10
2900.5050466007010073
 20
106.0504292378873998
 30
0.0
 11
2900.505046600625974
 21
105.9303504977211929
 31
0.0
  0
LINE
  5
2FE7C
  8
0
 10
2900.505046600625974
 20
105.9303504977211929
 30
0.0
 11
2900.51292061637605
 21
105.9224764818712003
 31
0.0
  0
LINE
  5
2FE7D
  8
0
 10
2900.51292061637605
 20
105.9224764818712003
 30
0.0
 11
2900.505046600625974
 21
105.9146024662211971
 31
0.0
  0
LINE
  5
2FE7E
  8
0
 10
2900.505046600625974
 20
105.9146024662211971
 30
0.0
 11
2900.505046600625974
 21
105.7945237260211968
 31
0.0
  0
ARC
  5
2FE7F
  8
0
 10
2900.5011095929489784
 20
105.7792757601632019
 30
0.0
 40
0.0157480313771848
 50
359.9999998471909066
 51
75.5224884420054963
  0
LINE
  5
2FE80
  8
0
 10
2900.5168576243249845
 20
105.7792757601211946
 30
0.0
 11
2900.5168576243249845
 21
105.0169646709211975
 31
0.0
  0
LINE
  5
2FE81
  8
0
 10
2900.5168576243249845
 20
105.0169646709211975
 30
0.0
 11
2900.505046600625974
 21
105.0169646709211975
 31
0.0
  0
LINE
  5
2FE82
  8
0
 10
2900.505046600625974
 20
105.0169646709211975
 30
0.0
 11
2900.505046600625974
 21
104.8279882930212068
 31
0.0
  0
LINE
  5
2FE83
  8
0
 10
2900.505046600625974
 20
104.8279882930212068
 30
0.0
 11
2900.51292061637605
 21
104.8201142771712
 31
0.0
  0
LINE
  5
2FE84
  8
0
 10
2900.51292061637605
 20
104.8201142771712
 30
0.0
 11
2900.505046600625974
 21
104.8122402615211968
 31
0.0
  0
LINE
  5
2FE85
  8
0
 10
2900.505046600625974
 20
104.8122402615211968
 30
0.0
 11
2900.505046600625974
 21
104.6232638835212043
 31
0.0
  0
LINE
  5
2FE86
  8
0
 10
2900.505046600625974
 20
104.6232638835212043
 30
0.0
 11
2900.5168576243249845
 21
104.6232638835212043
 31
0.0
  0
LINE
  5
2FE87
  8
0
 10
2900.5168576243249845
 20
104.6232638835212043
 30
0.0
 11
2900.5168576243249845
 21
104.294023660521205
 31
0.0
  0
ARC
  5
2FE88
  8
0
 10
2900.5011095927648057
 20
104.294023660521205
 30
0.0
 40
0.015748031560511
 50
284.4775120746315906
 51
359.9999999999976126
  0
LINE
  5
2FE89
  8
0
 10
2900.505046600625974
 20
104.278775694521201
 30
0.0
 11
2900.505046600625974
 21
104.1586969544212025
 31
0.0
  0
LINE
  5
2FE8A
  8
0
 10
2900.505046600625974
 20
104.1586969544212025
 30
0.0
 11
2900.51292061637605
 21
104.1508229385711957
 31
0.0
  0
LINE
  5
2FE8B
  8
0
 10
2900.51292061637605
 20
104.1508229385711957
 30
0.0
 11
2900.505046600625974
 21
104.1429489229212066
 31
0.0
  0
LINE
  5
2FE8C
  8
0
 10
2900.505046600625974
 20
104.1429489229212066
 30
0.0
 11
2900.505046600625974
 21
104.0228701827742981
 31
0.0
  0
ARC
  5
2FE8D
  8
0
 10
2900.5011095928261966
 20
104.0076222168212041
 30
0.0
 40
0.0157480314999807
 50
359.9999999999478746
 51
75.522488095922057
  0
LINE
  5
2FE8E
  8
0
 10
2900.5168576243249845
 20
104.0076222168212041
 30
0.0
 11
2900.5168576243249845
 21
103.4775945922211946
 31
0.0
  0
ARC
  5
2FE8F
  8
0
 10
2900.5011095928261966
 20
103.4775945922211946
 30
0.0
 40
0.0157480315000118
 50
270.0000000017718094
 51
359.9999999999413944
  0
LINE
  5
2FE90
  8
0
 10
2900.5011095928261966
 20
103.4618465607211988
 30
0.0
 11
2900.0207946321261261
 21
103.4618465607062063
 31
0.0
  0
ARC
  5
2FE91
  8
0
 10
2900.0207946321252166
 20
103.4775945922057048
 30
0.0
 40
0.0157480314995127
 50
179.999999943824406
 51
270.0000000017977868
  0
LINE
  5
2FE92
  8
0
 10
2900.005046600625974
 20
103.4775945922211946
 30
0.0
 11
2900.0050466007191972
 21
103.5720827811211961
 31
0.0
  0
ARC
  5
2FE93
  8
0
 10
2900.0207946322339012
 20
103.5720827811057063
 30
0.0
 40
0.0157480315154395
 50
90.0000003932236439
 51
179.999999943824406
  0
LINE
  5
2FE94
  8
0
 10
2900.0207946321261261
 20
103.5878308126212062
 30
0.0
 11
2900.0286686479262244
 21
103.5878308126751932
 31
0.0
  0
ARC
  5
2FE95
  8
0
 10
2900.0286686478179945
 20
103.6035788442833052
 30
0.0
 40
0.01574803160808
 50
270.0000003932236154
 51
359.9999994101581251
  0
LINE
  5
2FE96
  8
0
 10
2900.0444166794259218
 20
103.603578844121202
 30
0.0
 11
2900.044416680033919
 21
103.6626339623211948
 31
0.0
  0
ARC
  5
2FE97
  8
0
 10
2900.028668648796156
 20
103.662633962483298
 30
0.0
 40
0.0157480312378802
 50
359.9999994101564198
 51
90.0000031655648485
  0
LINE
  5
2FE98
  8
0
 10
2900.0286686479262244
 20
103.678381993721203
 30
0.0
 11
2899.9223694353408973
 21
103.6783819878481978
 31
0.0
  0
ARC
  5
2FE99
  8
0
 10
2899.922369436210829
 20
103.6626339554633063
 30
0.0
 40
0.015748032384888
 50
90.0000031655648485
 51
179.9999750490819963
  0
LINE
  5
2FE9A
  8
0
 10
2899.9066214038261933
 20
103.6626339623211948
 30
0.0
 11
2899.9066212803841154
 21
103.379169395321199
 31
0.0
  0
ARC
  5
2FE9B
  8
0
 10
2899.9223693050262227
 20
103.3791693884632963
 30
0.0
 40
0.0157480246426879
 50
179.9999750490852932
 51
270.0004740655554087
  0
LINE
  5
2FE9C
  8
0
 10
2899.9223694353249812
 20
103.3634213638212032
 30
0.0
 11
2900.5995347896018757
 21
103.3634269666905965
 31
0.0
  0
ARC
  5
2FE9D
  8
0
 10
2900.5995346593022077
 20
103.3791751295575949
 30
0.0
 40
0.0157481628675339
 50
270.0004740655554087
 51
359.9791374043632004
  0
LINE
  5
2FE9E
  8
0
 10
2899.9459914870940338
 20
103.6783819891532943
 30
0.0
 11
2899.9066214038261933
 21
103.7177520725211934
 31
0.0
  0
LINE
  5
2FE9F
  8
0
 10
2899.9853615589331639
 20
103.678381991328493
 30
0.0
 11
2900.0247316400259479
 21
103.7177520725211934
 31
0.0
  0
LINE
  5
2FEA0
  8
0
 10
2900.0247316400259479
 20
103.7177520725211934
 30
0.0
 11
2900.0247316400259479
 21
108.4027914426211936
 31
0.0
  0
LINE
  5
2FEA1
  8
0
 10
2899.9066214038261933
 20
103.7177520725211934
 30
0.0
 11
2899.9066214038261933
 21
108.4027914426211936
 31
0.0
  0
LINE
  5
2FEA2
  8
0
 10
2899.9066214038261933
 20
108.4027914426211936
 30
0.0
 11
2899.9459914825260967
 21
108.4421615213211965
 31
0.0
  0
LINE
  5
2FEA3
  8
0
 10
2899.9459914825260967
 20
108.4421615213211965
 30
0.0
 11
2899.9853615613260445
 21
108.4421615213211965
 31
0.0
  0
LINE
  5
2FEA4
  8
0
 10
2899.9853615613260445
 20
108.4421615213211965
 30
0.0
 11
2900.0247316400259479
 21
108.4027914426211936
 31
0.0
  0
LINE
  5
2FEA5
  8
0
 10
2900.6152828211261294
 20
107.9396497542211932
 30
0.0
 11
2929.7491410884849756
 21
107.9396497542211932
 31
0.0
  0
LINE
  5
2FEA6
  8
0
 10
2900.6152828211261294
 20
107.8560694408212015
 30
0.0
 11
2929.7491410884849756
 21
107.8560694408212015
 31
0.0
  0
LINE
  5
2FEA7
  8
0
 10
2900.505046600625974
 20
108.0476621740901066
 30
0.0
 11
2900.429454318425087
 21
108.0463427059212052
 31
0.0
  0
LINE
  5
2FEA8
  8
0
 10
2900.429454318425087
 20
108.0463427059212052
 30
0.0
 11
2900.4152828211258566
 21
108.0319229782212034
 31
0.0
  0
LINE
  5
2FEA9
  8
0
 10
2900.4152828211258566
 20
108.0319229782212034
 30
0.0
 11
2900.4152828211258566
 21
107.9468882534212071
 31
0.0
  0
LINE
  5
2FEAA
  8
0
 10
2900.4152828211258566
 20
107.9468882534212071
 30
0.0
 11
2900.429454318425087
 21
107.9324685257212053
 31
0.0
  0
LINE
  5
2FEAB
  8
0
 10
2900.429454318425087
 20
107.9324685257212053
 30
0.0
 11
2900.505046600625974
 21
107.9311490575211963
 31
0.0
  0
LINE
  5
2FEAC
  8
0
 10
2900.4272738710401427
 20
108.0441240654409967
 30
0.0
 11
2900.4272724231709617
 21
107.9925021220573029
 31
0.0
  0
LINE
  5
2FEAD
  8
0
 10
2900.4272724231709617
 20
107.9925021220573029
 30
0.0
 11
2900.4288968193568508
 21
107.9908088718077011
 31
0.0
  0
ARC
  5
2FEAE
  8
0
 10
2900.4274340852471141
 20
107.9894056180892932
 30
0.0
 40
0.002026995825068
 50
315.7579896515929931
 51
43.8110604671208534
  0
LINE
  5
2FEAF
  8
0
 10
2900.4288862235171109
 20
107.9879914022211977
 30
0.0
 11
2900.4272737128658264
 21
107.9863091096212031
 31
0.0
  0
LINE
  5
2FEB0
  8
0
 10
2900.4272737128658264
 20
107.9863091096211036
 30
0.0
 11
2900.4272737128658264
 21
107.9346873271453973
 31
0.0
  0
LINE
  5
2FEB1
  8
0
 10
2900.505046600625974
 20
107.9972796315211951
 30
0.0
 11
2900.5129206164260722
 21
107.9894056158211981
 31
0.0
  0
LINE
  5
2FEB2
  8
0
 10
2900.5129206164260722
 20
107.9894056158211981
 30
0.0
 11
2900.505046600625974
 21
107.9815316000211993
 31
0.0
  0
LINE
  5
2FEB3
  8
0
 10
2900.4272737898349988
 20
107.9925006974646067
 30
0.0
 11
2900.5098255347429586
 21
107.9925006974646067
 31
0.0
  0
LINE
  5
2FEB4
  8
0
 10
2900.4272751438788873
 20
107.9863106280679972
 30
0.0
 11
2900.5098256286719334
 21
107.9863106280679972
 31
0.0
  0
LINE
  5
2FEB5
  8
0
 10
2900.6152828211261294
 20
108.3122402615211968
 30
0.0
 11
2900.3042591991261361
 21
108.3122402615211968
 31
0.0
  0
LINE
  5
2FEB6
  8
0
 10
2900.3042591991261361
 20
108.3122402615211968
 30
0.0
 11
2900.2648891203261883
 21
108.3516103402211996
 31
0.0
  0
LINE
  5
2FEB7
  8
0
 10
2900.2648891203261883
 20
108.3516103402211996
 30
0.0
 11
2900.2648891203261883
 21
108.3909804189212025
 31
0.0
  0
LINE
  5
2FEB8
  8
0
 10
2900.2648891203261883
 20
108.3909804189212025
 30
0.0
 11
2900.3042591991261361
 21
108.4303504977211929
 31
0.0
  0
LINE
  5
2FEB9
  8
0
 10
2900.3042591991261361
 20
108.4303504977211929
 30
0.0
 11
2900.6152828211261294
 21
108.4303504977211929
 31
0.0
  0
LINE
  5
2FEBA
  8
0
 10
2900.6152828211261294
 20
108.446098529221203
 30
0.0
 11
2900.2373300651379395
 21
108.446098529221203
 31
0.0
  0
LINE
  5
2FEBB
  8
0
 10
2900.3003221912258596
 20
108.446098529221203
 30
0.0
 11
2900.3003221912258596
 21
108.4264134898212006
 31
0.0
  0
LINE
  5
2FEBC
  8
0
 10
2900.3003221912258596
 20
108.3161772693212015
 30
0.0
 11
2900.3003221912258596
 21
108.2925552221211944
 31
0.0
  0
LINE
  5
2FEBD
  8
0
 10
2904.1585899077258546
 20
108.4677520725211934
 30
0.0
 11
2904.1585899077258546
 21
107.9396497542211932
 31
0.0
  0
LINE
  5
2FEBE
  8
0
 10
2904.1585899077258546
 20
108.4677520725211934
 30
0.0
 11
2905.6546528999260772
 21
108.4677520725211934
 31
0.0
  0
LINE
  5
2FEBF
  8
0
 10
2905.6546528999260772
 20
108.4677520725211934
 30
0.0
 11
2905.6546528999260772
 21
107.9396497542211932
 31
0.0
  0
LINE
  5
2FEC0
  8
0
 10
2904.1585899077258546
 20
108.2846812063211956
 30
0.0
 11
2900.6152828211261294
 21
108.2846812063211956
 31
0.0
  0
LINE
  5
2FEC1
  8
0
 10
2900.6152828211261294
 20
108.2256260882212047
 30
0.0
 11
2904.1585899077258546
 21
108.2256260882212047
 31
0.0
  0
LINE
  5
2FEC2
  8
0
 10
2904.1585899077258546
 20
108.039161477421203
 30
0.0
 11
2900.6152828211261294
 21
108.039161477421203
 31
0.0
  0
LINE
  5
2FEC3
  8
0
 10
2900.6152828211261294
 20
108.0951168433211933
 30
0.0
 11
2904.1585899077258546
 21
108.0951168433211933
 31
0.0
  0
LINE
  5
2FEC4
  8
0
 10
2904.1585899077258546
 20
108.2358177256212031
 30
0.0
 11
2905.6546528999260772
 21
108.2358177256212031
 31
0.0
  0
LINE
  5
2FEC5
  8
0
 10
2904.1585899077258546
 20
108.3614528599212008
 30
0.0
 11
2905.6546528999260772
 21
108.3614528599212008
 31
0.0
  0
LINE
  5
2FEC6
  8
0
 10
2905.6546528999260772
 20
108.3614528599212008
 30
0.0
 11
2905.5365426637258679
 21
108.2905867182212063
 31
0.0
  0
LINE
  5
2FEC7
  8
0
 10
2905.5365426637258679
 20
108.2905867182212063
 30
0.0
 11
2904.2767001439260639
 21
108.2905867182212063
 31
0.0
  0
LINE
  5
2FEC8
  8
0
 10
2904.2767001439260639
 20
108.2905867182212063
 30
0.0
 11
2904.1585899077258546
 21
108.3614528599212008
 31
0.0
  0
LINE
  5
2FEC9
  8
0
 10
2904.7134270078249756
 20
108.3614528599212008
 30
0.0
 11
2904.7134270078249756
 21
108.2905867182212063
 31
0.0
  0
LINE
  5
2FECA
  8
0
 10
2905.0998157999260911
 20
108.2905867182212063
 30
0.0
 11
2905.0998157999260911
 21
108.3614528599212008
 31
0.0
  0
LINE
  5
2FECB
  8
0
 10
2905.6546528999260772
 20
108.2846812063211956
 30
0.0
 11
2924.7097710097850722
 21
108.2846812063211956
 31
0.0
  0
LINE
  5
2FECC
  8
0
 10
2926.20583400188616
 20
108.4677520725211934
 30
0.0
 11
2926.20583400188616
 21
107.9396497542211932
 31
0.0
  0
LINE
  5
2FECD
  8
0
 10
2926.20583400188616
 20
108.4677520725211934
 30
0.0
 11
2924.7097710097850722
 21
108.4677520725211934
 31
0.0
  0
LINE
  5
2FECE
  8
0
 10
2924.7097710097850722
 20
108.4677520725211934
 30
0.0
 11
2924.7097710097850722
 21
107.9396497542211932
 31
0.0
  0
LINE
  5
2FECF
  8
0
 10
2926.20583400188616
 20
108.2358177256212031
 30
0.0
 11
2924.7097710097850722
 21
108.2358177256212031
 31
0.0
  0
LINE
  5
2FED0
  8
0
 10
2926.20583400188616
 20
108.3614528599212008
 30
0.0
 11
2924.7097710097850722
 21
108.3614528599212008
 31
0.0
  0
LINE
  5
2FED1
  8
0
 10
2924.7097710097850722
 20
108.3614528599212008
 30
0.0
 11
2924.8278812459861911
 21
108.2905867182212063
 31
0.0
  0
LINE
  5
2FED2
  8
0
 10
2924.8278812459861911
 20
108.2905867182212063
 30
0.0
 11
2926.0877237656850411
 21
108.2905867182212063
 31
0.0
  0
LINE
  5
2FED3
  8
0
 10
2926.0877237656850411
 20
108.2905867182212063
 30
0.0
 11
2926.20583400188616
 21
108.3614528599212008
 31
0.0
  0
LINE
  5
2FED4
  8
0
 10
2925.65099690178522
 20
108.3614528599212008
 30
0.0
 11
2925.65099690178522
 21
108.2905867182212063
 31
0.0
  0
LINE
  5
2FED5
  8
0
 10
2925.2646081097850583
 20
108.2905867182212063
 30
0.0
 11
2925.2646081097850583
 21
108.3614528599212008
 31
0.0
  0
LINE
  5
2FED6
  8
0
 10
2905.6546528999260772
 20
108.039161477421203
 30
0.0
 11
2924.7097710097850722
 21
108.039161477421203
 31
0.0
  0
LINE
  5
2FED7
  8
0
 10
2905.6546528999260772
 20
108.0951168433211933
 30
0.0
 11
2924.7097710097850722
 21
108.0951168433211933
 31
0.0
  0
LINE
  5
2FED8
  8
0
 10
2905.6546528999260772
 20
108.2256260882212047
 30
0.0
 11
2929.7491410884849756
 21
108.2256260882212047
 31
0.0
  0
LINE
  5
2FED9
  8
0
 10
2926.20583400188616
 20
108.039161477421203
 30
0.0
 11
2929.7491410884849756
 21
108.039161477421203
 31
0.0
  0
LINE
  5
2FEDA
  8
0
 10
2926.20583400188616
 20
108.0951168433211933
 30
0.0
 11
2929.7491410884849756
 21
108.0951168433211933
 31
0.0
  0
LINE
  5
2FEDB
  8
0
 10
2930.3003221908847991
 20
107.2610591591212028
 30
0.0
 11
2930.2412670727858313
 21
107.2610591591212028
 31
0.0
  0
LINE
  5
2FEDC
  8
0
 10
2930.2412670727858313
 20
107.2610591591212028
 30
0.0
 11
2930.2412670727858313
 21
103.4815316000211993
 31
0.0
  0
LINE
  5
2FEDD
  8
0
 10
2930.2412670727858313
 20
103.4815316000211993
 30
0.0
 11
2930.3003221908847991
 21
103.4815316000211993
 31
0.0
  0
LINE
  5
2FEDE
  8
0
 10
2930.3003221908847991
 20
103.4815316000211993
 30
0.0
 11
2930.3003221908847991
 21
107.2610591591212028
 31
0.0
  0
LINE
  5
2FEDF
  8
0
 10
2930.2412670727858313
 20
106.670507978021206
 30
0.0
 11
2929.8475662853848007
 21
106.670507978021206
 31
0.0
  0
LINE
  5
2FEE0
  8
0
 10
2929.8672513247847746
 20
104.0720827811211961
 30
0.0
 11
2930.2412670727858313
 21
104.0720827811211961
 31
0.0
  0
ARC
  5
2FEE1
  8
0
 10
2929.7654833815031452
 20
104.7784334896167024
 30
0.0
 40
0.3399986829121088
 50
283.9760186726701932
 51
358.5492333622519254
  0
ARC
  5
2FEE2
  8
0
 10
-128197.1692347697971854
 20
3425.7079963528258304
 30
0.0
 40
131169.3210183577029966
 50
358.5492333622519254
 51
358.5496308585226757
  0
LINE
  5
2FEE3
  8
0
 10
2930.1284093246849807
 20
105.6795365297212044
 30
0.0
 11
2929.8475662853848007
 21
105.6866479435211943
 31
0.0
  0
ARC
  5
2FEE4
  8
0
 10
2929.8795306793717828
 20
105.6836437383337994
 30
0.0
 40
0.0359286229230794
 50
118.5354834835821976
 51
152.8310262761580134
  0
ARC
  5
2FEE5
  8
0
 10
2929.9098711313367858
 20
105.6405180610612007
 30
0.0
 40
0.0885164131733217
 50
102.5806606610464939
 51
122.4568976759688042
  0
ARC
  5
2FEE6
  8
0
 10
2929.656638923598166
 20
106.775328404909601
 30
0.0
 40
1.0742049926647439
 50
282.5793170135752916
 51
288.4821948019704223
  0
LINE
  5
2FEE7
  8
0
 10
2929.9971725845848596
 20
105.7565285266211959
 30
0.0
 11
2929.9971725846421577
 21
106.0884244373076939
 31
0.0
  0
ARC
  5
2FEE8
  8
0
 10
2929.6675953766030034
 20
105.1090500551382974
 30
0.0
 40
1.0333418197759541
 50
71.4009819732085447
 51
77.5375063110408433
  0
ARC
  5
2FEE9
  8
0
 10
2929.9057762254310546
 20
106.1867525356267947
 30
0.0
 40
0.070366816232606
 50
214.184187631262887
 51
257.5375063110406018
  0
LINE
  5
2FEEA
  8
0
 10
2900.0641017187258512
 20
107.2610591591212028
 30
0.0
 11
2900.1224882489250376
 21
107.2610591591212028
 31
0.0
  0
LINE
  5
2FEEB
  8
0
 10
2900.1224882489250376
 20
107.2610591591212028
 30
0.0
 11
2900.1231568368261833
 21
103.4815316000211993
 31
0.0
  0
LINE
  5
2FEEC
  8
0
 10
2900.1231568368261833
 20
103.4815316000211993
 30
0.0
 11
2900.0641017187258512
 21
103.4815316000211993
 31
0.0
  0
LINE
  5
2FEED
  8
0
 10
2900.0641017187258512
 20
103.4815316000211993
 30
0.0
 11
2900.0641017187258512
 21
107.2610591591212028
 31
0.0
  0
LINE
  5
2FEEE
  8
0
 10
2900.1231568368261833
 20
106.670507978021206
 30
0.0
 11
2900.5168576176210991
 21
106.6705079739230939
 31
0.0
  0
LINE
  5
2FEEF
  8
0
 10
2900.5168576243249845
 20
105.6866479435211943
 30
0.0
 11
2900.2360145850261688
 21
105.6795365297212044
 31
0.0
  0
LINE
  5
2FEF0
  8
0
 10
2900.2360145850261688
 20
105.6795365297212044
 30
0.0
 11
2900.2590499176908452
 21
104.7698281295122058
 31
0.0
  0
ARC
  5
2FEF1
  8
0
 10
2900.5989409683261329
 20
104.7784347373212057
 30
0.0
 40
0.3400000000000014
 50
181.4505146530972013
 51
256.0295404633778844
  0
LINE
  5
2FEF2
  8
0
 10
2900.4738328767261919
 20
104.4622892559108038
 30
0.0
 11
2900.4738328767261919
 21
104.0720827811211961
 31
0.0
  0
LINE
  5
2FEF3
  8
0
 10
2900.1231568368261833
 20
104.0720827811211961
 30
0.0
 11
2900.505046600625974
 21
104.0720827811211961
 31
0.0
  0
ARC
  5
2FEF4
  8
0
 10
2900.5037599926708936
 20
105.6964512464172969
 30
0.0
 40
0.013160529264882
 50
5.6039099095830496
 51
39.9901012822141482
  0
ARC
  5
2FEF5
  8
0
 10
2900.4740146579661086
 20
105.6715007030073963
 30
0.0
 40
0.0519846783627887
 50
39.9901012822153916
 51
61.2149285507614778
  0
ARC
  5
2FEF6
  8
0
 10
2900.4487936546997844
 20
105.6255955405539027
 30
0.0
 40
0.1043619916352151
 50
61.2149285507614778
 51
76.1177893270143358
  0
ARC
  5
2FEF7
  8
0
 10
2900.7077842310968663
 20
106.7753256916966933
 30
0.0
 40
1.074202180145897
 50
251.5177975134369888
 51
257.420690775496098
  0
LINE
  5
2FEF8
  8
0
 10
2900.4738328767261919
 20
105.6855584852081051
 30
0.0
 11
2900.4738328767630264
 21
105.7269092250026006
 31
0.0
  0
LINE
  5
2FEF9
  8
0
 10
2900.3672513250639895
 20
105.7565285265363997
 30
0.0
 11
2900.3672513250257907
 21
106.0884244372930993
 31
0.0
  0
ARC
  5
2FEFA
  8
0
 10
2900.7069555672860588
 20
105.0726091208144055
 30
0.0
 40
1.0711114458367299
 50
102.5707851370049042
 51
108.4907265780549039
  0
ARC
  5
2FEFB
  8
0
 10
2900.4589080107371046
 20
106.193803817468293
 30
0.0
 40
0.0772161973931677
 50
281.144656244894577
 51
318.6324251804198866
  0
LINE
  5
2FEFC
  8
0
 10
2900.4738328767261919
 20
106.6705079743710058
 30
0.0
 11
2900.4738328767580242
 21
106.1180437388386935
 31
0.0
  0
ARC
  5
2FEFD
  8
0
 10
2900.5921948692939623
 20
104.7924755972039037
 30
0.0
 40
0.2144288385313068
 50
113.9821477253661044
 51
123.5034561812765048
  0
ARC
  5
2FEFE
  8
0
 10
2900.6015165442131547
 20
104.7783939283211936
 30
0.0
 40
0.2313163197477677
 50
123.5034561812765048
 51
236.4965438187234952
  0
ARC
  5
2FEFF
  8
0
 10
2900.5916461183719548
 20
104.7634832958828071
 30
0.0
 40
0.2134347016438589
 50
236.4965438187234952
 51
249.4827364540064139
  0
ARC
  5
2FF00
  8
0
 10
2899.9066214038261933
 20
108.4027914426211936
 30
0.0
 40
0.0393700786999142
 50
359.9999999999478746
 51
45.0000000001830784
  0
LINE
  5
2FF01
  8
0
 10
2899.9459914825260967
 20
108.4027914426211936
 30
0.0
 11
2899.9459914825210944
 21
103.7177520725211934
 31
0.0
  0
ARC
  5
2FF02
  8
0
 10
2899.9066214038111866
 20
103.7177520725211934
 30
0.0
 40
0.0393700787102969
 50
314.9999999421506232
 51
359.9999999999478746
  0
ARC
  5
2FF03
  8
0
 10
2900.0247316400259479
 20
103.7177520725211934
 30
0.0
 40
0.0393700787000059
 50
180.0000000000048885
 51
224.9999999995544044
  0
LINE
  5
2FF04
  8
0
 10
2899.9853615613260445
 20
103.7177520725211934
 30
0.0
 11
2899.985361561325135
 21
108.4027914426211936
 31
0.0
  0
ARC
  5
2FF05
  8
0
 10
2900.0247316400241289
 20
108.4027914426211936
 30
0.0
 40
0.0393700786989708
 50
134.9999999989497894
 51
180.0000000000081002
  0
LINE
  5
2FF06
  8
0
 10
2900.6152828211261294
 20
108.3909804189212025
 30
0.0
 11
2900.2648891203261883
 21
108.3909804189212025
 31
0.0
  0
LINE
  5
2FF07
  8
0
 10
2900.2648891203261883
 20
108.3516103402211996
 30
0.0
 11
2900.6152828211261294
 21
108.3516103402211996
 31
0.0
  0
LINE
  5
2FF08
  8
0
 10
2899.9066214038261933
 20
102.4379730403211965
 30
0.0
 11
2918.6467788841259789
 21
102.4379730403211965
 31
0.0
  0
LINE
  5
2FF09
  8
0
 10
2918.7648891203261883
 20
102.4379730403211965
 30
0.0
 11
2930.4578025058858657
 21
102.4379730403211965
 31
0.0
  0
LINE
  5
2FF0A
  8
0
 10
2930.4578025058858657
 20
102.4379730403211965
 30
0.0
 11
2930.4578025058858657
 21
103.1759213638212032
 31
0.0
  0
LINE
  5
2FF0B
  8
0
 10
2930.4578025058858657
 20
103.1759213638212032
 30
0.0
 11
2918.7648891203261883
 21
103.1759213638211037
 31
0.0
  0
LINE
  5
2FF0C
  8
0
 10
2918.6467788841259789
 20
103.1759213638212032
 30
0.0
 11
2899.9066214038261933
 21
103.1759213638212032
 31
0.0
  0
LINE
  5
2FF0D
  8
0
 10
2899.9066214038261933
 20
103.1759213638212032
 30
0.0
 11
2899.9066214038261933
 21
102.4379730403211965
 31
0.0
  0
LINE
  5
2FF0E
  8
0
 10
2899.9359083100262069
 20
102.4379730403211965
 30
0.0
 11
2899.9381174668260428
 21
102.4357638835212043
 31
0.0
  0
LINE
  5
2FF0F
  8
0
 10
2899.9381174668260428
 20
102.4357638835212043
 30
0.0
 11
2918.6152828211252199
 21
102.4357638835212043
 31
0.0
  0
LINE
  5
2FF10
  8
0
 10
2918.7963851833251283
 20
102.4357638835212043
 30
0.0
 11
2930.4263064428851067
 21
102.4357638835212043
 31
0.0
  0
LINE
  5
2FF11
  8
0
 10
2930.4263064428851067
 20
102.4357638835212043
 30
0.0
 11
2930.4285155996858521
 21
102.4379730403211965
 31
0.0
  0
LINE
  5
2FF12
  8
0
 10
2900.7432355770260983
 20
103.1759213638212032
 30
0.0
 11
2900.7432355770260983
 21
103.2231654583212048
 31
0.0
  0
ARC
  5
2FF13
  8
0
 10
2900.7826056557260017
 20
103.2231654583212048
 30
0.0
 40
0.0393700787000011
 50
90.0
 51
180.0000000000015916
  0
LINE
  5
2FF14
  8
0
 10
2900.7826056557260017
 20
103.2625355370211935
 30
0.0
 11
2901.9046528998260328
 21
103.2625355370211935
 31
0.0
  0
ARC
  5
2FF15
  8
0
 10
2901.9046528998260328
 20
103.2231654583212048
 30
0.0
 40
0.0393700786999993
 50
359.9999999999275246
 51
90.0
  0
LINE
  5
2FF16
  8
0
 10
2901.9440229785259362
 20
103.2231654583212048
 30
0.0
 11
2901.9440229785259362
 21
103.1759213638212032
 31
0.0
  0
LINE
  5
2FF17
  8
0
 10
2900.7095985922251202
 20
103.3634213638212032
 30
0.0
 11
2900.7100959222261736
 21
103.3437808706212024
 31
0.0
  0
LINE
  5
2FF18
  8
0
 10
2900.7100959222261736
 20
103.3437808706212024
 30
0.0
 11
2900.8281683113259533
 21
103.3467706602211962
 31
0.0
  0
LINE
  5
2FF19
  8
0
 10
2900.8281683113259533
 20
103.3467706602211962
 30
0.0
 11
2900.8303012850260529
 21
103.2625355371211953
 31
0.0
  0
LINE
  5
2FF1A
  8
0
 10
2900.9089864600259716
 20
103.3634213638212032
 30
0.0
 11
2900.8951881452130692
 21
103.2625355370211935
 31
0.0
  0
LINE
  5
2FF1B
  8
0
 10
2901.8106186779600648
 20
103.2625355370211935
 30
0.0
 11
2901.954548195426014
 21
103.3634213638212032
 31
0.0
  0
ARC
  5
2FF1C
  8
0
 10
2901.4518969943260345
 20
103.333401678821204
 30
0.0
 40
0.108267716499915
 50
0.0000000181376092
 51
16.09749975314773
  0
LINE
  5
2FF1D
  8
0
 10
2901.5601647108260295
 20
103.3334016788553953
 30
0.0
 11
2901.766857624325894
 21
103.2625355371211953
 31
0.0
  0
ARC
  5
2FF1E
  8
0
 10
2901.4538006733600923
 20
103.3331325107404979
 30
0.0
 40
0.1101717243463972
 50
164.0441648295129937
 51
179.8600166200916988
  0
LINE
  5
2FF1F
  8
0
 10
2901.3436292778260395
 20
103.333401678821204
 30
0.0
 11
2901.1369363644262194
 21
103.2625355371211953
 31
0.0
  0
ARC
  5
2FF20
  8
0
 10
2901.4518969943260345
 20
103.333401678821204
 30
0.0
 40
0.0767716534999995
 50
156.981667174460398
 51
247.3801352608734021
  0
ARC
  5
2FF21
  8
0
 10
2901.4518969943260345
 20
103.333401678821204
 30
0.0
 40
0.0767716534999995
 50
292.6198647391273084
 51
23.0183328255395701
  0
LINE
  5
2FF22
  8
0
 10
2900.7432355770260983
 20
103.1995434111211978
 30
0.0
 11
2900.2135854559260224
 21
103.1995434111211978
 31
0.0
  0
LINE
  5
2FF23
  8
0
 10
2900.2135854559260224
 20
103.1995434111211978
 30
0.0
 11
2900.2135854559260224
 21
103.1759213638212032
 31
0.0
  0
LINE
  5
2FF24
  8
0
 10
2900.211567089826076
 20
103.1759213638212032
 30
0.0
 11
2900.211567089826076
 21
103.1995434111211978
 31
0.0
  0
LINE
  5
2FF25
  8
0
 10
2900.211567089826076
 20
103.1995434111211978
 30
0.0
 11
2900.1241905181250331
 21
103.1995434111211978
 31
0.0
  0
LINE
  5
2FF26
  8
0
 10
2900.1241905181250331
 20
103.1995434111211978
 30
0.0
 11
2900.1241905181250331
 21
103.1759213638212032
 31
0.0
  0
LINE
  5
2FF27
  8
0
 10
2899.9066214038261933
 20
102.904183406821204
 30
0.0
 11
2918.6467788841259789
 21
102.904183406821204
 31
0.0
  0
LINE
  5
2FF28
  8
0
 10
2918.7648891203261883
 20
102.9041834068211045
 30
0.0
 11
2930.4578025058858657
 21
102.904183406821204
 31
0.0
  0
LINE
  5
2FF29
  8
0
 10
2918.6467788841259789
 20
102.4379730403211965
 30
0.0
 11
2918.6467788841259789
 21
103.1759213638212032
 31
0.0
  0
ARC
  5
2FF2A
  8
0
 10
2918.6788659876669954
 20
102.3743898737798048
 30
0.0
 40
0.0883718741408056
 50
133.9871556017754131
 51
136.0128443981828923
  0
ARC
  5
2FF2B
  8
0
 10
2918.6521276481098539
 20
102.257132944391401
 30
0.0
 40
0.4534438643697766
 50
100.9357193145392984
 51
116.4821402701394959
  0
ARC
  5
2FF2C
  8
0
 10
2918.5666717260160112
 20
104.8274946377511014
 30
0.0
 40
2.1251521564681619
 50
269.9847451693102016
 51
272.1602640024570974
  0
ARC
  5
2FF2D
  8
0
 10
2918.9276916440630885
 20
103.6536547074582018
 30
0.0
 40
1.1570308450279849
 50
245.6114953950946074
 51
249.5217631750691112
  0
ARC
  5
2FF2E
  8
0
 10
2918.5767903496721374
 20
102.7140386970934998
 30
0.0
 40
0.1540303638020718
 50
249.5217631750691112
 51
265.4707138383419078
  0
ARC
  5
2FF2F
  8
0
 10
2918.5450529521258431
 20
102.3133950881067022
 30
0.0
 40
0.2478683346592764
 50
65.7698408106583514
 51
85.4707138383419078
  0
LINE
  5
2FF30
  8
0
 10
2918.4499284904259184
 20
102.6629984871100021
 30
0.0
 11
2900.6940229251431447
 21
102.6629984871100021
 31
0.0
  0
LINE
  5
2FF31
  8
0
 10
2918.4499284904259184
 20
102.599869745821195
 30
0.0
 11
2900.6940229786259806
 21
102.599869745821195
 31
0.0
  0
ARC
  5
2FF32
  8
0
 10
2899.2748486483437773
 20
96.3398305094098362
 30
0.0
 40
6.4804713487633538
 50
77.3501385529041556
 51
78.1047750689246811
  0
ARC
  5
2FF33
  8
0
 10
2900.3925465421461922
 20
101.6444467434311036
 30
0.0
 40
1.0593827644358069
 50
78.120738510760475
 51
86.990616087528025
  0
ARC
  5
2FF34
  8
0
 10
2900.4724834315670705
 20
132.1075650915865936
 30
0.0
 40
29.4052065827150209
 50
268.9460826875666157
 51
269.9526130603961747
  0
ARC
  5
2FF35
  8
0
 10
2899.9308165076390651
 20
102.7315997235364051
 30
0.0
 40
0.0242801730289439
 50
184.7976088766143903
 51
271.9080796604309853
  0
ARC
  5
2FF36
  8
0
 10
2900.0891487819671966
 20
102.0068620259037004
 30
0.0
 40
0.5122073122671966
 50
99.0565770730108142
 51
110.8764811094472975
  0
ARC
  5
2FF37
  8
0
 10
2900.4602799456579305
 20
100.2520408068214977
 30
0.0
 40
2.3053398553549762
 50
93.0516966495315359
 51
101.3008896268775061
  0
ARC
  5
2FF38
  8
0
 10
2900.3384718159441036
 20
103.9583341275500032
 30
0.0
 40
1.404222954416549
 50
269.9624131363656829
 51
284.667033423020996
  0
LINE
  5
2FF39
  8
0
 10
2915.3396922700258074
 20
103.1956064032212055
 30
0.0
 11
2904.3160702227251022
 21
103.1956064032212055
 31
0.0
  0
LINE
  5
2FF3A
  8
0
 10
2914.1187937761169451
 20
103.3634213638212032
 30
0.0
 11
2914.1187937761160356
 21
103.3501339627211024
 31
0.0
  0
ARC
  5
2FF3B
  8
0
 10
2915.6495696409338052
 20
103.3501339625522064
 30
0.0
 40
1.5307758648175409
 50
179.9999999936767097
 51
180.9268553036802132
  0
ARC
  5
2FF3C
  8
0
 10
2914.1339726532150962
 20
103.3256145011876015
 30
0.0
 40
0.0149805510736701
 50
180.926855303679389
 51
270.0731446963034728
  0
LINE
  5
2FF3D
  8
0
 10
2914.133991777618121
 20
103.3106339623212051
 30
0.0
 11
2917.4450690466178457
 21
103.3106339623212051
 31
0.0
  0
ARC
  5
2FF3E
  8
0
 10
2917.4450692738819271
 20
103.250636939019401
 30
0.0
 40
0.0599970233022381
 50
29.8323792189589412
 51
90.0002170321112942
  0
ARC
  5
2FF3F
  8
0
 10
2917.6185630410232079
 20
103.3501280020579003
 30
0.0
 40
0.1399993738189134
 50
209.8323792189588914
 51
5.4486151842801851
  0
ARC
  5
2FF40
  8
0
 10
2917.5535618435810647
 20
103.2205191483062947
 30
0.0
 40
0.005000000036762
 50
0.003985765943942
 51
61.0673312551121228
  0
LINE
  5
2FF41
  8
0
 10
2917.5585618436048208
 20
103.2205194961299952
 30
0.0
 11
2917.5585638379229749
 21
103.191850988158194
 31
0.0
  0
ARC
  5
2FF42
  8
0
 10
2917.4687546509780987
 20
103.1918447406055037
 30
0.0
 40
0.0898091871618337
 50
349.7835481516224263
 51
0.0039857659447562
  0
ARC
  5
2FF43
  8
0
 10
2917.7683914074350469
 20
103.1944323869089999
 30
0.0
 40
0.0899999994061699
 50
180.0445366171213948
 51
191.8691934841004922
  0
ARC
  5
2FF44
  8
0
 10
2917.6833708503691014
 20
103.2204239009639934
 30
0.0
 40
0.00499967149801
 50
119.1251919056692969
 51
180.044536591672113
  0
LINE
  5
2FF45
  8
0
 10
2917.6783711803441292
 20
103.2204200146605046
 30
0.0
 11
2917.6783914352181455
 21
103.1943624289618953
 31
0.0
  0
ARC
  5
2FF46
  8
0
 10
2918.0837039557991375
 20
103.3450158547161948
 30
0.0
 40
0.0220107170987544
 50
123.2583021164921036
 51
160.9571160443381928
  0
ARC
  5
2FF47
  8
0
 10
2918.6896447991471177
 20
103.1907868842500022
 30
0.0
 40
0.6471979467967931
 50
165.5580478488936933
 51
179.9880946281375884
  0
LINE
  5
2FF48
  8
0
 10
2918.0424468663218249
 20
103.190921364175594
 30
0.0
 11
2918.0424468663218249
 21
103.1759213638212032
 31
0.0
  0
LINE
  5
2FF49
  8
0
 10
2918.542448175426216
 20
103.1759213638212032
 30
0.0
 11
2918.542448175426216
 21
103.1909213638212037
 31
0.0
  0
ARC
  5
2FF4A
  8
0
 10
2917.8959664024418998
 20
103.1909213638212037
 30
0.0
 40
0.6464817729842327
 50
0.0
 51
14.4425801488704302
  0
ARC
  5
2FF4B
  8
0
 10
2918.5072137124147957
 20
103.3483472941351948
 30
0.0
 40
0.0152875101097349
 50
14.4425801488664902
 51
80.4145130598749063
  0
LINE
  5
2FF4C
  8
0
 10
2918.7648891203261883
 20
103.1759213638211037
 30
0.0
 11
2918.7648891203261883
 21
102.4379730403211965
 31
0.0
  0
ARC
  5
2FF4D
  8
0
 10
2918.8105362365949986
 20
102.452124093590399
 30
0.0
 40
0.0216311992764681
 50
220.8587468130280911
 51
229.1412531871868907
  0
LINE
  5
2FF4E
  8
0
 10
2918.8692198290259512
 20
103.1759213638212032
 30
0.0
 11
2918.8692198290259512
 21
103.1909213638212037
 31
0.0
  0
ARC
  5
2FF4F
  8
0
 10
2919.5156601784838131
 20
103.1909213638212037
 30
0.0
 40
0.6464403494580182
 50
165.556504149137595
 51
180.0
  0
ARC
  5
2FF50
  8
0
 10
2918.9060582197221265
 20
103.3479339250769016
 30
0.0
 40
0.0169425396768292
 50
113.9195678789834005
 51
165.5565041491369129
  0
ARC
  5
2FF51
  8
0
 10
2919.331985470501877
 20
103.347121487760603
 30
0.0
 40
0.0175325256479277
 50
15.4657570448888606
 51
68.3870957800622534
  0
ARC
  5
2FF52
  8
0
 10
2918.7214143426258488
 20
103.1907483802210947
 30
0.0
 40
0.6478068187000372
 50
0.0152997010001658
 51
14.3950114003229892
  0
LINE
  5
2FF53
  8
0
 10
2919.369221138229932
 20
103.190921364175594
 30
0.0
 11
2919.3692198290259512
 21
103.1759213638212032
 31
0.0
  0
ARC
  5
2FF54
  8
0
 10
2918.7504162989198448
 20
102.248207783413207
 30
0.0
 40
0.4627821058607464
 50
63.6756513422130297
 51
78.9064890731166315
  0
ARC
  5
2FF55
  8
0
 10
2918.8388947718090094
 20
104.8274946377504051
 30
0.0
 40
2.1251521564675189
 50
268.0043457333488846
 51
270.0152548306899121
  0
ARC
  5
2FF56
  8
0
 10
2918.4778748537619322
 20
103.6536547074582018
 30
0.0
 40
1.1570308450279849
 50
290.4782368249310025
 51
294.3885046049053926
  0
ARC
  5
2FF57
  8
0
 10
2918.828776148155157
 20
102.7140386970934998
 30
0.0
 40
0.1540303638020718
 50
274.5292861616580922
 51
290.4782368249310025
  0
ARC
  5
2FF58
  8
0
 10
2918.8605135456991775
 20
102.3133950881067022
 30
0.0
 40
0.2478683346592174
 50
94.5292861616581632
 51
112.6926179376412023
  0
LINE
  5
2FF59
  8
0
 10
2918.9556380074000117
 20
102.6629984871100021
 30
0.0
 11
2929.6704009310851688
 21
102.6629984812211944
 31
0.0
  0
LINE
  5
2FF5A
  8
0
 10
2918.9556380074000117
 20
102.599869745821195
 30
0.0
 11
2929.6704009310851688
 21
102.599869745821195
 31
0.0
  0
ARC
  5
2FF5B
  8
0
 10
2930.049494977365157
 20
101.1371966924311039
 30
0.0
 40
1.572190635578304
 50
95.6198195669022795
 51
103.9529324781719026
  0
ARC
  5
2FF5C
  8
0
 10
2929.7837071768121859
 20
139.3687219497367096
 30
0.0
 40
36.6670617495823734
 50
270.1747416146025103
 51
271.0159957000519171
  0
ARC
  5
2FF5D
  8
0
 10
2930.4355964246688018
 20
102.7297050493633037
 30
0.0
 40
0.0223469307187701
 50
265.5709177477154981
 51
353.5637231107136245
  0
ARC
  5
2FF5E
  8
0
 10
2930.0068460211559795
 20
103.8986279730540048
 30
0.0
 40
1.3416289470033329
 50
255.4767068008086142
 51
265.9657874804709081
  0
ARC
  5
2FF5F
  8
0
 10
2929.9479817682508838
 20
101.1999409531455996
 30
0.0
 40
1.360846032559214
 50
67.9982362245930005
 51
91.4957630696726341
  0
LINE
  5
2FF60
  8
0
 10
2929.6211883325850067
 20
103.1759213638212032
 30
0.0
 11
2929.6211883325850067
 21
103.2231654583212048
 31
0.0
  0
ARC
  5
2FF61
  8
0
 10
2929.5818182538851033
 20
103.2231654583212048
 30
0.0
 40
0.0393700787000011
 50
359.9999999999984084
 51
90.0
  0
LINE
  5
2FF62
  8
0
 10
2929.5818182538851033
 20
103.2625355370211935
 30
0.0
 11
2928.4597710097850722
 21
103.2625355370211935
 31
0.0
  0
ARC
  5
2FF63
  8
0
 10
2928.4597710097850722
 20
103.2231654583212048
 30
0.0
 40
0.0393700786999993
 50
90.0
 51
180.0000000000715943
  0
LINE
  5
2FF64
  8
0
 10
2928.4204009310851688
 20
103.2231654583212048
 30
0.0
 11
2928.4204009310851688
 21
103.1759213638212032
 31
0.0
  0
LINE
  5
2FF65
  8
0
 10
2929.6548253173850753
 20
103.3634213638212032
 30
0.0
 11
2929.654327987385841
 21
103.3437808706212024
 31
0.0
  0
LINE
  5
2FF66
  8
0
 10
2929.654327987385841
 20
103.3437808706212024
 30
0.0
 11
2929.5362555982851518
 21
103.3467706602211962
 31
0.0
  0
LINE
  5
2FF67
  8
0
 10
2929.5362555982851518
 20
103.3467706602211962
 30
0.0
 11
2929.5341226245850521
 21
103.2625355371211953
 31
0.0
  0
LINE
  5
2FF68
  8
0
 10
2929.4554374495851334
 20
103.3634213638212032
 30
0.0
 11
2929.4692357643989453
 21
103.2625355370211935
 31
0.0
  0
LINE
  5
2FF69
  8
0
 10
2928.5538052316510402
 20
103.2625355370211935
 30
0.0
 11
2928.4098757141850911
 21
103.3634213638212032
 31
0.0
  0
ARC
  5
2FF6A
  8
0
 10
2928.9125269152850706
 20
103.333401678821204
 30
0.0
 40
0.108267716499915
 50
163.9025002468522132
 51
179.9999999818624019
  0
LINE
  5
2FF6B
  8
0
 10
2928.8042591987850756
 20
103.3334016788553953
 30
0.0
 11
2928.5975662852852111
 21
103.2625355371211953
 31
0.0
  0
ARC
  5
2FF6C
  8
0
 10
2928.9106232362510127
 20
103.3331325107404979
 30
0.0
 40
0.1101717243463972
 50
0.1399833799090805
 51
15.9558351704869192
  0
LINE
  5
2FF6D
  8
0
 10
2929.0207946317850656
 20
103.333401678821204
 30
0.0
 11
2929.2274875451848857
 21
103.2625355371211953
 31
0.0
  0
ARC
  5
2FF6E
  8
0
 10
2928.9125269152850706
 20
103.333401678821204
 30
0.0
 40
0.0767716534999995
 50
292.6198647391262853
 51
23.0183328255395701
  0
ARC
  5
2FF6F
  8
0
 10
2928.9125269152850706
 20
103.333401678821204
 30
0.0
 40
0.0767716534999995
 50
156.981667174460398
 51
247.3801352608726916
  0
LINE
  5
2FF70
  8
0
 10
2929.6211883325850067
 20
103.199543411071204
 30
0.0
 11
2930.1508384537851271
 21
103.1995434111211978
 31
0.0
  0
LINE
  5
2FF71
  8
0
 10
2930.1508384537851271
 20
103.1995434111211978
 30
0.0
 11
2930.1508384537851271
 21
103.1759213638212032
 31
0.0
  0
LINE
  5
2FF72
  8
0
 10
2930.1528568198850735
 20
103.1759213638212032
 30
0.0
 11
2930.1528568198850735
 21
103.1995434111211978
 31
0.0
  0
LINE
  5
2FF73
  8
0
 10
2930.1528568198850735
 20
103.1995434111211978
 30
0.0
 11
2930.2402333914851624
 21
103.1995434111211978
 31
0.0
  0
LINE
  5
2FF74
  8
0
 10
2930.2402333914851624
 20
103.1995434111211978
 30
0.0
 11
2930.2402333914851624
 21
103.1759213638212032
 31
0.0
  0
LINE
  5
2FF75
  8
0
 10
2905.3396922700258074
 20
105.9747067936211948
 30
0.0
 11
2911.2229791665181438
 21
105.9747067936211948
 31
0.0
  0
LINE
  5
2FF76
  8
0
 10
2905.3396922700258074
 20
105.8702461703211952
 30
0.0
 11
2911.2229791665181438
 21
105.8702461703211952
 31
0.0
  0
LINE
  5
2FF77
  8
0
 10
2905.3396922700258074
 20
105.7891403070211993
 30
0.0
 11
2900.6152828211261294
 21
105.7891403070211993
 31
0.0
  0
LINE
  5
2FF78
  8
0
 10
2900.6152828211261294
 20
105.872069785621207
 30
0.0
 11
2905.3396922700258074
 21
105.872069785621207
 31
0.0
  0
LINE
  5
2FF79
  8
0
 10
2905.3396922700258074
 20
105.872069785621207
 30
0.0
 11
2905.3396922700258074
 21
105.7891403070211993
 31
0.0
  0
LINE
  5
2FF7A
  8
0
 10
2905.3396922700258074
 20
105.9728831782211955
 30
0.0
 11
2905.3396922700258074
 21
106.055812656921205
 31
0.0
  0
LINE
  5
2FF7B
  8
0
 10
2905.3396922700258074
 20
106.055812656921205
 30
0.0
 11
2900.6152828211261294
 21
106.055812656921205
 31
0.0
  0
LINE
  5
2FF7C
  8
0
 10
2900.6152828211261294
 20
105.9728831782211955
 30
0.0
 11
2905.3396922700258074
 21
105.9728831782211955
 31
0.0
  0
LINE
  5
2FF7D
  8
0
 10
2900.6152828211261294
 20
106.0290554891212054
 30
0.0
 11
2905.3396922700258074
 21
106.0290554891212054
 31
0.0
  0
LINE
  5
2FF7E
  8
0
 10
2900.6152828211261294
 20
105.8158974748211989
 30
0.0
 11
2905.3396922700258074
 21
105.8158974748211989
 31
0.0
  0
LINE
  5
2FF7F
  8
0
 10
2911.2229791665181438
 20
105.9728831782211955
 30
0.0
 11
2911.2229791665181438
 21
106.055812656921205
 31
0.0
  0
LINE
  5
2FF80
  8
0
 10
2911.2229791665181438
 20
106.055812656921205
 30
0.0
 11
2929.7491410884849756
 21
106.055812656921205
 31
0.0
  0
LINE
  5
2FF81
  8
0
 10
2929.7491410884849756
 20
105.7891403070211993
 30
0.0
 11
2911.2229791665181438
 21
105.7891403070211993
 31
0.0
  0
LINE
  5
2FF82
  8
0
 10
2911.2229791665181438
 20
105.7891403070211993
 30
0.0
 11
2911.2229791665181438
 21
105.872069785621207
 31
0.0
  0
LINE
  5
2FF83
  8
0
 10
2911.2229791665181438
 20
105.872069785621207
 30
0.0
 11
2929.7491410884849756
 21
105.872069785621207
 31
0.0
  0
LINE
  5
2FF84
  8
0
 10
2911.2229791665181438
 20
105.9728831782211955
 30
0.0
 11
2929.7491410884849756
 21
105.9728831782211955
 31
0.0
  0
LINE
  5
2FF85
  8
0
 10
2900.6152828211261294
 20
104.2841591136212003
 30
0.0
 11
2929.7491410884849756
 21
104.2841591136212003
 31
0.0
  0
LINE
  5
2FF86
  8
0
 10
2900.6152828211261294
 20
104.0174867637211946
 30
0.0
 11
2929.7491410884849756
 21
104.0174867637211946
 31
0.0
  0
LINE
  5
2FF87
  8
0
 10
2900.6152828211261294
 20
104.201229634921205
 30
0.0
 11
2929.7491410884849756
 21
104.201229634921205
 31
0.0
  0
LINE
  5
2FF88
  8
0
 10
2900.6152828211261294
 20
104.1004162423212023
 30
0.0
 11
2929.7491410884849756
 21
104.1004162423212023
 31
0.0
  0
LINE
  5
2FF89
  8
0
 10
2929.8475662853848007
 20
103.678381993721203
 30
0.0
 11
2900.5168576243249845
 21
103.678381993721203
 31
0.0
  0
CIRCLE
  5
2FF8A
  8
0
 10
2918.0733728672180405
 20
107.2216890804211999
 30
0.0
 40
0.0708661416999999
  0
CIRCLE
  5
2FF8B
  8
0
 10
2919.1757350720181421
 20
107.2216890804211999
 30
0.0
 40
0.0708661416999975
  0
CIRCLE
  5
2FF8C
  8
0
 10
2918.0733728672180405
 20
104.9382245134212042
 30
0.0
 40
0.0708661416999999
  0
CIRCLE
  5
2FF8D
  8
0
 10
2919.1757350720181421
 20
104.9382245134212042
 30
0.0
 40
0.0708661416999975
  0
LINE
  5
2FF8E
  8
0
 10
2900.1585899077258546
 20
108.2571221512211963
 30
0.0
 11
2900.0247316400259479
 21
108.2571221512211963
 31
0.0
  0
LINE
  5
2FF8F
  8
0
 10
2899.9066214038261933
 20
108.2571221512211963
 30
0.0
 11
2899.8554403014259151
 21
108.2571221512211963
 31
0.0
  0
LINE
  5
2FF90
  8
0
 10
2899.8554403014259151
 20
108.2571221512211963
 30
0.0
 11
2899.8554403014259151
 21
108.4775945922211946
 31
0.0
  0
LINE
  5
2FF91
  8
0
 10
2899.8554403014259151
 20
108.4775945922211946
 30
0.0
 11
2900.1639215955638065
 21
108.4775945922211946
 31
0.0
  0
LINE
  5
2FF92
  8
0
 10
2900.2319983773882086
 20
108.4775945922211946
 30
0.0
 11
2900.6152828211261294
 21
108.4775945922211946
 31
0.0
  0
LINE
  5
2FF93
  8
0
 10
2901.2396748813262093
 20
108.4815316000211993
 30
0.0
 11
2901.2632899579261903
 21
108.5464134898212052
 31
0.0
  0
LINE
  5
2FF94
  8
0
 10
2901.2632899579261903
 20
108.5464134898212052
 30
0.0
 11
2901.6759371017260491
 21
108.5464134898212052
 31
0.0
  0
LINE
  5
2FF95
  8
0
 10
2901.6759371017260491
 20
108.5464134898212052
 30
0.0
 11
2901.6995521783260301
 21
108.4815316000211993
 31
0.0
  0
LINE
  5
2FF96
  8
0
 10
2907.2963851833260378
 20
108.4815316000211993
 30
0.0
 11
2907.2963851833260378
 21
108.5484607339212033
 31
0.0
  0
LINE
  5
2FF97
  8
0
 10
2907.2963851833260378
 20
108.5484607339212033
 30
0.0
 11
2923.0444166794259218
 21
108.5484607339212033
 31
0.0
  0
LINE
  5
2FF98
  8
0
 10
2923.0444166794259218
 20
108.5484607339212033
 30
0.0
 11
2923.0444166794259218
 21
108.4815316000211993
 31
0.0
  0
LINE
  5
2FF99
  8
0
 10
2928.6412496844259294
 20
108.4815316000211993
 30
0.0
 11
2928.6648647611259548
 21
108.5464134898212052
 31
0.0
  0
LINE
  5
2FF9A
  8
0
 10
2928.6648647611259548
 20
108.5464134898212052
 30
0.0
 11
2929.0775119048262241
 21
108.5464134898212052
 31
0.0
  0
LINE
  5
2FF9B
  8
0
 10
2929.0775119048262241
 20
108.5464134898212052
 30
0.0
 11
2929.101126981426205
 21
108.4815316000211993
 31
0.0
  0
LINE
  5
2FF9C
  8
0
 10
2929.7491410884849756
 20
108.4775945922211946
 30
0.0
 11
2930.1270938448260495
 21
108.4775945922211946
 31
0.0
  0
LINE
  5
2FF9D
  8
0
 10
2930.2058340022258562
 20
108.4775945922211946
 30
0.0
 11
2930.5089836082061083
 21
108.4775945922211946
 31
0.0
  0
LINE
  5
2FF9E
  8
0
 10
2930.5089836082061083
 20
108.4775945922211946
 30
0.0
 11
2930.5089836082061083
 21
108.2571221512211963
 31
0.0
  0
LINE
  5
2FF9F
  8
0
 10
2930.5089836082061083
 20
108.2571221512211963
 30
0.0
 11
2930.4578025062251072
 21
108.2571221512211963
 31
0.0
  0
LINE
  5
2FFA0
  8
0
 10
2930.3396922700258074
 20
108.2571221512211963
 30
0.0
 11
2930.2058340022258562
 21
108.2571221512211963
 31
0.0
  0
LINE
  5
2FFA1
  8
0
 10
2930.3675311196147959
 20
103.6899132228611933
 30
0.0
 11
2930.3790623487261655
 21
103.7177520725211934
 31
0.0
  0
LINE
  5
2FFA2
  8
0
 10
2930.3790623487261655
 20
103.7177520725211934
 30
0.0
 11
2930.4184324274260689
 21
103.7177520725211934
 31
0.0
  0
LINE
  5
2FFA3
  8
0
 10
2930.4184324274260689
 20
103.7177520725211934
 30
0.0
 11
2930.429963656360087
 21
103.689913223137296
 31
0.0
  0
LINE
  5
2FFA4
  8
0
 10
2930.4184324275261133
 20
103.7177520722797937
 30
0.0
 11
2930.4184324274260689
 21
108.4027914426211936
 31
0.0
  0
LINE
  5
2FFA5
  8
0
 10
2930.4184324274260689
 20
108.4027914426211936
 30
0.0
 11
2930.4299636566011031
 21
108.4306302922455956
 31
0.0
  0
LINE
  5
2FFA6
  8
0
 10
2930.3675311196498114
 20
108.4306302922457945
 30
0.0
 11
2930.3790623487261655
 21
108.4027914426211936
 31
0.0
  0
LINE
  5
2FFA7
  8
0
 10
2930.3790623487261655
 20
108.4027914426211936
 30
0.0
 11
2930.3790623487261655
 21
103.7177520725211934
 31
0.0
  0
LINE
  5
2FFA8
  8
0
 10
2930.3790623487261655
 20
108.4027914426211936
 30
0.0
 11
2930.4184324274260689
 21
108.4027914426202983
 31
0.0
  0
LINE
  5
2FFA9
  8
0
 10
2904.3160702227251022
 20
103.1956064032212055
 30
0.0
 11
2904.3160702227251022
 21
103.1759213638212032
 31
0.0
  0
LINE
  5
2FFAA
  8
0
 10
2904.3554403014259151
 20
103.1956064032212055
 30
0.0
 11
2904.3554403014259151
 21
103.3634213638212032
 31
0.0
  0
LINE
  5
2FFAB
  8
0
 10
2904.3554403014259151
 20
103.2940315334212045
 30
0.0
 11
2903.365501618205144
 21
103.2940315334212045
 31
0.0
  0
ARC
  5
2FFAC
  8
0
 10
2903.3720364959090148
 20
103.3765416468028064
 30
0.0
 40
0.0827684930203468
 50
189.1208769955094908
 51
265.4715738162099115
  0
LINE
  5
2FFAD
  8
0
 10
2906.1270938448260495
 20
103.3634213638212032
 30
0.0
 11
2906.1270938448260495
 21
103.1956064032212055
 31
0.0
  0
LINE
  5
2FFAE
  8
0
 10
2915.3396922700258074
 20
103.1956064032212055
 30
0.0
 11
2915.3396922700258074
 21
103.1759213638212032
 31
0.0
  0
LINE
  5
2FFAF
  8
0
 10
2900.6940229251431447
 20
102.6629984871100021
 30
0.0
 11
2900.6940229786259806
 21
102.599869745821195
 31
0.0
  0
LINE
  5
2FFB0
  8
0
 10
2918.4499284904259184
 20
102.6629984871100021
 30
0.0
 11
2918.4499284904259184
 21
102.599869745821195
 31
0.0
  0
LINE
  5
2FFB1
  8
0
 10
2918.9556380074000117
 20
102.6629984871100021
 30
0.0
 11
2918.9556380074000117
 21
102.599869745821195
 31
0.0
  0
LINE
  5
2FFB2
  8
0
 10
2929.6704009310851688
 20
102.6629984812211944
 30
0.0
 11
2929.6704009575510099
 21
102.599869745821195
 31
0.0
  0
LINE
  5
2FFB4
  8
0
 10
2929.8672513247847746
 20
108.0846024662211988
 30
0.0
 11
2930.3396922696852016
 21
108.0846024662211988
 31
0.0
  0
LINE
  5
2FFB5
  8
0
 10
2929.8672513247847746
 20
107.8752323874212067
 30
0.0
 11
2930.3396922696852016
 21
107.8752323874212067
 31
0.0
  0
LINE
  5
2FFB6
  8
0
 10
2930.0877237660261017
 20
108.3909804189212025
 30
0.0
 11
2929.7491410888260361
 21
108.3909804189212025
 31
0.0
  0
LINE
  5
2FFB7
  8
0
 10
2929.7491410884849756
 20
108.3516103402211996
 30
0.0
 11
2930.0877237660261017
 21
108.3516103402211996
 31
0.0
  0
ENDSEC
  0
EOF
