  0
SECTION
  2
HEADER
  9
$ACADVER
  1
AC1009
  9
$INSBASE
 10
4115.5932142469164319
 20
534.997824476673145
 30
0.0
  9
$EXTMIN
 10
4109.5353057953680036
 20
513.5276045256606494
 30
-0.0000000000112498
  9
$EXTMAX
 10
4121.7991912800589489
 20
535.0392207516541703
 30
0.0000000000002956
  9
$LIMMIN
 10
0.0
 20
0.0
  9
$LIMMAX
 10
11.6929133858000007
 20
8.2677165353999982
  9
$ORTHOMODE
 70
     0
  9
$REGENMODE
 70
     1
  9
$FILLMODE
 70
     1
  9
$QTEXTMODE
 70
     0
  9
$MIRRTEXT
 70
     0
  9
$DRAGMODE
 70
     2
  9
$LTSCALE
 40
0.6431102362
  9
$OSMODE
 70
  4095
  9
$ATTMODE
 70
     1
  9
$TEXTSIZE
 40
0.2
  9
$TRACEWID
 40
0.05
  9
$TEXTSTYLE
  7
STANDARD
  9
$CLAYER
  8
0
  9
$CELTYPE
  6
BYLAYER
  9
$CECOLOR
 62
   256
  9
$DIMSCALE
 40
1.0
  9
$DIMASZ
 40
0.1875
  9
$DIMEXO
 40
0.0625
  9
$DIMDLI
 40
0.4443307087
  9
$DIMRND
 40
0.0
  9
$DIMDLE
 40
0.0
  9
$DIMEXE
 40
0.125
  9
$DIMTP
 40
0.01
  9
$DIMTM
 40
0.01
  9
$DIMTXT
 40
2.0
  9
$DIMCEN
 40
0.1052362205
  9
$DIMTSZ
 40
0.0
  9
$DIMTOL
 70
     1
  9
$DIMLIM
 70
     0
  9
$DIMTIH
 70
     1
  9
$DIMTOH
 70
     1
  9
$DIMSE1
 70
     0
  9
$DIMSE2
 70
     0
  9
$DIMTAD
 70
     0
  9
$DIMZIN
 70
     0
  9
$DIMBLK
  1

  9
$DIMASO
 70
     1
  9
$DIMSHO
 70
     1
  9
$DIMPOST
  1
\X
  9
$DIMAPOST
  1

  9
$DIMALT
 70
     1
  9
$DIMALTD
 70
     2
  9
$DIMALTF
 40
25.3999999999999986
  9
$DIMLFAC
 40
1.0
  9
$DIMTOFL
 70
     0
  9
$DIMTVP
 40
0.0
  9
$DIMTIX
 70
     0
  9
$DIMSOXD
 70
     0
  9
$DIMSAH
 70
     0
  9
$DIMBLK1
  1

  9
$DIMBLK2
  1

  9
$DIMSTYLE
  2
STANDARD
  9
$DIMCLRD
 70
     0
  9
$DIMCLRE
 70
     0
  9
$DIMCLRT
 70
     0
  9
$DIMTFAC
 40
1.0
  9
$DIMGAP
 40
0.09
  9
$LUNITS
 70
     2
  9
$LUPREC
 70
     4
  9
$SKETCHINC
 40
0.1
  9
$FILLETRAD
 40
0.0
  9
$AUNITS
 70
     0
  9
$AUPREC
 70
     0
  9
$MENU
  1
.
  9
$ELEVATION
 40
0.0
  9
$PELEVATION
 40
0.0
  9
$THICKNESS
 40
0.0
  9
$LIMCHECK
 70
     0
  9
$BLIPMODE
 70
     0
  9
$CHAMFERA
 40
0.0
  9
$CHAMFERB
 40
0.0
  9
$SKPOLY
 70
     0
  9
$TDCREATE
 40
2458060.468368056230247
  9
$TDUPDATE
 40
2460005.4060648148879409
  9
$TDINDWG
 40
0.3986644676
  9
$TDUSRTIMER
 40
0.3986644676
  9
$USRTIMER
 70
     1
  9
$ANGBASE
 50
0.0
  9
$ANGDIR
 70
     0
  9
$PDMODE
 70
     0
  9
$PDSIZE
 40
0.3125
  9
$PLINEWID
 40
0.0
  9
$COORDS
 70
     1
  9
$SPLFRAME
 70
     0
  9
$SPLINETYPE
 70
     6
  9
$SPLINESEGS
 70
     8
  9
$ATTDIA
 70
     1
  9
$ATTREQ
 70
     1
  9
$HANDLING
 70
     1
  9
$HANDSEED
  5
249F0
  9
$SURFTAB1
 70
     6
  9
$SURFTAB2
 70
     6
  9
$SURFTYPE
 70
     6
  9
$SURFU
 70
     6
  9
$SURFV
 70
     6
  9
$UCSNAME
  2

  9
$UCSORG
 10
0.0
 20
0.0
 30
0.0
  9
$UCSXDIR
 10
1.0
 20
0.0
 30
0.0
  9
$UCSYDIR
 10
0.0
 20
1.0
 30
0.0
  9
$PUCSNAME
  2

  9
$PUCSORG
 10
0.0
 20
0.0
 30
0.0
  9
$PUCSXDIR
 10
1.0
 20
0.0
 30
0.0
  9
$PUCSYDIR
 10
0.0
 20
1.0
 30
0.0
  9
$USERI1
 70
     0
  9
$USERI2
 70
     0
  9
$USERI3
 70
     0
  9
$USERI4
 70
     0
  9
$USERI5
 70
     0
  9
$USERR1
 40
0.0
  9
$USERR2
 40
0.0
  9
$USERR3
 40
0.0
  9
$USERR4
 40
0.0
  9
$USERR5
 40
0.0
  9
$WORLDVIEW
 70
     1
  9
$SHADEDGE
 70
     3
  9
$SHADEDIF
 70
    70
  9
$TILEMODE
 70
     1
  9
$MAXACTVP
 70
    64
  9
$PLIMCHECK
 70
     0
  9
$PEXTMIN
 10
1.0000000000000000E+20
 20
1.0000000000000000E+20
 30
1.0000000000000000E+20
  9
$PEXTMAX
 10
-1.0000000000000000E+20
 20
-1.0000000000000000E+20
 30
-1.0000000000000000E+20
  9
$PLIMMIN
 10
0.0
 20
0.0
  9
$PLIMMAX
 10
12.0
 20
9.0
  9
$UNITMODE
 70
     0
  9
$VISRETAIN
 70
     1
  9
$PLINEGEN
 70
     0
  9
$PSLTSCALE
 70
     1
  0
ENDSEC
  0
SECTION
  2
TABLES
  0
TABLE
  2
VPORT
 70
     1
  0
VPORT
  2
*ACTIVE
 70
     0
 10
0.0
 20
0.0
 11
1.0
 21
1.0
 12
312.1231811549013742
 22
398.2881504419075895
 13
0.0
 23
0.0
 14
1.0
 24
1.0
 15
0.0
 25
0.0
 16
0.0
 26
0.0
 36
17.1152628219792007
 17
3803.5440673828129547
 27
125.9952621967499056
 37
0.0
 40
21.682117807705481
 41
2.5251322751322749
 42
50.0
 43
0.0
 44
0.0
 50
0.0
 51
0.0
 71
     0
 72
   100
 73
     1
 74
     1
 75
     0
 76
     0
 77
     0
 78
     0
  0
ENDTAB
  0
TABLE
  2
LTYPE
 70
     2
  0
LTYPE
  2
CONTINUOUS
 70
     0
  3
Solid line
 72
    65
 73
     0
 40
0.0
  0
LTYPE
  2
PHANTOM2
 70
     0
  3
___ _ _ ___ _ _ ___ _ _ ___ _ _
 72
    65
 73
     6
 40
1.25
 49
0.625
 49
-0.125
 49
0.125
 49
-0.125
 49
0.125
 49
-0.125
  0
ENDTAB
  0
TABLE
  2
LAYER
 70
     2
  0
LAYER
  2
0
 70
     0
 62
   255
  6
CONTINUOUS
  0
LAYER
  2
DEFPOINTS
 70
     0
 62
     7
  6
CONTINUOUS
  0
ENDTAB
  0
TABLE
  2
STYLE
 70
     1
  0
STYLE
  2
STANDARD
 70
     0
 40
0.0
 41
0.8
 50
0.0
 71
     0
 42
0.2
  3
txt
  4

  0
ENDTAB
  0
TABLE
  2
VIEW
 70
     0
  0
ENDTAB
  0
TABLE
  2
UCS
 70
     0
  0
ENDTAB
  0
TABLE
  2
APPID
 70
     9
  0
APPID
  2
ACAD
 70
     0
  0
APPID
  2
ACAD_MLEADERVER
 70
     0
  0
APPID
  2
ACAD_EXEMPT_FROM_CAD_STANDARDS
 70
     0
  0
APPID
  2
ACAD_NAV_VCDISPLAY
 70
     0
  0
APPID
  2
ACAECLAYERSTANDARD
 70
     0
  0
APPID
  2
ACCMTRANSPARENCY
 70
     0
  0
APPID
  2
ACAD_DSTYLE_DIMJAG
 70
     0
  0
APPID
  2
ACAD_DSTYLE_DIMTALN
 70
     0
  0
APPID
  2
ACDBATTR
 70
     0
  0
ENDTAB
  0
TABLE
  2
DIMSTYLE
 70
     1
  0
DIMSTYLE
  2
STANDARD
 70
     0
  3

  4

  5

  6

  7

 40
1.0
 41
0.1875
 42
0.0625
 43
0.38
 44
0.125
 45
0.0
 46
0.0
 47
0.01
 48
0.01
140
0.15625
141
0.09
142
0.0
143
25.3999999999999986
144
1.0
145
0.0
146
1.0
147
0.09
 71
     1
 72
     0
 73
     1
 74
     1
 75
     0
 76
     0
 77
     0
 78
     4
170
     0
171
     2
172
     0
173
     0
174
     0
175
     0
176
     0
177
     0
178
     0
  0
ENDTAB
  0
ENDSEC
  0
SECTION
  2
BLOCKS
  0
BLOCK
  8
0
  2
$MODEL_SPACE
 70
     0
 10
0.0
 20
0.0
 30
0.0
  3
$MODEL_SPACE
  1

  0
ENDBLK
  5
21
  8
0
  0
BLOCK
 67
     1
  8
0
  2
$PAPER_SPACE
 70
     0
 10
0.0
 20
0.0
 30
0.0
  3
$PAPER_SPACE
  1

  0
ENDBLK
  5
1D
 67
     1
  8
0
  0
BLOCK
  8
0
  2
_FILLED
 70
     0
 10
0.0
 20
0.0
 30
0.0
  3
_FILLED
  1

  0
SOLID
  5
20413
  8
0
  6
BYBLOCK
 62
     0
 10
0.0
 20
0.0
 30
0.0
 11
-1.0
 21
0.1666666667
 31
0.0
 12
-1.0
 22
-0.1666666667
 32
0.0
 13
-1.0
 23
-0.1666666667
 33
0.0
  0
ENDBLK
  5
20414
  8
0
  6
BYBLOCK
 62
     0
  0
ENDSEC
  0
SECTION
  2
ENTITIES
  0
ARC
  5
2380E
  8
0
 10
4115.5991569670150056
 20
517.5243500082514174
 30
0.0
 40
0.3740539445300766
 50
179.8416896491926877
 51
358.8528829512351876
  0
ARC
  5
23812
  8
0
 10
4115.5991201983188148
 20
517.5268612881382069
 30
0.0
 40
0.4946754522453815
 50
139.1200986049711048
 51
40.8799013973868526
  0
ARC
  5
23BE4
  8
0
 10
4115.5991201983188148
 20
517.5245750818238548
 30
0.0
 40
0.7480314949999965
 50
120.0000000442240946
 51
59.9999999569732623
  0
ARC
  5
23BE5
  8
0
 10
4115.5991201983188148
 20
517.5245750818238548
 30
0.0
 40
0.7874015747999934
 50
118.3593500256667994
 51
61.6406499754305912
  0
ARC
  5
23BE6
  8
0
 10
4115.5991201983188148
 20
517.5245750818238548
 30
0.0
 40
0.8070866142000028
 50
117.6076680555731002
 51
62.3923319454875198
  0
LINE
  5
23DFA
  8
0
 10
4115.2251044503200319
 20
517.5253835317731728
 30
0.0
 11
4115.2251044503200319
 21
531.6986118782732547
 31
0.0
  0
LINE
  5
23DFB
  8
0
 10
4115.9731359463057743
 20
517.516861585970446
 30
0.0
 11
4115.9731359463057743
 21
531.6986118782732547
 31
0.0
  0
ARC
  5
23DFC
  8
0
 10
4115.5991201983188148
 20
531.6986118782732547
 30
0.0
 40
0.3740157479999979
 50
0.0
 51
180.0
  0
ARC
  5
23DFD
  8
0
 10
4115.5991201983188148
 20
531.6986118782732547
 30
0.0
 40
0.4313593566003762
 50
145.2280113990653945
 51
209.8808829751928897
  0
ARC
  5
23DFE
  8
0
 10
4115.5991201983188148
 20
531.6986118782732547
 30
0.0
 40
0.4313593566003762
 50
330.1191170212443922
 51
34.7719886009345984
  0
LINE
  5
23DFF
  8
0
 10
4115.2447894896176877
 20
534.5667772223731617
 30
0.0
 11
4115.2447894896176877
 21
531.8183512979485386
 31
0.0
  0
LINE
  5
23E00
  8
0
 10
4115.9534509070190325
 20
534.5667772223731617
 30
0.0
 11
4115.9534509070190325
 21
531.8183512979485386
 31
0.0
  0
ARC
  5
23E01
  8
0
 10
4115.5991201983188148
 20
531.6986118782732547
 30
0.0
 40
0.4213881167184298
 50
147.2316222300376864
 51
207.4292668637795032
  0
ARC
  5
23E02
  8
0
 10
4115.5991201983188148
 20
531.6986118782732547
 30
0.0
 40
0.4213881167184298
 50
332.5707331322727214
 51
32.7683777699622567
  0
ARC
  5
23E03
  8
0
 10
4115.5991201983188148
 20
531.6986118782732547
 30
0.0
 40
0.3799449055999999
 50
158.8413347410092058
 51
190.1353841111614997
  0
ARC
  5
23E04
  8
0
 10
4115.5991201983188148
 20
531.6986118782732547
 30
0.0
 40
0.3799449055999999
 50
349.8646158773859725
 51
21.1586652589907906
  0
CIRCLE
  5
23E05
  8
0
 10
4115.5991201983188148
 20
533.8954622719732015
 30
0.0
 40
0.1181102362000033
  0
CIRCLE
  5
23E06
  8
0
 10
4115.5991201983188148
 20
533.8954622719732015
 30
0.0
 40
0.0826771653999998
  0
ARC
  5
23E5F
  8
0
 10
4115.5991944082916234
 20
517.5243118141731884
 30
0.0
 40
0.654219938496961
 50
124.8765878101313973
 51
55.1392549664057086
  0
ARC
  5
23E60
  8
0
 10
4115.5991201983188148
 20
517.5245750818238548
 30
0.0
 40
3.9957881082794819
 50
95.37089041639328
 51
84.6291095837898268
  0
ARC
  5
23E61
  8
0
 10
4115.5991201983188148
 20
517.5268612881382069
 30
0.0
 40
3.916289303905232
 50
95.4802472773311877
 51
84.519752722877854
  0
LINE
  5
23E62
  8
0
 10
4114.7016836721786603
 20
534.997824476673145
 30
0.0
 11
4116.4847448216532939
 21
534.997824476673145
 31
0.0
  0
LINE
  5
23E63
  8
0
 10
4114.7137253298033102
 20
534.64630911081872
 30
0.0
 11
4114.7016836721786603
 21
534.997824476673145
 31
0.0
  0
LINE
  5
23E64
  8
0
 10
4115.2447894896176877
 20
534.5667772223731617
 30
0.0
 11
4115.9534509070190325
 21
534.5667772223731617
 31
0.0
  0
LINE
  5
23E65
  8
0
 10
4114.7483862154340386
 20
534.6078820240733194
 30
0.0
 11
4116.4498541812026815
 21
534.6078820240733194
 31
0.0
  0
ARC
  5
23E66
  8
0
 10
4115.5216399035798531
 20
540.928135234272645
 30
0.0
 40
6.367379516509815
 50
263.0247916267769028
 51
267.508023140831483
  0
ARC
  5
23E67
  8
0
 10
4114.7531193987615552
 20
534.6469967592117882
 30
0.0
 40
0.0394000701694724
 50
181.0000325133079002
 51
263.1003172097417746
  0
LINE
  5
23E68
  8
0
 10
4111.2783798506361563
 20
534.997824476673145
 30
0.0
 11
4114.0143484660011381
 21
534.997824476673145
 31
0.0
  0
LINE
  5
23E69
  8
0
 10
4111.2841499694386584
 20
534.078167861673478
 30
0.0
 11
4111.2685812855261247
 21
534.9878567811460925
 31
0.0
  0
ARC
  5
23E6A
  8
0
 10
4111.3038470850169688
 20
534.0785049639068802
 30
0.0
 40
0.0197
 50
180.9804811143569907
 51
224.9999999863894971
  0
ARC
  5
23E6B
  8
0
 10
4111.2783798506361563
 20
534.9880244766733313
 30
0.0
 40
0.0098
 50
90.0
 51
180.9804811143602024
  0
LINE
  5
23E6C
  8
0
 10
4111.3999898800611845
 20
533.9545021616315807
 30
0.0
 11
4111.2899170814243917
 21
534.0645749603207832
 31
0.0
  0
ARC
  5
23E6D
  8
0
 10
4111.4069195265183225
 20
533.9614318080856492
 30
0.0
 40
0.0098
 50
224.9999999863894971
 51
270.0
  0
LINE
  5
23E6E
  8
0
 10
4111.4069195265183225
 20
533.9516318080856081
 30
0.0
 11
4113.885799070190842
 21
533.9516318080856081
 31
0.0
  0
LINE
  5
23E6F
  8
0
 10
4113.289043287018103
 20
533.9053970552034798
 30
0.0
 11
4112.0036753096919711
 21
533.9053970552034798
 31
0.0
  0
LINE
  5
23E70
  8
0
 10
4112.0164380403548421
 20
532.9033252640856517
 30
0.0
 11
4112.0164380403548421
 21
533.0421899633311114
 31
0.0
  0
ARC
  5
23E71
  8
0
 10
4112.0282380403541538
 20
533.0421899633311114
 30
0.0
 40
0.0118
 50
120.0000000187398967
 51
180.0
  0
LINE
  5
23E72
  8
0
 10
4112.0164380403548421
 20
533.7539349650096483
 30
0.0
 11
4112.0164380403548421
 21
533.8856197519855868
 31
0.0
  0
ARC
  5
23E73
  8
0
 10
4112.0282380403541538
 20
533.7539349650096483
 30
0.0
 40
0.0118
 50
180.0
 51
239.9986052243797019
  0
LINE
  5
23E74
  8
0
 10
4112.0164380385549521
 20
533.8856197501854695
 30
0.0
 11
4112.0361230799544501
 21
533.9053047898855766
 31
0.0
  0
LINE
  5
23E75
  8
0
 10
4112.0164380385549521
 20
533.8856197483854658
 30
0.0
 11
4113.2762805563543225
 21
533.8856197483854658
 31
0.0
  0
ARC
  5
23E76
  8
0
 10
4112.0746990075303984
 20
538.6964113286996962
 30
0.0
 40
4.791540684842281
 50
261.9888193433375818
 51
269.1506892189249243
  0
LINE
  5
23E77
  8
0
 10
4111.2899170814298486
 20
534.0645749603152126
 30
0.0
 11
4114.0028015152793159
 21
534.0645749603152126
 31
0.0
  0
LINE
  5
23E78
  8
0
 10
4114.0085686272695966
 20
534.078167861673478
 30
0.0
 11
4114.0241373111830399
 21
534.9878567811460925
 31
0.0
  0
ARC
  5
23E79
  8
0
 10
4113.9888715116931053
 20
534.0785049639068802
 30
0.0
 40
0.0197
 50
315.0000000136104745
 51
359.0195188856397976
  0
ARC
  5
23E7A
  8
0
 10
4114.0143436060279782
 20
534.9880292541645304
 30
0.0
 40
0.0097952237145004
 50
358.9910912681688728
 51
90.0284276174322144
  0
LINE
  5
23E7B
  8
0
 10
4113.89272871664798
 20
533.9545021616315807
 30
0.0
 11
4114.0028015152847729
 21
534.0645749603207832
 31
0.0
  0
ARC
  5
23E7C
  8
0
 10
4113.885799070190842
 20
533.9614318080856492
 30
0.0
 40
0.0098
 50
270.0
 51
315.0000000136104745
  0
LINE
  5
23E7D
  8
0
 10
4113.2762805563543225
 20
532.9033252640856517
 30
0.0
 11
4113.2762805563543225
 21
533.042675387440454
 31
0.0
  0
LINE
  5
23E7E
  8
0
 10
4113.2762805563543225
 20
533.7534495409000783
 30
0.0
 11
4113.2762805563543225
 21
533.8856197519855868
 31
0.0
  0
LINE
  5
23E7F
  8
0
 10
4113.276280558155122
 20
533.8856197501854695
 30
0.0
 11
4113.256595516753805
 21
533.9053047898855766
 31
0.0
  0
ARC
  5
23E80
  8
0
 10
4113.2180195891787662
 20
538.6964113286996962
 30
0.0
 40
4.791540684842281
 50
270.8493107810750757
 51
278.0111806566623045
  0
LINE
  5
23E81
  8
0
 10
4112.0754981511190636
 20
533.7062095938151742
 30
0.0
 11
4112.0754981511190636
 21
533.0899138005526083
 31
0.0
  0
ARC
  5
23E82
  8
0
 10
4112.0636981511188424
 20
533.0899138005526083
 30
0.0
 40
0.0118
 50
300.000000018739911
 51
0.0
  0
LINE
  5
23E83
  8
0
 10
4112.0223380403513147
 20
533.0524090630937053
 30
0.0
 11
4112.0695981511216814
 21
533.0796947007899007
 31
0.0
  0
LINE
  5
23E84
  8
0
 10
4112.0223377915881429
 20
533.7437160088742303
 30
0.0
 11
4112.0695983998848533
 21
533.7164285499503649
 31
0.0
  0
ARC
  5
23E85
  8
0
 10
4112.0636981511188424
 20
533.7062095938151742
 30
0.0
 40
0.0118
 50
0.0
 51
59.9986052243797232
  0
LINE
  5
23E86
  8
0
 10
4116.4845150668334099
 20
534.64630911081872
 30
0.0
 11
4116.4847448216532939
 21
534.997824476673145
 31
0.0
  0
ARC
  5
23E87
  8
0
 10
4115.6766004930559575
 20
540.9281352342736682
 30
0.0
 40
6.3673795165107121
 50
272.491976859168517
 51
276.9752083732229835
  0
ARC
  5
23E88
  8
0
 10
4116.4451209978760744
 20
534.6469967592117882
 30
0.0
 40
0.0394000701694697
 50
276.8996827902844871
 51
358.9999674867017916
  0
LINE
  5
23E89
  8
0
 10
4111.8196075999176173
 20
530.8246072505220354
 30
0.0
 11
4115.2251044503200319
 21
530.8246072505220354
 31
0.0
  0
ARC
  5
23E8A
  8
0
 10
4111.8196075999176173
 20
530.8443072505219789
 30
0.0
 40
0.0197
 50
180.0
 51
270.0
  0
LINE
  5
23E8B
  8
0
 10
4113.8350267932737552
 20
532.7662272594466231
 30
0.0
 11
4114.7603506477689734
 21
532.7743024384287764
 31
0.0
  0
ARC
  5
23E8C
  8
0
 10
4114.7605225605184387
 20
532.7546031885444791
 30
0.0
 40
0.0197
 50
0.0
 51
90.5000000024929392
  0
LINE
  5
23E8D
  8
0
 10
4114.7802225605191779
 20
532.7546031885444791
 30
0.0
 11
4114.7802225605191779
 21
530.9121945553732758
 31
0.0
  0
LINE
  5
23E8E
  8
0
 10
4114.8117186235185727
 20
530.9121945553732758
 30
0.0
 11
4114.8117186235185727
 21
532.4850292010733028
 31
0.0
  0
ARC
  5
23E8F
  8
0
 10
4114.8314186235184025
 20
532.4798838824904124
 30
0.0
 40
0.0197
 50
89.4999999910712063
 51
180.0
  0
ARC
  5
23E90
  8
0
 10
4114.8314186235184025
 20
530.9173398739020513
 30
0.0
 40
0.0197
 50
180.0
 51
270.5000000078343874
  0
LINE
  5
23E91
  8
0
 10
4114.8117186235185727
 20
532.4850292010733028
 30
0.0
 11
4114.7802225605191779
 21
532.4850292010733028
 31
0.0
  0
LINE
  5
23E92
  8
0
 10
4114.8315905362724152
 20
532.4995831323747097
 30
0.0
 11
4115.2447896944522654
 21
532.4959771978857361
 31
0.0
  0
ARC
  5
23E93
  8
0
 10
4113.2644905451834347
 20
533.0421899633311114
 30
0.0
 40
0.0118
 50
0.0
 51
59.9999999812600677
  0
ARC
  5
23E94
  8
0
 10
4113.2644905451834347
 20
533.7539349650096483
 30
0.0
 40
0.0118
 50
300.0013947756203265
 51
0.0
  0
LINE
  5
23E95
  8
0
 10
4113.2172304344176155
 20
533.7062095938151742
 30
0.0
 11
4113.2172304344176155
 21
533.0899138005526083
 31
0.0
  0
ARC
  5
23E96
  8
0
 10
4113.2290304344187462
 20
533.0899138005526083
 30
0.0
 40
0.0118
 50
180.0
 51
239.999999981260089
  0
LINE
  5
23E97
  8
0
 10
4113.2703905451862738
 20
533.0524090630937053
 30
0.0
 11
4113.2231304344149976
 21
533.0796947007899007
 31
0.0
  0
LINE
  5
23E98
  8
0
 10
4113.2703907939494457
 20
533.7437160088742303
 30
0.0
 11
4113.2231301856518257
 21
533.7164285499503649
 31
0.0
  0
ARC
  5
23E99
  8
0
 10
4113.2290304344187462
 20
533.7062095938151742
 30
0.0
 40
0.0118
 50
120.0013947756201986
 51
180.0
  0
LINE
  5
23E9A
  8
0
 10
4113.8302217221662431
 20
530.9076898115050653
 30
0.0
 11
4114.7603506477689734
 21
530.8995726993717881
 31
0.0
  0
ARC
  5
23E9B
  8
0
 10
4114.7605225605184387
 20
530.9192719492560855
 30
0.0
 40
0.0197
 50
269.500000001780279
 51
0.0
  0
LINE
  5
23E9C
  8
0
 10
4114.7802225605191779
 20
530.91219455617329
 30
0.0
 11
4114.8117186235185727
 21
530.9121945553732758
 31
0.0
  0
LINE
  5
23E9D
  8
0
 10
4114.8315905362705962
 20
530.8976406240177539
 30
0.0
 11
4115.2251044503200319
 21
530.9010747679733413
 31
0.0
  0
LINE
  5
23E9E
  8
0
 10
4115.2447896845342257
 20
532.5962496734731531
 30
0.0
 11
4114.7802225605191779
 21
532.5962496734731531
 31
0.0
  0
LINE
  5
23E9F
  8
0
 10
4113.7959690656898601
 20
532.701849737475527
 30
0.0
 11
4114.7802225605191779
 21
532.7025983574055772
 31
0.0
  0
LINE
  5
23EA0
  8
0
 10
4113.8301909952178903
 20
532.4866660825731515
 30
0.0
 11
4114.760367344119004
 21
532.4941997901731838
 31
0.0
  0
ARC
  5
23EA1
  8
0
 10
4114.760580267980913
 20
532.4745603784514287
 30
0.0
 40
0.01964235502785
 50
0.1446345921599485
 51
90.6161079010083341
  0
LINE
  5
23EA2
  8
0
 10
4116.3865217731190569
 20
530.9307243036732871
 30
0.0
 11
4116.3865217731190569
 21
532.4664994527732915
 31
0.0
  0
ARC
  5
23EA3
  8
0
 10
4116.3668217731192271
 20
532.4664994527732915
 30
0.0
 40
0.0197
 50
0.0
 51
90.5000000089287937
  0
LINE
  5
23EA4
  8
0
 10
4118.0305891857242386
 20
532.4717174305743583
 30
0.0
 11
4116.419982707595409
 21
532.4857712841685498
 31
0.0
  0
ARC
  5
23EA5
  8
0
 10
4118.030417293717619
 20
532.4520181805089578
 30
0.0
 40
0.0197
 50
0.0
 51
89.5000603362077953
  0
ARC
  5
23EA6
  8
0
 10
4116.4199924747990735
 20
532.46608011315152
 30
0.0
 40
0.0196911734393132
 50
90.0284198200766355
 51
180.0256643291774026
  0
LINE
  5
23EA7
  8
0
 10
4116.3666498603661239
 20
532.4861987026577026
 30
0.0
 11
4115.9534498085740779
 21
532.4897913560728284
 31
0.0
  0
LINE
  5
23EA8
  8
0
 10
4116.400301303336164
 20
532.4660712929427291
 30
0.0
 11
4116.400301303336164
 21
530.9311524635038495
 31
0.0
  0
LINE
  5
23EA9
  8
0
 10
4116.400301303336164
 20
532.4267521884504504
 30
0.0
 11
4116.3962784018058301
 21
532.4267872957454983
 31
0.0
  0
ARC
  5
23EAA
  8
0
 10
4116.3963642928183617
 20
532.4366294406733005
 30
0.0
 40
0.0098425197000068
 50
180.0013638755372938
 51
269.4999586069814086
  0
LINE
  5
23EAB
  8
0
 10
4118.0501172937183583
 20
532.4520181805089578
 30
0.0
 11
4118.0501172937183583
 21
532.1297122609669259
 31
0.0
  0
ARC
  5
23EAC
  8
0
 10
4116.3668217731192271
 20
530.9307243036732871
 30
0.0
 40
0.0197
 50
269.4999999910712063
 51
0.0
  0
ARC
  5
23EAD
  8
0
 10
4116.4198097397302263
 20
530.9309610806367346
 30
0.0
 40
0.0195093751302455
 50
179.4379314373682064
 51
270.5079844133762208
  0
LINE
  5
23EAE
  8
0
 10
4116.400301303336164
 20
530.9704715679961282
 30
0.0
 11
4116.3962784018058301
 21
530.9704364607010803
 31
0.0
  0
ARC
  5
23EAF
  8
0
 10
4116.3963642928183617
 20
530.9605943157731645
 30
0.0
 40
0.0098425197000068
 50
90.5000413930186056
 51
179.9986361244625925
  0
LINE
  5
23EB0
  8
0
 10
4116.3666498603661239
 20
530.9110250537889897
 30
0.0
 11
4115.9731359463057743
 21
530.9076036653830215
 31
0.0
  0
LINE
  5
23EB1
  8
0
 10
4116.4201581222141613
 20
530.9114523067192977
 30
0.0
 11
4116.8614463381200039
 21
530.9153033707436862
 31
0.0
  0
ARC
  5
23EB2
  8
0
 10
4117.5341314204188166
 20
531.6976974364732769
 30
0.0
 40
0.5509093714190901
 50
0.0
 51
180.0
  0
ARC
  5
23EB3
  8
0
 10
4047.931620193364779
 20
531.3501658386873032
 30
0.0
 40
69.05247640049258
 50
359.9811810278039843
 51
0.2883629798765599
  0
ARC
  5
23EB4
  8
0
 10
4116.071709397203449
 20
531.3595583568239817
 30
0.0
 40
0.9129470291114692
 50
339.0364206225004864
 51
357.9867107110645748
  0
ARC
  5
23EB5
  8
0
 10
4116.4224353885556411
 20
531.2251829935510159
 30
0.0
 40
0.5373602092337147
 50
310.5646865063225732
 51
339.0364206225004864
  0
ARC
  5
23EB6
  8
0
 10
4115.3243280503229471
 20
532.5079660520705147
 30
0.0
 40
2.225960843340522
 50
299.3002154353769129
 51
310.5646865063225732
  0
ARC
  5
23EB7
  8
0
 10
4120.1447441223108399
 20
523.9181613187919311
 30
0.0
 40
7.6239709565722178
 50
119.3002154353767992
 51
123.1730788272014934
  0
LINE
  5
23EB8
  8
0
 10
4119.9198605460005638
 20
534.997824476673145
 30
0.0
 11
4117.1838919306346725
 21
534.997824476673145
 31
0.0
  0
LINE
  5
23EB9
  8
0
 10
4119.9140904271971522
 20
534.078167861673478
 30
0.0
 11
4119.9296591111105954
 21
534.9878567811460925
 31
0.0
  0
ARC
  5
23EBA
  8
0
 10
4119.8943933116197513
 20
534.0785049639068802
 30
0.0
 40
0.0197
 50
315.0000000136104745
 51
359.0195188856397976
  0
ARC
  5
23EBB
  8
0
 10
4119.9198605460005638
 20
534.9880244766733313
 30
0.0
 40
0.0098
 50
359.0195188856397976
 51
90.0
  0
LINE
  5
23EBC
  8
0
 10
4119.7982505165764451
 20
533.9545021616315807
 30
0.0
 11
4119.9083233152132379
 21
534.0645749603207832
 31
0.0
  0
ARC
  5
23EBD
  8
0
 10
4119.7913208701202166
 20
533.9614318080856492
 30
0.0
 40
0.0098
 50
270.0
 51
315.0000000136104745
  0
LINE
  5
23EBE
  8
0
 10
4119.7913208701202166
 20
533.9516318080856081
 30
0.0
 11
4117.3124413264458781
 21
533.9516318080856081
 31
0.0
  0
LINE
  5
23EBF
  8
0
 10
4117.9091971096204361
 20
533.9053970552034798
 30
0.0
 11
4119.1945650869447491
 21
533.9053970552034798
 31
0.0
  0
LINE
  5
23EC0
  8
0
 10
4119.181802356281878
 20
533.7539349650096483
 30
0.0
 11
4119.181802356281878
 21
533.8856197519855868
 31
0.0
  0
ARC
  5
23EC1
  8
0
 10
4119.1700023562816568
 20
533.7539349650096483
 30
0.0
 40
0.0118
 50
300.0013947756203265
 51
0.0
  0
LINE
  5
23EC2
  8
0
 10
4118.6425286856374441
 20
532.8718402246855703
 30
0.0
 11
4118.5518810982830473
 21
532.8718402246855703
 31
0.0
  0
LINE
  5
23EC3
  8
0
 10
4118.6675740577065881
 20
532.8915252640855442
 30
0.0
 11
4118.5518810982830473
 21
532.8915252640855442
 31
0.0
  0
LINE
  5
23EC4
  8
0
 10
4119.1818023580826775
 20
533.8856197501854695
 30
0.0
 11
4119.16211731668227
 21
533.9053047898855766
 31
0.0
  0
LINE
  5
23EC5
  8
0
 10
4119.1818023580826775
 20
533.8856197483854658
 30
0.0
 11
4117.9219598402823976
 21
533.8856197483854658
 31
0.0
  0
ARC
  5
23EC6
  8
0
 10
4119.1235413891063217
 20
538.6964113286996962
 30
0.0
 40
4.791540684842281
 50
270.8493107810750757
 51
278.0111806566623045
  0
LINE
  5
23EC7
  8
0
 10
4119.908323315207781
 20
534.0645749603152126
 30
0.0
 11
4117.1954388813583137
 21
534.0645749603152126
 31
0.0
  0
LINE
  5
23EC8
  8
0
 10
4117.1896717693671235
 20
534.078167861673478
 30
0.0
 11
4117.1741030854545897
 21
534.9878567811460925
 31
0.0
  0
ARC
  5
23EC9
  8
0
 10
4117.2093688849436148
 20
534.0785049639068802
 30
0.0
 40
0.0197
 50
180.9804811143569907
 51
224.9999999863894971
  0
ARC
  5
23ECA
  8
0
 10
4117.1838967906087419
 20
534.9880292541645304
 30
0.0
 40
0.0097952237145004
 50
89.971572382567814
 51
181.0089087318310987
  0
LINE
  5
23ECB
  8
0
 10
4117.3055116799887401
 20
533.9545021616315807
 30
0.0
 11
4117.1954388813519472
 21
534.0645749603207832
 31
0.0
  0
ARC
  5
23ECC
  8
0
 10
4117.3124413264458781
 20
533.9614318080856492
 30
0.0
 40
0.0098
 50
224.9999999863894971
 51
270.0
  0
LINE
  5
23ECD
  8
0
 10
4117.9219598402823976
 20
532.9033252640856517
 30
0.0
 11
4117.9219598402823976
 21
533.042675387440454
 31
0.0
  0
LINE
  5
23ECE
  8
0
 10
4117.9219598402823976
 20
533.7534495409000783
 30
0.0
 11
4117.9219598402823976
 21
533.8856197519855868
 31
0.0
  0
LINE
  5
23ECF
  8
0
 10
4117.9416598402822274
 20
532.8718402246855703
 30
0.0
 11
4118.5518810982830473
 21
532.8718402246855703
 31
0.0
  0
LINE
  5
23ED0
  8
0
 10
4117.9337598402817093
 20
532.8915252640855442
 30
0.0
 11
4118.5518810982830473
 21
532.8915252640855442
 31
0.0
  0
LINE
  5
23ED1
  8
0
 10
4118.0203850352818336
 20
532.8797142404855549
 30
0.0
 11
4118.0203850352818336
 21
532.8718402246855703
 31
0.0
  0
ARC
  5
23ED2
  8
0
 10
4117.9416598402822274
 20
532.8521402246856269
 30
0.0
 40
0.0197
 50
90.0000000000260485
 51
180.0000000000194973
  0
ARC
  5
23ED3
  8
0
 10
4117.9337598402817093
 20
532.9033252640856517
 30
0.0
 40
0.0118
 50
180.000000000032486
 51
269.9999999999478746
  0
ARC
  5
23ED4
  8
0
 10
4118.0085740116828674
 20
532.8797142404855549
 30
0.0
 40
0.0118110236000053
 50
0.0
 51
89.9999999999739515
  0
LINE
  5
23ED5
  8
0
 10
4117.9219598384815981
 20
533.8856197501854695
 30
0.0
 11
4117.9416448798829151
 21
533.9053047898855766
 31
0.0
  0
ARC
  5
23ED6
  8
0
 10
4117.9802208074579539
 20
538.6964113286996962
 30
0.0
 40
4.791540684842281
 50
261.9888193433375818
 51
269.1506892189249243
  0
LINE
  5
23ED7
  8
0
 10
4119.1227422455176566
 20
533.7062095938151742
 30
0.0
 11
4119.1227422455176566
 21
533.2801535556347972
 31
0.0
  0
LINE
  5
23ED8
  8
0
 10
4119.1759026050476677
 20
533.7437160088742303
 30
0.0
 11
4119.1286419967518668
 21
533.7164285499503649
 31
0.0
  0
ARC
  5
23ED9
  8
0
 10
4119.1345422455178777
 20
533.7062095938151742
 30
0.0
 40
0.0118
 50
120.0013947756201986
 51
180.0
  0
ARC
  5
23EDA
  8
0
 10
4119.3786327968191472
 20
532.5765496734732096
 30
0.0
 40
0.0197
 50
0.0
 51
90.0
  0
ARC
  5
23EDB
  8
0
 10
4119.4296459746792607
 20
532.5920761938129999
 30
0.0
 40
0.011628356461217
 50
88.5908904099055263
 51
180.3507597661098032
  0
LINE
  5
23EDC
  8
0
 10
4119.3983327968180674
 20
532.5765496734732096
 30
0.0
 11
4119.3983327968180674
 21
530.8442961302731646
 31
0.0
  0
LINE
  5
23EDD
  8
0
 10
4119.7329784659177676
 20
532.5893479865733298
 30
0.0
 11
4119.7329784659177676
 21
530.8314868891541209
 31
0.0
  0
LINE
  5
23EDE
  8
0
 10
4119.7447894896176877
 20
530.8296036592731753
 30
0.0
 11
4119.7447894896176877
 21
532.5912421444733127
 31
0.0
  0
LINE
  5
23EDF
  8
0
 10
4121.3899432792140942
 20
532.5868138937272533
 30
0.0
 11
4119.7547179004186546
 21
532.601084289400319
 31
0.0
  0
ARC
  5
23EE0
  8
0
 10
4121.389771497012589
 20
532.5671296038493665
 30
0.0
 40
0.0196850394239041
 50
44.9999999975680609
 51
89.4999999848177481
  0
ARC
  5
23EE1
  8
0
 10
4119.7546320093188115
 20
532.5912421444733127
 30
0.0
 40
0.0098425196999619
 50
89.4999999856776043
 51
180.0000000002052047
  0
LINE
  5
23EE2
  8
0
 10
4121.4770729542187837
 20
532.5035900908733311
 30
0.0
 11
4121.4770729541178298
 21
530.9172557125285721
 31
0.0
  0
ARC
  5
23EE3
  8
0
 10
4121.4672304347395766
 20
532.5035900912173474
 30
0.0
 40
0.0098425194785339
 50
359.9999979971050834
 51
45.0000006896581795
  0
LINE
  5
23EE4
  8
0
 10
4119.7212812501657027
 20
532.6011584669313379
 30
0.0
 11
4119.4299319290175845
 21
532.6037010337731772
 31
0.0
  0
ARC
  5
23EE5
  8
0
 10
4119.7211784659175464
 20
532.5893589145922533
 30
0.0
 40
0.0118
 50
0.0
 51
89.5009171156659846
  0
LINE
  5
23EE6
  8
0
 10
4121.4036909218775691
 20
532.5810490287134371
 30
0.0
 11
4121.4741901469233198
 21
532.5105498035684377
 31
0.0
  0
LINE
  5
23EE7
  8
0
 10
4119.3786327968191472
 20
532.5962496734731531
 30
0.0
 11
4119.2605945748246086
 21
532.5962496734731531
 31
0.0
  0
ARC
  5
23EE8
  8
0
 10
4119.2605945748246086
 20
532.6750496734731541
 30
0.0
 40
0.0788
 50
241.9547174081031073
 51
270.0
  0
ARC
  5
23EE9
  8
0
 10
4117.9337498514551044
 20
533.0421899633311114
 30
0.0
 40
0.0118
 50
120.0000000187398967
 51
180.0
  0
ARC
  5
23EEA
  8
0
 10
4117.9337498514551044
 20
533.7539349650096483
 30
0.0
 40
0.0118
 50
180.0
 51
239.9986052243797019
  0
LINE
  5
23EEB
  8
0
 10
4117.9810099622191046
 20
533.7062095938151742
 30
0.0
 11
4117.9810099622191046
 21
533.0899138005526083
 31
0.0
  0
ARC
  5
23EEC
  8
0
 10
4117.969209962217974
 20
533.0899138005526083
 30
0.0
 40
0.0118
 50
300.000000018739911
 51
0.0
  0
LINE
  5
23EED
  8
0
 10
4117.9278498514513558
 20
533.0524090630937053
 30
0.0
 11
4117.975109962220813
 21
533.0796947007899007
 31
0.0
  0
LINE
  5
23EEE
  8
0
 10
4117.9278496026881839
 20
533.7437160088742303
 30
0.0
 11
4117.9751102109839849
 21
533.7164285499503649
 31
0.0
  0
ARC
  5
23EEF
  8
0
 10
4117.969209962217974
 20
533.7062095938151742
 30
0.0
 40
0.0118
 50
0.0
 51
59.9986052243797232
  0
LINE
  5
23EF0
  8
0
 10
4117.9219598402823976
 20
532.8521402246856269
 30
0.0
 11
4117.9219575020533739
 21
532.6750486330372496
 31
0.0
  0
ARC
  5
23EF1
  8
0
 10
4117.8431575020604214
 20
532.6750496734731541
 30
0.0
 40
0.0788
 50
270.0
 51
359.9992434950495976
  0
LINE
  5
23EF2
  8
0
 10
4117.8431575020604214
 20
532.5962496734731531
 30
0.0
 11
4115.9534509070190325
 21
532.5962496734731531
 31
0.0
  0
ARC
  5
23EF3
  8
0
 10
4118.9282469686449986
 20
533.7815010183161348
 30
0.0
 40
1.495612039086835
 50
227.7143016431209901
 51
238.4465541868839864
  0
LINE
  5
23EF4
  8
0
 10
4115.9731359463057743
 20
530.8245961301731768
 30
0.0
 11
4116.7806059615468257
 21
530.8245961301731768
 31
0.0
  0
LINE
  5
23EF5
  8
0
 10
4119.7329784660187215
 20
532.5559616275731969
 30
0.0
 11
4119.7447894896176877
 21
532.5559616275731969
 31
0.0
  0
LINE
  5
23EF6
  8
0
 10
4119.4180178361184517
 20
532.5920050064731868
 30
0.0
 11
4119.4180178361184517
 21
530.828840797274097
 31
0.0
  0
LINE
  5
23EF7
  8
0
 10
4119.3983327967189325
 20
532.5483184240732726
 30
0.0
 11
4119.4180178361184517
 21
532.5483184240732726
 31
0.0
  0
LINE
  5
23EF8
  8
0
 10
4121.403690921886664
 20
532.5810490287042285
 30
0.0
 11
4121.403690921886664
 21
531.8219300814415647
 31
0.0
  0
ARC
  5
23EF9
  8
0
 10
4111.4667988351966414
 20
531.7104229108540494
 30
0.0
 40
10.0393698551573092
 50
1.629243461713364
 51
4.3215233192940854
  0
ARC
  5
23EFA
  8
0
 10
4121.4697741750178466
 20
532.4663284136731818
 30
0.0
 40
0.0078740156999282
 50
4.3286906029382379
 51
21.7568468785557982
  0
LINE
  5
23EFB
  8
0
 10
4118.0501172937183583
 20
532.4520181805089578
 30
0.0
 11
4118.0856372106673007
 21
532.091929373673338
 31
0.0
  0
LINE
  5
23EFC
  8
0
 10
4117.9548316523441827
 20
532.0533833237041108
 30
0.0
 11
4118.0286555629763825
 21
532.0533835532922922
 31
0.0
  0
ARC
  5
23EFD
  8
0
 10
4118.0286730314228407
 20
532.073214293158685
 30
0.0
 40
0.0198307475602488
 50
269.9495294636175799
 51
283.0984243331361085
  0
ARC
  5
23EFE
  8
0
 10
4117.9753778665308346
 20
532.3022676503705952
 30
0.0
 40
0.255002631617111
 50
283.0982972172757854
 51
289.0214931670992087
  0
ARC
  5
23EFF
  8
0
 10
4118.036745332652572
 20
532.1242605375352923
 30
0.0
 40
0.0667142939055791
 50
289.0214931670992087
 51
303.1852271317081886
  0
ARC
  5
23F00
  8
0
 10
4118.0559276571912051
 20
532.0925642507471593
 30
0.0
 40
0.0297163361910669
 50
305.6830682250251812
 51
358.7758065314083069
  0
LINE
  5
23F01
  8
0
 10
4118.0344545191182988
 20
532.0865792238731729
 30
0.0
 11
4117.9243516658707449
 21
532.0865795465732617
 31
0.0
  0
ARC
  5
23F02
  8
0
 10
4118.0344183194538346
 20
532.1060705444674568
 30
0.0
 40
0.0194913542095431
 50
270.1064107299301895
 51
4.8341529522057876
  0
ARC
  5
23F03
  8
0
 10
4118.1485908012518848
 20
532.135062906299936
 30
0.0
 40
0.0986187664260635
 50
183.110158582247692
 51
196.1008229557259028
  0
ARC
  5
23F04
  8
0
 10
4119.3786327968191472
 20
530.8442961302731646
 30
0.0
 40
0.0197
 50
270.0
 51
0.0
  0
ARC
  5
23F05
  8
0
 10
4119.4296459746792607
 20
530.8287696099337154
 30
0.0
 40
0.011628356461217
 50
179.6492402338901115
 51
271.4091095900944879
  0
LINE
  5
23F06
  8
0
 10
4121.3899432792140942
 20
530.8340319100193483
 30
0.0
 11
4119.7547179004186546
 21
530.8197615143462826
 31
0.0
  0
ARC
  5
23F07
  8
0
 10
4121.389771497012589
 20
530.8537161998970078
 30
0.0
 40
0.0196850394239041
 50
270.5000000151823087
 51
315.0000000024319888
  0
ARC
  5
23F08
  8
0
 10
4119.7546320093188115
 20
530.8296036592731753
 30
0.0
 40
0.0098425196999619
 50
179.9999999997914983
 51
270.5000000143223815
  0
ARC
  5
23F09
  8
0
 10
4121.4672304347395766
 20
530.9172557125292542
 30
0.0
 40
0.0098425194785339
 50
314.9999993103418205
 51
0.0000020028949233
  0
LINE
  5
23F0A
  8
0
 10
4119.7212812501657027
 20
530.81968733681515
 30
0.0
 11
4119.4299319290175845
 21
530.8171447699733108
 31
0.0
  0
ARC
  5
23F0B
  8
0
 10
4119.7211784659175464
 20
530.8314868891541209
 30
0.0
 40
0.0118
 50
270.4990828843339727
 51
0.0
  0
LINE
  5
23F0C
  8
0
 10
4121.4036909218775691
 20
530.8397967750330508
 30
0.0
 11
4121.4741901469233198
 21
530.9102960001782776
 31
0.0
  0
LINE
  5
23F0D
  8
0
 10
4119.3786327968191472
 20
530.8245961302733349
 30
0.0
 11
4118.2876522666329038
 21
530.8245961302731075
 31
0.0
  0
LINE
  5
23F0E
  8
0
 10
4119.7329784660187215
 20
530.8648841761732911
 30
0.0
 11
4119.7447894896176877
 21
530.8648841761732911
 31
0.0
  0
LINE
  5
23F0F
  8
0
 10
4119.3983327967189325
 20
530.8725273796733291
 30
0.0
 11
4119.4180178361184517
 21
530.8725273796733291
 31
0.0
  0
LINE
  5
23F10
  8
0
 10
4121.403690921886664
 20
530.8397967750423732
 30
0.0
 11
4121.403690921886664
 21
531.6343487931872005
 31
0.0
  0
ARC
  5
23F11
  8
0
 10
4111.4667987129905669
 20
531.7104229006846481
 30
0.0
 40
10.0393699776021297
 50
355.6784766889143725
 51
1.629243499896518
  0
ARC
  5
23F12
  8
0
 10
4121.4697741750178466
 20
530.9545173900731925
 30
0.0
 40
0.0078740156999282
 50
338.2431531214442089
 51
355.6713093970618047
  0
ARC
  5
23F13
  8
0
 10
4118.9965534436350936
 20
531.3595583568239817
 30
0.0
 40
0.9129470291114692
 50
182.0132892889353116
 51
200.9635793774993999
  0
ARC
  5
23F14
  8
0
 10
4118.6458274522810825
 20
531.2251829935510159
 30
0.0
 40
0.5373602092337147
 50
200.9635793774963872
 51
229.4353134936773984
  0
ARC
  5
23F15
  8
0
 10
4119.7439347905137765
 20
532.5079660520705147
 30
0.0
 40
2.225960843340522
 50
229.4353134936773984
 51
240.6997845646232008
  0
ARC
  5
23F16
  8
0
 10
4114.9235187185258837
 20
523.9181613187919311
 30
0.0
 40
7.6239709565722178
 50
57.0343782931470997
 51
60.6997845646231724
  0
ARC
  5
23F17
  8
0
 10
4124.1765670924760343
 20
531.4904648114554675
 30
0.0
 40
6.0950502895580883
 50
178.0515593676751962
 51
181.3988737587339131
  0
ARC
  5
23F18
  8
0
 10
4116.7207093955330492
 20
526.2820744638846691
 30
0.0
 40
4.668057906874969
 50
56.3109841603252335
 51
59.7698676822883002
  0
ARC
  5
23F19
  8
0
 10
4118.7232192836772811
 20
529.2859587591447053
 30
0.0
 40
1.057882466342438
 50
36.8761565315885989
 51
56.3109841603252335
  0
ARC
  5
23F1A
  8
0
 10
4119.0595917972123061
 20
529.5382955626179182
 30
0.0
 40
0.6373823709221976
 50
1.658512154691514
 51
36.8761565315885989
  0
ARC
  5
23F1B
  8
0
 10
4119.0790744969435764
 20
529.5544845966647927
 30
0.0
 40
0.6176367874437134
 50
332.5683096387940054
 51
0.20950137098622
  0
ARC
  5
23F1C
  8
0
 10
4118.4042838742561798
 20
529.94452932105537
 30
0.0
 40
1.396691063279716
 50
311.0897464193187147
 51
331.1192988550919267
  0
ARC
  5
23F1D
  8
0
 10
4118.1504648697091397
 20
530.32632758305067
 30
0.0
 40
1.852225521143241
 50
294.3120005066531917
 51
309.2447198353607973
  0
ARC
  5
23F1E
  8
0
 10
4117.7240293066897721
 20
531.2721540971006107
 30
0.0
 40
2.8897392272641591
 50
280.6469416164010227
 51
294.2964612938284859
  0
ARC
  5
23F1F
  8
0
 10
4117.5660276710977996
 20
531.9879452701475202
 30
0.0
 40
3.6224726414398112
 50
276.2823531302344122
 51
281.0112734774298815
  0
ARC
  5
23F20
  8
0
 10
4117.5338858743953097
 20
532.2904423867074684
 30
0.0
 40
3.9266705611418411
 50
266.1583129491987165
 51
276.2655302191093938
  0
ARC
  5
23F21
  8
0
 10
4117.5086392259181594
 20
532.0126416421855993
 30
0.0
 40
3.647808446920735
 50
257.4380670572220993
 51
266.2616221553304854
  0
ARC
  5
23F22
  8
0
 10
4117.3104513954604045
 20
531.1817280440479863
 30
0.0
 40
2.7937098449097291
 50
241.400250106305208
 51
257.699025072183872
  0
ARC
  5
23F23
  8
0
 10
4117.1670654880763323
 20
531.4366076057549435
 30
0.0
 40
2.8201368575610379
 50
244.9531798610859994
 51
257.5755254934392156
  0
ARC
  5
23F24
  8
0
 10
4117.546945326009336
 20
533.1608879264872485
 30
0.0
 40
4.5857674292641812
 50
257.5755254934392156
 51
265.3880005233542079
  0
ARC
  5
23F25
  8
0
 10
4117.5332316932308458
 20
533.2377433965269802
 30
0.0
 40
4.6613136256748771
 50
265.6319805225404025
 51
277.4450895419579979
  0
ARC
  5
23F26
  8
0
 10
4117.7125501356958921
 20
532.049329727022382
 30
0.0
 40
3.4597654978295038
 50
277.0506651533124227
 51
291.1072009583040767
  0
ARC
  5
23F27
  8
0
 10
4118.2517838277653937
 20
530.6266176019053091
 30
0.0
 40
1.9383421676009791
 50
291.3816015505050245
 51
303.7279676236306045
  0
ARC
  5
23F28
  8
0
 10
4118.7647744524028894
 20
529.8717485129051283
 30
0.0
 40
1.0257194075304099
 50
303.3087820564396111
 51
323.706047142489524
  0
ARC
  5
23F29
  8
0
 10
4119.1029081445676638
 20
529.613779895781704
 30
0.0
 40
0.6005381594958131
 50
324.4473338913763882
 51
344.1063681273059274
  0
ARC
  5
23F2A
  8
0
 10
4119.2203345489051571
 20
529.5737296844206412
 30
0.0
 40
0.4766753703281854
 50
344.8710553384025275
 51
357.9577863438789791
  0
CIRCLE
  5
23F2B
  8
0
 10
4119.2211673503179554
 20
532.1041233782732434
 30
0.0
 40
0.0393700054999968
  0
CIRCLE
  5
23F2C
  8
0
 10
4119.2211675345188269
 20
531.3167224254732446
 30
0.0
 40
0.0393700054999968
  0
ARC
  5
23F2D
  8
0
 10
4117.3664815279153117
 20
532.0063286772315223
 30
0.0
 40
3.4639480351273431
 50
246.2815847138244862
 51
264.775872158715174
  0
ARC
  5
23F2E
  8
0
 10
4117.5342248303359156
 20
533.2359319008168086
 30
0.0
 40
4.7040396003907778
 50
264.1048690797794052
 51
275.7192310670001234
  0
ARC
  5
23F2F
  8
0
 10
4117.6920279819296411
 20
532.075602848416338
 30
0.0
 40
3.5340031331015642
 50
275.0482279880567944
 51
291.5265918160559977
  0
ARC
  5
23F30
  8
0
 10
4118.3614471505534311
 20
530.3784935469178663
 30
0.0
 40
1.709639681222485
 50
291.5265918160559977
 51
308.3475725658101965
  0
ARC
  5
23F31
  8
0
 10
4118.9066284165128309
 20
529.6893515165158988
 30
0.0
 40
0.8309250797618076
 50
308.3475725658101965
 51
334.4266505171264043
  0
LINE
  5
23F32
  8
0
 10
4116.5337785922183684
 20
528.4524364869731698
 30
0.0
 11
4116.5314113583526705
 21
528.4988357021654792
 31
0.0
  0
LINE
  5
23F33
  8
0
 10
4116.6619667320182998
 20
528.4300361954733489
 30
0.0
 11
4116.6654250279543703
 21
528.4635014746155548
 31
0.0
  0
ARC
  5
23F34
  8
0
 10
4116.6489936780226344
 20
528.6825191576430143
 30
0.0
 40
0.2641758625476692
 50
245.5900080021876022
 51
260.2515953354919134
  0
ARC
  5
23F35
  8
0
 10
4116.7185035938700821
 20
529.0871105358413615
 30
0.0
 40
0.6746948166943775
 50
260.2515953354919134
 51
262.91499640079968
  0
ARC
  5
23F36
  8
0
 10
4116.6409000810681391
 20
528.4627399836056156
 30
0.0
 40
0.045520046301871
 50
262.91499640079968
 51
285.0168889548608036
  0
ARC
  5
23F37
  8
0
 10
4116.6494414164935733
 20
528.4309008294361547
 30
0.0
 40
0.012555123291358
 50
285.0168889548883726
 51
356.0510846389154835
  0
ARC
  5
23F38
  8
0
 10
4116.5476124758388323
 20
528.4534307604501464
 30
0.0
 40
0.0138695679734953
 50
184.1109125260761061
 51
235.8143973012412005
  0
ARC
  5
23F39
  8
0
 10
4117.0836695638818128
 20
528.3962661241373553
 30
0.0
 40
0.0209349922931556
 50
191.3706905321068064
 51
242.9185518448686878
  0
ARC
  5
23F3A
  8
0
 10
4117.1140872408177529
 20
528.4557549669162881
 30
0.0
 40
0.0877493431869361
 50
242.9185518448686878
 51
263.9583885618171735
  0
ARC
  5
23F3B
  8
0
 10
4117.285395924363911
 20
530.0743395909413493
 30
0.0
 40
1.7153742539660251
 50
263.9583885618171735
 51
264.9774851779936853
  0
ARC
  5
23F3C
  8
0
 10
4117.1454205030049707
 20
528.4816219442760712
 30
0.0
 40
0.11651759354144
 50
264.9774851779936853
 51
282.5392553394414108
  0
ARC
  5
23F3D
  8
0
 10
4117.1598420763393733
 20
528.4167806997865
 30
0.0
 40
0.0500919300944153
 50
282.5392553394414108
 51
298.2365338688892962
  0
ARC
  5
23F3E
  8
0
 10
4117.1764913290116965
 20
528.3857774595852561
 30
0.0
 40
0.0149010432403724
 50
298.2365338689137957
 51
332.1063628408484192
  0
LINE
  5
23F3F
  8
0
 10
4117.4698143173964127
 20
528.3162818793311999
 30
0.0
 11
4117.4661180901975968
 21
528.3643566485756082
 31
0.0
  0
LINE
  5
23F40
  8
0
 10
4117.5985049068176522
 20
528.3162830161733154
 30
0.0
 11
4117.6022017769773811
 21
528.3643661478663489
 31
0.0
  0
ARC
  5
23F41
  8
0
 10
4117.5291188773198883
 20
528.950453200174934
 30
0.0
 40
0.6481599080229117
 50
266.6196055071901014
 51
270.4455654539585794
  0
ARC
  5
23F42
  8
0
 10
4117.4948618976986836
 20
528.3704905883421361
 30
0.0
 40
0.0671864389414894
 50
256.7684906531932256
 51
266.6196055071901014
  0
ARC
  5
23F43
  8
0
 10
4117.4823675234765687
 20
528.317352016624227
 30
0.0
 40
0.0125987371081125
 50
184.8725772152579907
 51
256.7684906531670777
  0
ARC
  5
23F44
  8
0
 10
4117.5371612200851814
 20
529.0559826078646211
 30
0.0
 40
0.7536756954116696
 50
269.7717877849802903
 51
272.9020060597130737
  0
ARC
  5
23F45
  8
0
 10
4117.5711659498620065
 20
528.3851841639203712
 30
0.0
 40
0.0820159050079793
 50
272.9020060597130737
 51
282.4640316136876095
  0
ARC
  5
23F46
  8
0
 10
4117.5862034190104168
 20
528.3171415022299016
 30
0.0
 40
0.0123314070815896
 50
282.4750003531605103
 51
356.0079618741741001
  0
LINE
  5
23F47
  8
0
 10
4118.5345388096184251
 20
528.4524364869731698
 30
0.0
 11
4118.5369060434841231
 21
528.4988357021654792
 31
0.0
  0
LINE
  5
23F48
  8
0
 10
4118.4063506698175843
 20
528.4300361954733489
 30
0.0
 11
4118.4028923738833328
 21
528.4635014746155548
 31
0.0
  0
ARC
  5
23F49
  8
0
 10
4118.4193237238159782
 20
528.6825191576430143
 30
0.0
 40
0.2641758625476692
 50
279.7484046645080866
 51
294.4099919978124262
  0
ARC
  5
23F4A
  8
0
 10
4118.3498138079667115
 20
529.0871105358413615
 30
0.0
 40
0.6746948166943775
 50
277.08500359920032
 51
279.7484046645080866
  0
ARC
  5
23F4B
  8
0
 10
4118.4274173207686545
 20
528.4627399836056156
 30
0.0
 40
0.045520046301871
 50
254.9831110451393101
 51
277.08500359920032
  0
ARC
  5
23F4C
  8
0
 10
4118.4188759853432202
 20
528.4309008294361547
 30
0.0
 40
0.012555123291358
 50
183.948915361084488
 51
254.983111045111599
  0
ARC
  5
23F4D
  8
0
 10
4118.5207049259970518
 20
528.4534307604501464
 30
0.0
 40
0.0138695679734953
 50
304.1856026987587143
 51
355.8890874739238939
  0
ARC
  5
23F4E
  8
0
 10
4117.9846478379549808
 20
528.3962661241373553
 30
0.0
 40
0.0209349922931556
 50
297.0814481551312838
 51
348.6293094678932221
  0
ARC
  5
23F4F
  8
0
 10
4117.9542301610190407
 20
528.4557549669162881
 30
0.0
 40
0.0877493431869361
 50
276.0416114381827128
 51
297.0814481551312838
  0
ARC
  5
23F50
  8
0
 10
4117.7829214774728825
 20
530.0743395909413493
 30
0.0
 40
1.7153742539660251
 50
275.0225148220063147
 51
276.0416114381827128
  0
ARC
  5
23F51
  8
0
 10
4117.9228968988318229
 20
528.4816219442760712
 30
0.0
 40
0.11651759354144
 50
257.4607446605585892
 51
275.0225148220063147
  0
ARC
  5
23F52
  8
0
 10
4117.9084753254983298
 20
528.4167806997865
 30
0.0
 40
0.0500919300944153
 50
241.7634661311107038
 51
257.4607446605585892
  0
ARC
  5
23F53
  8
0
 10
4117.8918260728241876
 20
528.3857774595852561
 30
0.0
 40
0.0149010432403724
 50
207.8936371591516092
 51
241.7634661310862896
  0
LINE
  5
23FB1
  8
0
 10
4111.4849469700184272
 20
532.5818035815924532
 30
0.0
 11
4111.4849469700184272
 21
530.8390422221541485
 31
0.0
  0
LINE
  5
23FB2
  8
0
 10
4111.4416398833191124
 20
530.8312246675244523
 30
0.0
 11
4111.4416398833191124
 21
532.5896100159733351
 31
0.0
  0
LINE
  5
23FB3
  8
0
 10
4109.7928660572060835
 20
532.5871247981701799
 30
0.0
 11
4111.4297369101059303
 21
532.6014095666646426
 31
0.0
  0
ARC
  5
23FB4
  8
0
 10
4109.7930379701110724
 20
532.5674255482872468
 30
0.0
 40
0.0197
 50
90.500000453966905
 51
134.9999999795911094
  0
ARC
  5
23FB5
  8
0
 10
4111.4298398833188912
 20
532.5896100159733351
 30
0.0
 40
0.0118
 50
0.0
 51
90.500000453966905
  0
LINE
  5
23FB6
  8
0
 10
4109.7093564188189703
 20
532.5075447113097198
 30
0.0
 11
4109.7093564188189703
 21
530.9133010923410438
 31
0.0
  0
ARC
  5
23FB7
  8
0
 10
4109.7191564188178745
 20
532.5075447113097198
 30
0.0
 40
0.0098
 50
134.9999999795911094
 51
180.0
  0
ARC
  5
23FB8
  8
0
 10
4109.7191564188178745
 20
530.9133010923410438
 30
0.0
 40
0.0098
 50
180.0
 51
225.0002206917739898
  0
LINE
  5
23FB9
  8
0
 10
4109.7928778083833095
 20
530.8337097697253739
 30
0.0
 11
4111.4297369101996082
 21
530.819425116832349
 31
0.0
  0
ARC
  5
23FBA
  8
0
 10
4111.4298398833188912
 20
530.8312246675244523
 30
0.0
 40
0.0118
 50
269.5000000028225031
 51
0.0
  0
LINE
  5
23FBB
  8
0
 10
4111.4966441857723112
 20
532.5936031339311967
 30
0.0
 11
4111.7880046268082879
 21
532.5961457977866758
 31
0.0
  0
ARC
  5
23FBC
  8
0
 10
4111.7881075999175664
 20
532.5843462470944587
 30
0.0
 40
0.0118
 50
0.0
 51
90.4999999620538773
  0
ARC
  5
23FBD
  8
0
 10
4111.4967469700177389
 20
532.5818035815924532
 30
0.0
 40
0.0118
 50
90.4990828843601065
 51
180.0
  0
LINE
  5
23FBE
  8
0
 10
4111.4416398833191124
 20
532.5368166201733402
 30
0.0
 11
4111.4732390156641486
 21
532.5370923817009725
 31
0.0
  0
ARC
  5
23FBF
  8
0
 10
4111.4731359462457476
 20
532.5489029557452341
 30
0.0
 40
0.0118110237725269
 50
270.5000002634187126
 51
359.99999916610642
  0
ARC
  5
23FC0
  8
0
 10
4119.4864847551252751
 20
531.7145755914029905
 30
0.0
 40
9.8062249518861613
 50
175.586243812467103
 51
180.0242633217108903
  0
LINE
  5
23FC1
  8
0
 10
4109.779119771196747
 20
530.8394789623648649
 30
0.0
 11
4109.712226799054406
 21
530.9063714191937606
 31
0.0
  0
ARC
  5
23FC2
  8
0
 10
4109.7930497211318652
 20
530.8534090196098987
 30
0.0
 40
0.0197
 50
225.0002206917739898
 51
269.5000000028225031
  0
ARC
  5
23FC3
  8
0
 10
4119.459868049420038
 20
531.7052501457839071
 30
0.0
 40
9.7796087349221281
 50
179.9696943800273914
 51
184.4197984858325015
  0
ARC
  5
23FC4
  8
0
 10
4111.4967469786079164
 20
530.8390422256901502
 30
0.0
 40
0.0118000085895941
 50
180.0000171694113078
 51
269.5530193271242752
  0
LINE
  5
23FC5
  8
0
 10
4111.4416398833191124
 20
530.8840291835733751
 30
0.0
 11
4111.4732390156641486
 21
530.8837534220455154
 31
0.0
  0
ARC
  5
23FC6
  8
0
 10
4111.4731359462457476
 20
530.8719428480013676
 30
0.0
 40
0.0118110237725269
 50
0.0000008338936019
 51
89.4999997365813158
  0
LINE
  5
23FC7
  8
0
 10
4109.712226772365284
 20
532.5144743577676536
 30
0.0
 11
4109.7791079665257712
 21
532.5813555518815292
 31
0.0
  0
LINE
  5
23FC8
  8
0
 10
4111.7999075999186971
 20
532.5843351268732704
 30
0.0
 11
4111.7999075999186971
 21
530.8364995565235631
 31
0.0
  0
ARC
  5
23FC9
  8
0
 10
4111.7881075999175664
 20
530.8364995565235631
 30
0.0
 40
0.0118
 50
269.4999999985752765
 51
0.0
  0
LINE
  5
23FCA
  8
0
 10
4111.8196079672843553
 20
532.5962496731873443
 30
0.0
 11
4111.9376415634142177
 21
532.5962474720970476
 31
0.0
  0
ARC
  5
23FCB
  8
0
 10
4111.8196075999176173
 20
532.5765496731909252
 30
0.0
 40
0.0197
 50
89.9989315483470591
 51
180.0
  0
ARC
  5
23FCC
  8
0
 10
4111.9376430328757124
 20
532.6750474720832926
 30
0.0
 40
0.0788
 50
269.9989315483470023
 51
0.0000420618942182
  0
LINE
  5
23FCD
  8
0
 10
4113.2565854188687808
 20
532.8718402246732921
 30
0.0
 11
4112.0361429028680504
 21
532.8718402246732921
 31
0.0
  0
LINE
  5
23FCE
  8
0
 10
4113.2644854188683894
 20
532.891525264073266
 30
0.0
 11
4112.0282429028684419
 21
532.891525264073266
 31
0.0
  0
LINE
  5
23FCF
  8
0
 10
4113.1778602238691747
 20
532.8797142404732767
 30
0.0
 11
4113.1778602238691747
 21
532.8718402246732921
 31
0.0
  0
ARC
  5
23FD0
  8
0
 10
4113.2565854188687808
 20
532.8521402246733487
 30
0.0
 40
0.0197
 50
359.9999999999772058
 51
89.9999999999739515
  0
ARC
  5
23FD1
  8
0
 10
4113.2644854188683894
 20
532.9033252640733735
 30
0.0
 40
0.0118
 50
270.0000000000521254
 51
359.9999999999641886
  0
ARC
  5
23FD2
  8
0
 10
4113.1896712474690503
 20
532.8797142404732767
 30
0.0
 40
0.0118110236000053
 50
90.0000000000260485
 51
180.0
  0
LINE
  5
23FD3
  8
0
 10
4112.1148680978676566
 20
532.8797142404732767
 30
0.0
 11
4112.1148680978676566
 21
532.8718402246732921
 31
0.0
  0
ARC
  5
23FD4
  8
0
 10
4112.0361429028680504
 20
532.8521402246733487
 30
0.0
 40
0.0197
 50
90.0000000000260485
 51
180.0000000000194973
  0
ARC
  5
23FD5
  8
0
 10
4112.0282429028684419
 20
532.9033252640733735
 30
0.0
 40
0.0118
 50
180.000000000032486
 51
269.9999999999478746
  0
ARC
  5
23FD6
  8
0
 10
4112.1030570742686905
 20
532.8797142404732767
 30
0.0
 40
0.0118110236000053
 50
0.0
 51
89.9999999999739515
  0
LINE
  5
23FD7
  8
0
 10
4112.0164429028691302
 20
532.8521402246733487
 30
0.0
 11
4112.0164430328759408
 21
532.6750475299319305
 31
0.0
  0
LINE
  5
23FD8
  8
0
 10
4113.2762854188677011
 20
532.8521402246733487
 30
0.0
 11
4113.2762828968761823
 21
532.6750486561254547
 31
0.0
  0
ARC
  5
23FD9
  8
0
 10
4113.3550828968682254
 20
532.6750475339207469
 30
0.0
 40
0.0788
 50
179.9991840406698884
 51
270.0002780467290791
  0
LINE
  5
23FDA
  8
0
 10
4113.3550832792707297
 20
532.5962475339216553
 30
0.0
 11
4113.7959705920184206
 21
532.5962496734731531
 31
0.0
  0
LINE
  5
23FDB
  8
0
 10
4113.7959706267065485
 20
532.7268037570912611
 30
0.0
 11
4113.7961207403177468
 21
532.490249226973333
 31
0.0
  0
ARC
  5
23FDC
  8
0
 10
4113.8353706187735952
 20
532.7268287596778009
 30
0.0
 40
0.0394
 50
90.5000000024929392
 51
180.0363589537599864
  0
LINE
  5
23FDD
  8
0
 10
4111.7880046267991929
 20
530.8247000058314597
 30
0.0
 11
4111.4966549243190457
 21
530.827242576173262
 31
0.0
  0
ARC
  5
23FDE
  8
0
 10
4119.6819596861523678
 20
531.6975140220929461
 30
0.0
 40
5.9387179359512441
 50
172.6883316760437026
 51
187.3085293380044902
  0
ARC
  5
23FDF
  8
0
 10
4113.8305655636449956
 20
530.9470883528069862
 30
0.0
 40
0.0394000416710345
 50
187.367068630650607
 51
269.499977287248214
  0
ARC
  5
23FE0
  8
0
 10
4113.8294449456170696
 20
532.4484497511608652
 30
0.0
 40
0.0382236128148645
 50
88.8816282714648906
 51
172.6880947559824051
  0
LINE
  5
23FE1
  8
0
 10
4113.7961211354177067
 20
532.4902491929733515
 30
0.0
 11
4113.791532166496836
 21
532.453314497401152
 31
0.0
  0
LINE
  5
23FE2
  8
0
 10
4113.791532166496836
 20
532.453314497401152
 30
0.0
 11
4113.7914907683243655
 21
530.942036258760595
 31
0.0
  0
LINE
  5
23FE3
  8
0
 10
4109.7791235256181608
 20
532.5813711110686199
 30
0.0
 11
4109.7791235256181608
 21
531.8035514351995516
 31
0.0
  0
LINE
  5
23FE4
  8
0
 10
4109.7191130457176769
 20
531.8030277316742058
 30
0.0
 11
4111.4416398833191124
 21
531.8180580511882454
 31
0.0
  0
ARC
  5
23FE5
  8
0
 10
4109.7192011010029091
 20
531.7931833867643263
 30
0.0
 40
0.0098443418971647
 50
90.5092817023143539
 51
179.9894028906863923
  0
LINE
  5
23FE6
  8
0
 10
4109.7791235256181608
 20
530.8394635724291675
 30
0.0
 11
4109.7791235256181608
 21
531.6172832482983495
 31
0.0
  0
LINE
  5
23FE7
  8
0
 10
4109.7191130457176769
 20
531.6178069518236953
 30
0.0
 11
4111.4416398833191124
 21
531.602776632309542
 31
0.0
  0
ARC
  5
23FE8
  8
0
 10
4109.7192011010029091
 20
531.6276512967334611
 30
0.0
 40
0.0098443418971647
 50
180.010597109313494
 51
269.4907182976855893
  0
ARC
  5
23FE9
  8
0
 10
4112.007926872047392
 20
534.1519473396906506
 30
0.0
 40
1.946781119498344
 50
299.253137601201388
 51
310.6558822523480785
  0
ARC
  5
23FEA
  8
0
 10
4112.5971233078444129
 20
533.1000103761874698
 30
0.0
 40
0.7410764230575273
 50
283.8831185909705823
 51
299.2526144644501755
  0
ARC
  5
23FEB
  8
0
 10
4112.645250181101801
 20
532.9052926993489336
 30
0.0
 40
0.5404993316364273
 50
270.117834281796604
 51
283.8831185909705823
  0
ARC
  5
23FEC
  8
0
 10
4112.6452242891173228
 20
532.9178824084996222
 30
0.0
 40
0.5530890674117536
 50
246.3887186800311895
 51
270.117834281796604
  0
ARC
  5
23FED
  8
0
 10
4113.0227471397702175
 20
533.7815282311128158
 30
0.0
 40
1.4956428375916151
 50
227.7146165710738046
 51
246.3886223300929998
  0
CIRCLE
  5
24786
  8
0
 10
4119.5676183401692469
 20
531.7281389382733323
 30
0.0
 40
0.0393695125999969
  0
ARC
  5
24787
  8
0
 10
4121.0887927684580063
 20
526.7834268894531533
 30
0.0
 40
7.624404645706603
 50
120.1801736856794065
 51
130.3240349246127892
  0
ARC
  5
24788
  8
0
 10
4119.815854809216944
 20
528.9722951496758014
 30
0.0
 40
5.0923076276827102
 50
111.2388472376770068
 51
120.1801736856794065
  0
ARC
  5
24789
  8
0
 10
4118.4862781898700632
 20
531.0140298500101608
 30
0.0
 40
2.0925391955247061
 50
116.3149701671572984
 51
130.8762904507009068
  0
ARC
  5
2478A
  8
0
 10
4114.7561792943633918
 20
538.5563495472614477
 30
0.0
 40
6.3217477134065314
 50
296.3149701671572984
 51
299.1092927448950718
  0
ARC
  5
2478B
  8
0
 10
4118.4100740695248533
 20
531.9941011505469532
 30
0.0
 40
1.1891810605967299
 50
111.1497265074956999
 51
119.1092927448951002
  0
ARC
  5
2478C
  8
0
 10
4121.0101933035139155
 20
528.132181150421502
 30
0.0
 40
4.6687821403739269
 50
120.8735824311928013
 51
128.8647085512241972
  0
ARC
  5
2478D
  8
0
 10
4112.3939401251809613
 20
540.899739117033846
 30
0.0
 40
10.7442049937077702
 50
305.3775808179047999
 51
309.4644028727619798
  0
ARC
  5
2478E
  8
0
 10
4115.6172437994500797
 20
536.9445136456065484
 30
0.0
 40
5.6420232526253731
 50
309.7231829400806191
 51
312.275942829875703
  0
ARC
  5
2478F
  8
0
 10
4117.8001903072217829
 20
534.5990093376557297
 30
0.0
 40
2.4383667523184629
 50
311.3978821213800074
 51
324.3174313307561079
  0
ARC
  5
24790
  8
0
 10
4119.2539115736253734
 20
533.5550751285798015
 30
0.0
 40
0.648644943413296
 50
324.3174313307561079
 51
348.9676165426254215
  0
ARC
  5
24791
  8
0
 10
4119.4552701912589328
 20
533.5158168576997468
 30
0.0
 40
0.4434949867274911
 50
348.9676165426254215
 51
11.7752350757117892
  0
ARC
  5
24792
  8
0
 10
4119.4771921201590885
 20
533.5203866993033444
 30
0.0
 40
0.4211018087718085
 50
11.7752350757149795
 51
31.0997122219328794
  0
ARC
  5
24793
  8
0
 10
4119.4488435900238983
 20
533.5032859668143601
 30
0.0
 40
0.4542088203014202
 50
31.0997122219328794
 51
59.7156139706341804
  0
ARC
  5
24794
  8
0
 10
4119.2710162357252557
 20
533.1987804539622857
 30
0.0
 40
0.8068363508409321
 50
59.7156139706341804
 51
64.9738841737356552
  0
ARC
  5
24795
  8
0
 10
4109.2386206012497496
 20
545.2321131932984599
 30
0.0
 40
15.5326282027500593
 50
304.5661086741548047
 51
305.2056098767624235
  0
ARC
  5
24796
  8
0
 10
4109.488041939815048
 20
544.8786093930209518
 30
0.0
 40
15.0999898538461608
 50
305.2056098767624235
 51
306.4840141782103728
  0
ARC
  5
24797
  8
0
 10
4113.6641233936052231
 20
539.2316648624816935
 30
0.0
 40
8.0766260700401578
 50
306.4840141782103728
 51
312.090260654912413
  0
ARC
  5
24798
  8
0
 10
4117.9809462855828315
 20
534.4525094383141095
 30
0.0
 40
1.636495135885996
 50
312.090260654912413
 51
323.3167764029436739
  0
ARC
  5
24799
  8
0
 10
4119.0398939996193803
 20
532.9676329509766219
 30
0.0
 40
0.5893249465028451
 50
69.9019442638610968
 51
81.8957385836298783
  0
ARC
  5
2479A
  8
0
 10
4119.1560052792819988
 20
533.2849552998875424
 30
0.0
 40
0.2514265854781091
 50
59.1888393437982501
 51
69.9019442638610968
  0
ARC
  5
2479B
  8
0
 10
4119.0945542628796829
 20
533.1819159004301127
 30
0.0
 40
0.3713988541793194
 50
55.8354266443414886
 51
59.1888393437982501
  0
ARC
  5
2479C
  8
0
 10
4118.8260763963226054
 20
533.8043199584841432
 30
0.0
 40
0.5717157197808804
 50
324.8145294877676861
 51
326.5543995135590762
  0
LINE
  5
2479D
  8
0
 10
4121.4770729541760375
 20
531.8212912557297614
 30
0.0
 11
4121.0100740637526542
 21
531.8253661661360638
 31
0.0
  0
LINE
  5
2479E
  8
0
 10
4120.2118495536751652
 20
531.832331264832078
 30
0.0
 11
4119.7546252583679234
 21
531.8363208846733414
 31
0.0
  0
LINE
  5
2479F
  8
0
 10
4121.477072954164214
 20
531.6362752187679916
 30
0.0
 11
4121.0100740618981945
 21
531.6322003083455456
 31
0.0
  0
LINE
  5
247A0
  8
0
 10
4120.2118495590293605
 20
531.6252352097124003
 30
0.0
 11
4119.7546252583679234
 21
531.621245589824639
 31
0.0
  0
ARC
  5
247A1
  8
0
 10
4119.755627634328448
 20
531.6324614454144921
 30
0.0
 40
0.0112524900954626
 50
195.5968288273585074
 51
265.3282807103764185
  0
ARC
  5
247A2
  8
0
 10
4119.754620488675755
 20
531.8264898800285891
 30
0.0
 40
0.0098310058016832
 50
89.9722019045176751
 51
180.0671105517475894
  0
LINE
  5
247A3
  8
0
 10
4120.2118495593676926
 20
531.6120949558733173
 30
0.0
 11
4120.2118495533686655
 21
531.8441838997731566
 31
0.0
  0
ARC
  5
247A4
  8
0
 10
4120.2250520895677255
 20
531.8433493357316593
 30
0.0
 40
0.0132285676545609
 50
86.9192045373148687
 51
176.4049768373373013
  0
LINE
  5
247A5
  8
0
 10
4120.2257630472677192
 20
531.8565587846733251
 30
0.0
 11
4120.9963898312189485
 21
531.8498185783537338
 31
0.0
  0
ARC
  5
247A6
  8
0
 10
4120.9962683840567479
 20
531.835933182042254
 30
0.0
 40
0.0138859274138322
 50
6.1627647714876126
 51
89.4988812535475518
  0
ARC
  5
247A7
  8
0
 10
4120.2248980691292672
 20
531.6127567132824652
 30
0.0
 40
0.0130652795544256
 50
182.9032778796411094
 51
273.7954222342331718
  0
LINE
  5
247A8
  8
0
 10
4120.2257629550676938
 20
531.5997200893732497
 30
0.0
 11
4120.9963899707690871
 21
531.6064591044732879
 31
0.0
  0
ARC
  5
247A9
  8
0
 10
4120.996268547965883
 20
531.6203441737560524
 30
0.0
 40
0.0138856001845014
 50
270.5010300358792961
 51
353.8433622983537816
  0
LINE
  5
247AA
  8
0
 10
4121.0100740617690462
 20
531.6188549856733516
 30
0.0
 11
4121.0100740638690695
 21
531.8374238815732724
 31
0.0
  0
LINE
  5
248B6
  8
0
 10
4115.2250976992681899
 20
526.7281394373733292
 30
0.0
 11
4115.1267173843689307
 21
526.7281394373733292
 31
0.0
  0
LINE
  5
248B7
  8
0
 10
4115.0676173843676224
 20
526.7872394373731595
 30
0.0
 11
4115.0676173843676224
 21
530.8246072505220354
 31
0.0
  0
LINE
  5
248B8
  8
0
 10
4116.1306095103691405
 20
526.7872394373731595
 30
0.0
 11
4116.1306095103691405
 21
528.6493797615775065
 31
0.0
  0
LINE
  5
248B9
  8
0
 10
4116.1306095103691405
 20
530.399801270521948
 30
0.0
 11
4116.1306095103691405
 21
530.8245961301731768
 31
0.0
  0
ARC
  5
248BA
  8
0
 10
4115.1267173843689307
 20
526.7872394373731595
 30
0.0
 40
0.0591
 50
180.0000000000129887
 51
270.0
  0
LINE
  5
248BB
  8
0
 10
4115.9731359463057743
 20
526.7281394373733292
 30
0.0
 11
4116.0715095103678323
 21
526.7281394373733292
 31
0.0
  0
ARC
  5
248BC
  8
0
 10
4116.0715095103678323
 20
526.7872394373731595
 30
0.0
 40
0.0591
 50
270.0
 51
0.0
  0
ATTDEF
  5
248E1
  8
DEFPOINTS
 10
4115.5938479405340331
 20
535.0017372045690536
 30
0.0
 40
0.001
  1
K-30021T-7
  3

  2
MODELNUMBER
 70
     0
1001
ACDBATTR
1070
     0
1070
     1
  0
ATTDEF
  5
248E2
  8
DEFPOINTS
 10
4115.5938479405340331
 20
535.0000705379023884
 30
0.0
 40
0.001
  1
ATOM
  3

  2
TRADENAME
 70
     0
1001
ACDBATTR
1070
     0
1070
     1
  0
ATTDEF
  5
248E3
  8
DEFPOINTS
 10
4115.5938479405340331
 20
534.9984038712356096
 30
0.0
 40
0.001
  1
SHOWER COLUMN 
  3

  2
PRODUCT
 70
     0
1001
ACDBATTR
1070
     0
1070
     1
  0
ENDSEC
  0
EOF
