  0
SECTION
  2
HEADER
  9
$ACADVER
  1
AC1009
  9
$INSBASE
 10
3676.5667774130101861
 20
184.7915491081930952
 30
0.0
  9
$EXTMIN
 10
3670.5657595565207885
 20
156.1000945680652876
 30
-0.0000000349181948
  9
$EXTMAX
 10
3685.4689225761699163
 20
207.7340801253583891
 30
0.0000000814935746
  9
$LIMMIN
 10
0.0
 20
0.0
  9
$LIMMAX
 10
11.6929133858000007
 20
8.2677165353999982
  9
$ORTHOMODE
 70
     0
  9
$REGENMODE
 70
     1
  9
$FILLMODE
 70
     1
  9
$QTEXTMODE
 70
     0
  9
$MIRRTEXT
 70
     0
  9
$DRAGMODE
 70
     2
  9
$LTSCALE
 40
0.6431102362
  9
$OSMODE
 70
  4095
  9
$ATTMODE
 70
     1
  9
$TEXTSIZE
 40
0.2
  9
$TRACEWID
 40
0.05
  9
$TEXTSTYLE
  7
STANDARD
  9
$CLAYER
  8
0
  9
$CELTYPE
  6
BYLAYER
  9
$CECOLOR
 62
   256
  9
$DIMSCALE
 40
1.0
  9
$DIMASZ
 40
0.1875
  9
$DIMEXO
 40
0.0625
  9
$DIMDLI
 40
0.4443307087
  9
$DIMRND
 40
0.0
  9
$DIMDLE
 40
0.0
  9
$DIMEXE
 40
0.125
  9
$DIMTP
 40
0.01
  9
$DIMTM
 40
0.01
  9
$DIMTXT
 40
2.0
  9
$DIMCEN
 40
0.1052362205
  9
$DIMTSZ
 40
0.0
  9
$DIMTOL
 70
     1
  9
$DIMLIM
 70
     0
  9
$DIMTIH
 70
     1
  9
$DIMTOH
 70
     1
  9
$DIMSE1
 70
     0
  9
$DIMSE2
 70
     0
  9
$DIMTAD
 70
     0
  9
$DIMZIN
 70
     0
  9
$DIMBLK
  1

  9
$DIMASO
 70
     1
  9
$DIMSHO
 70
     1
  9
$DIMPOST
  1
\X
  9
$DIMAPOST
  1

  9
$DIMALT
 70
     1
  9
$DIMALTD
 70
     2
  9
$DIMALTF
 40
25.3999999999999986
  9
$DIMLFAC
 40
1.0
  9
$DIMTOFL
 70
     0
  9
$DIMTVP
 40
0.0
  9
$DIMTIX
 70
     0
  9
$DIMSOXD
 70
     0
  9
$DIMSAH
 70
     0
  9
$DIMBLK1
  1

  9
$DIMBLK2
  1

  9
$DIMSTYLE
  2
STANDARD
  9
$DIMCLRD
 70
     0
  9
$DIMCLRE
 70
     0
  9
$DIMCLRT
 70
     0
  9
$DIMTFAC
 40
1.0
  9
$DIMGAP
 40
0.09
  9
$LUNITS
 70
     2
  9
$LUPREC
 70
     4
  9
$SKETCHINC
 40
0.1
  9
$FILLETRAD
 40
0.0
  9
$AUNITS
 70
     0
  9
$AUPREC
 70
     0
  9
$MENU
  1
.
  9
$ELEVATION
 40
0.0
  9
$PELEVATION
 40
0.0
  9
$THICKNESS
 40
0.0
  9
$LIMCHECK
 70
     0
  9
$BLIPMODE
 70
     0
  9
$CHAMFERA
 40
0.0
  9
$CHAMFERB
 40
0.0
  9
$SKPOLY
 70
     0
  9
$TDCREATE
 40
2458060.468368056230247
  9
$TDUPDATE
 40
2460042.4175347220152617
  9
$TDINDWG
 40
1.0234445602
  9
$TDUSRTIMER
 40
1.0234445602
  9
$USRTIMER
 70
     1
  9
$ANGBASE
 50
0.0
  9
$ANGDIR
 70
     0
  9
$PDMODE
 70
     0
  9
$PDSIZE
 40
0.3125
  9
$PLINEWID
 40
0.0
  9
$COORDS
 70
     1
  9
$SPLFRAME
 70
     0
  9
$SPLINETYPE
 70
     6
  9
$SPLINESEGS
 70
     8
  9
$ATTDIA
 70
     1
  9
$ATTREQ
 70
     1
  9
$HANDLING
 70
     1
  9
$HANDSEED
  5
309F5
  9
$SURFTAB1
 70
     6
  9
$SURFTAB2
 70
     6
  9
$SURFTYPE
 70
     6
  9
$SURFU
 70
     6
  9
$SURFV
 70
     6
  9
$UCSNAME
  2

  9
$UCSORG
 10
0.0
 20
0.0
 30
0.0
  9
$UCSXDIR
 10
1.0
 20
0.0
 30
0.0
  9
$UCSYDIR
 10
0.0
 20
1.0
 30
0.0
  9
$PUCSNAME
  2

  9
$PUCSORG
 10
0.0
 20
0.0
 30
0.0
  9
$PUCSXDIR
 10
1.0
 20
0.0
 30
0.0
  9
$PUCSYDIR
 10
0.0
 20
1.0
 30
0.0
  9
$USERI1
 70
     0
  9
$USERI2
 70
     0
  9
$USERI3
 70
     0
  9
$USERI4
 70
     0
  9
$USERI5
 70
     0
  9
$USERR1
 40
0.0
  9
$USERR2
 40
0.0
  9
$USERR3
 40
0.0
  9
$USERR4
 40
0.0
  9
$USERR5
 40
0.0
  9
$WORLDVIEW
 70
     1
  9
$SHADEDGE
 70
     3
  9
$SHADEDIF
 70
    70
  9
$TILEMODE
 70
     1
  9
$MAXACTVP
 70
    64
  9
$PLIMCHECK
 70
     0
  9
$PEXTMIN
 10
1.0000000000000000E+20
 20
1.0000000000000000E+20
 30
1.0000000000000000E+20
  9
$PEXTMAX
 10
-1.0000000000000000E+20
 20
-1.0000000000000000E+20
 30
-1.0000000000000000E+20
  9
$PLIMMIN
 10
0.0
 20
0.0
  9
$PLIMMAX
 10
12.0
 20
9.0
  9
$UNITMODE
 70
     0
  9
$VISRETAIN
 70
     1
  9
$PLINEGEN
 70
     0
  9
$PSLTSCALE
 70
     1
  0
ENDSEC
  0
SECTION
  2
TABLES
  0
TABLE
  2
VPORT
 70
     1
  0
VPORT
  2
*ACTIVE
 70
     0
 10
0.0
 20
0.0
 11
1.0
 21
1.0
 12
414.6283029804080229
 22
30.1953847710282801
 13
0.0
 23
0.0
 14
1.0
 24
1.0
 15
0.0
 25
0.0
 16
0.0
 26
0.0
 36
92.3385285193394054
 17
3263.3890380859379547
 27
151.7217025756835938
 37
0.0
 40
52.0306615026756987
 41
1.593589743589743
 42
50.0
 43
0.0
 44
0.0
 50
0.0
 51
0.0
 71
     0
 72
   100
 73
     1
 74
     1
 75
     0
 76
     0
 77
     0
 78
     0
  0
ENDTAB
  0
TABLE
  2
LTYPE
 70
     2
  0
LTYPE
  2
CONTINUOUS
 70
     0
  3
Solid line
 72
    65
 73
     0
 40
0.0
  0
LTYPE
  2
PHANTOM2
 70
     0
  3
___ _ _ ___ _ _ ___ _ _ ___ _ _
 72
    65
 73
     6
 40
1.25
 49
0.625
 49
-0.125
 49
0.125
 49
-0.125
 49
0.125
 49
-0.125
  0
ENDTAB
  0
TABLE
  2
LAYER
 70
     2
  0
LAYER
  2
0
 70
     0
 62
   255
  6
CONTINUOUS
  0
LAYER
  2
DEFPOINTS
 70
     0
 62
     7
  6
CONTINUOUS
  0
ENDTAB
  0
TABLE
  2
STYLE
 70
     1
  0
STYLE
  2
STANDARD
 70
     0
 40
0.0
 41
0.8
 50
0.0
 71
     0
 42
0.2
  3
txt
  4

  0
ENDTAB
  0
TABLE
  2
VIEW
 70
     0
  0
ENDTAB
  0
TABLE
  2
UCS
 70
     0
  0
ENDTAB
  0
TABLE
  2
APPID
 70
    10
  0
APPID
  2
ACAD
 70
     0
  0
APPID
  2
ACAD_MLEADERVER
 70
     0
  0
APPID
  2
ACAD_EXEMPT_FROM_CAD_STANDARDS
 70
     0
  0
APPID
  2
ACAD_NAV_VCDISPLAY
 70
     0
  0
APPID
  2
ACAECLAYERSTANDARD
 70
     0
  0
APPID
  2
ACCMTRANSPARENCY
 70
     0
  0
APPID
  2
ACAD_DSTYLE_DIMJAG
 70
     0
  0
APPID
  2
ACAD_DSTYLE_DIMTALN
 70
     0
  0
APPID
  2
ACDBATTR
 70
     0
  0
APPID
  2
ACADANNOTATIVE
 70
     0
  0
ENDTAB
  0
TABLE
  2
DIMSTYLE
 70
     1
  0
DIMSTYLE
  2
STANDARD
 70
     0
  3

  4

  5

  6

  7

 40
1.0
 41
0.1875
 42
0.0625
 43
0.38
 44
0.125
 45
0.0
 46
0.0
 47
0.01
 48
0.01
140
0.15625
141
0.09
142
0.0
143
25.3999999999999986
144
1.0
145
0.0
146
1.0
147
0.09
 71
     1
 72
     0
 73
     1
 74
     1
 75
     0
 76
     0
 77
     0
 78
     4
170
     0
171
     2
172
     0
173
     0
174
     0
175
     0
176
     0
177
     0
178
     0
  0
ENDTAB
  0
ENDSEC
  0
SECTION
  2
BLOCKS
  0
BLOCK
  8
0
  2
$MODEL_SPACE
 70
     0
 10
0.0
 20
0.0
 30
0.0
  3
$MODEL_SPACE
  1

  0
ENDBLK
  5
21
  8
0
  0
BLOCK
 67
     1
  8
0
  2
$PAPER_SPACE
 70
     0
 10
0.0
 20
0.0
 30
0.0
  3
$PAPER_SPACE
  1

  0
ENDBLK
  5
1D
 67
     1
  8
0
  0
ENDSEC
  0
SECTION
  2
ENTITIES
  0
ATTDEF
  5
2143C
  8
DEFPOINTS
 10
3676.5626296329828619
 20
184.7956282541829864
 30
0.0
 40
0.001
  1
K-30024T-7
  3

  2
MODELNUMBER
 70
     0
1001
ACDBATTR
1070
     0
1070
     1
  0
ATTDEF
  5
2143D
  8
DEFPOINTS
 10
3676.5626296329828619
 20
184.7939615875162929
 30
0.0
 40
0.001
  1
ATOM
  3

  2
TRADENAME
 70
     0
1001
ACDBATTR
1070
     0
1070
     1
  0
ATTDEF
  5
2143E
  8
DEFPOINTS
 10
3676.5626296329828619
 20
184.7922949208495993
 30
0.0
 40
0.001
  1
SHOWER COLUMN 
  3

  2
PRODUCT
 70
     0
1001
ACDBATTR
1070
     0
1070
     1
  0
ARC
  5
301D3
  8
0
 10
3676.114021473610137
 20
204.5047424744963962
 30
0.0
 40
0.0196850394000023
 50
180.0000000000098055
 51
249.9999994548925031
  0
ARC
  5
301D4
  8
0
 10
3676.192761631013127
 20
204.4341866381660111
 30
0.0
 40
0.0196850394962499
 50
0.0000000883300593
 51
69.9999997944128012
  0
ARC
  5
301D5
  8
0
 10
3676.5690141595669047
 20
205.7434239663595861
 30
0.0
 40
1.2667956891919401
 50
262.9357882727514948
 51
269.8988328207942118
  0
ARC
  5
301D6
  8
0
 10
3676.4203866845850825
 20
204.5631279596304068
 30
0.0
 40
0.0772165240647753
 50
244.1616904025650001
 51
264.6757251487280769
  0
ARC
  5
301D7
  8
0
 10
3676.3925484536612203
 20
204.5072349597380992
 30
0.0
 40
0.0147948053861248
 50
189.6988907319081079
 51
246.8548452166945992
  0
ARC
  5
301D8
  8
0
 10
3676.1927616311090787
 20
204.3066400906963906
 30
0.0
 40
0.0196850393999891
 50
316.4847259471940788
 51
0.0000000000097707
  0
ARC
  5
301D9
  8
0
 10
3676.5667773791101354
 20
203.9515228533963977
 30
0.0
 40
0.4960629920999942
 50
136.4847257596948964
 51
151.5631098417493092
  0
ARC
  5
301DA
  8
0
 10
3673.341367791104858
 20
204.3704133666973917
 30
0.0
 40
2.8717870676497839
 50
358.7275379892876117
 51
1.2724619208715631
  0
ARC
  5
301DB
  8
0
 10
3675.9146294753240909
 20
204.1187755751224131
 30
0.0
 40
0.0611263619633748
 50
91.8721063248576257
 51
174.793405802173794
  0
ARC
  5
301DC
  8
0
 10
3687.9785438124040411
 20
203.1811561682696947
 30
0.0
 40
12.1614168116983699
 50
175.5520169845063094
 51
179.0600559079067864
  0
LINE
  5
301DD
  8
0
 10
3676.1072887936338702
 20
204.4862445882876045
 30
0.0
 11
3676.1994943110421445
 21
204.4526845245208904
 31
0.0
  0
LINE
  5
301DE
  8
0
 10
3676.0943364342087989
 20
204.5047424744963962
 30
0.0
 11
3676.3779651144091076
 21
204.5047424744963962
 31
0.0
  0
LINE
  5
301DF
  8
0
 10
3676.3779651144091076
 20
204.5047424744963962
 30
0.0
 11
3676.3779651144091076
 21
204.9771834193963969
 31
0.0
  0
LINE
  5
301E0
  8
0
 10
3676.0943364342087989
 20
205.292144727134513
 30
0.0
 11
3676.0943364342087989
 21
204.5047424744963962
 31
0.0
  0
ARC
  5
301E1
  8
0
 10
3677.0195332846092242
 20
204.5047424744963962
 30
0.0
 40
0.0196850394000023
 50
290.0000005451075822
 51
359.9999999999902229
  0
ARC
  5
301E2
  8
0
 10
3676.9407931272057795
 20
204.4341866381660111
 30
0.0
 40
0.0196850394962499
 50
110.0000002055871988
 51
179.999999911669903
  0
ARC
  5
301E3
  8
0
 10
3676.5645405986520018
 20
205.7434239663595861
 30
0.0
 40
1.2667956891919401
 50
270.1011671792056745
 51
277.0642117272485052
  0
ARC
  5
301E4
  8
0
 10
3676.713168073633824
 20
204.5631279596304068
 30
0.0
 40
0.0772165240647753
 50
275.3242748512719231
 51
295.8383095974351136
  0
ARC
  5
301E5
  8
0
 10
3676.741006304558141
 20
204.5072349597380992
 30
0.0
 40
0.0147948053861248
 50
293.1451547833053155
 51
350.3011092680902721
  0
ARC
  5
301E6
  8
0
 10
3676.9407931271098278
 20
204.3066400906963906
 30
0.0
 40
0.0196850393999891
 50
179.9999999999901945
 51
223.5152740528058928
  0
ARC
  5
301E7
  8
0
 10
3676.5667773791101354
 20
203.9515228533963977
 30
0.0
 40
0.4960629920999942
 50
28.4368901582507014
 51
43.515274240305061
  0
ARC
  5
301E8
  8
0
 10
3679.7921869671140485
 20
204.3704133666973917
 30
0.0
 40
2.8717870676497839
 50
178.7275380791284078
 51
181.2724620107157136
  0
ARC
  5
301E9
  8
0
 10
3677.2189253506949171
 20
204.1187755751224131
 30
0.0
 40
0.0611263619633804
 50
5.2065941978358738
 51
88.1278936750902915
  0
ARC
  5
301EA
  8
0
 10
3665.1550110136149669
 20
203.1811561682696947
 30
0.0
 40
12.1614168116983699
 50
0.9399440920931406
 51
4.4479830154936861
  0
LINE
  5
301EB
  8
0
 10
3677.0262659645850363
 20
204.4862445882876045
 30
0.0
 11
3676.9340604471772167
 21
204.4526845245208904
 31
0.0
  0
LINE
  5
301EC
  8
0
 10
3677.0392183240091981
 20
204.5047424744963962
 30
0.0
 11
3676.7555896438097989
 21
204.5047424744963962
 31
0.0
  0
LINE
  5
301ED
  8
0
 10
3676.7555896438097989
 20
204.5047424744963962
 30
0.0
 11
3676.7555896438097989
 21
204.9771834193963969
 31
0.0
  0
LINE
  5
301EE
  8
0
 10
3677.0392183240091981
 20
205.292144727134513
 30
0.0
 11
3677.0392183240091981
 21
204.5047424744963962
 31
0.0
  0
LINE
  5
301EF
  8
0
 10
3675.9126325623092271
 20
204.1798693101964091
 30
0.0
 11
3677.220922264345063
 21
204.1798693101964091
 31
0.0
  0
LINE
  5
301F0
  8
0
 10
3676.0943364342087989
 20
205.292144727134513
 30
0.0
 11
3677.0392183240091981
 21
205.292144727134513
 31
0.0
  0
LINE
  5
301F1
  8
0
 10
3676.3779651144091076
 20
204.9771834193963969
 30
0.0
 11
3676.7555896438097989
 21
204.9771834193963969
 31
0.0
  0
LINE
  5
301F2
  8
0
 10
3676.1994943111058092
 20
204.452684524460409
 30
0.0
 11
3676.9340604471772167
 21
204.4526845245208904
 31
0.0
  0
LINE
  5
301F3
  8
0
 10
3676.2124466704099177
 20
204.3066400906963906
 30
0.0
 11
3676.9211080877089444
 21
204.3066400906963906
 31
0.0
  0
LINE
  5
301F4
  8
0
 10
3676.1927616650091295
 20
207.3480889311964006
 30
0.0
 11
3676.1927616650091295
 21
205.4780101909964003
 31
0.0
  0
LINE
  5
301F5
  8
0
 10
3676.1927616650091295
 20
202.8373496250964081
 30
0.0
 11
3676.1927616650091295
 21
197.5843094035963929
 31
0.0
  0
LINE
  5
301F6
  8
0
 10
3676.1927616650091295
 20
197.3402149154964036
 30
0.0
 11
3676.1927616650091295
 21
187.2967560558639946
 31
0.0
  0
LINE
  5
301F7
  8
0
 10
3676.9407931610589912
 20
196.6710317022599099
 30
0.0
 11
3676.9407931610548985
 21
197.3402149154964036
 31
0.0
  0
LINE
  5
301F8
  8
0
 10
3676.9407931610021478
 20
205.4780101910037899
 30
0.0
 11
3676.9407931609898696
 21
207.348088931198788
 31
0.0
  0
ARC
  5
301F9
  8
0
 10
3672.586737336231181
 20
203.3530976565953097
 30
0.0
 40
0.0157480315010972
 50
90.0000000016414674
 51
180.9999999962527113
  0
ARC
  5
301FA
  8
0
 10
3672.6369918378950388
 20
202.9554598719668945
 30
0.0
 40
0.0590551429267062
 50
181.0000099110833105
 51
270.0398865553258929
  0
LINE
  5
301FB
  8
0
 10
3672.5709917032309022
 20
203.352822815550013
 30
0.0
 11
3672.5779456895302246
 21
202.9544292074731118
 31
0.0
  0
LINE
  5
301FC
  8
0
 10
3672.6370329492310702
 20
202.89640474334999
 30
0.0
 11
3680.496604099283104
 21
202.89640474334999
 31
0.0
  0
LINE
  5
301FD
  8
0
 10
3680.5468174897878271
 20
203.3688456880963997
 30
0.0
 11
3672.586737336231181
 21
203.3688456880963997
 31
0.0
  0
LINE
  5
301FE
  8
0
 10
3675.7793758382090346
 20
203.380656711796405
 30
0.0
 11
3677.3541789878099735
 21
203.380656711796405
 31
0.0
  0
LINE
  5
301FF
  8
0
 10
3673.6610022554091302
 20
202.8964047429500113
 30
0.0
 11
3673.6536583523447916
 21
202.8441501573543064
 31
0.0
  0
LINE
  5
30200
  8
0
 10
3673.5454476346922092
 20
202.8441501573516064
 30
0.0
 11
3673.5381037315542017
 21
202.89640474334999
 31
0.0
  0
LINE
  5
30201
  8
0
 10
3676.6282266748598886
 20
202.8964047429500113
 30
0.0
 11
3676.6208827716927772
 21
202.8441501573396124
 31
0.0
  0
LINE
  5
30202
  8
0
 10
3676.5126720542261864
 20
202.8441501573396124
 30
0.0
 11
3676.505328151059075
 21
202.8964047429500113
 31
0.0
  0
LINE
  5
30203
  8
0
 10
3673.4511724599237823
 20
202.8964047430499988
 30
0.0
 11
3673.4438285568808169
 21
202.8441501576533028
 31
0.0
  0
LINE
  5
30204
  8
0
 10
3673.3356178390758942
 20
202.844150157466288
 30
0.0
 11
3673.328273936081132
 21
202.8964047431499864
 31
0.0
  0
ARC
  5
30205
  8
0
 10
3673.3434409568208139
 20
202.8452496249499859
 30
0.0
 40
0.0079
 50
187.9999998982804073
 51
270.0
  0
LINE
  5
30206
  8
0
 10
3675.7675648146091589
 20
203.3688456880963997
 30
0.0
 11
3675.7793758382090346
 21
203.380656711796405
 31
0.0
  0
ARC
  5
30207
  8
0
 10
3673.4360054391381709
 20
202.8452496251499895
 30
0.0
 40
0.0079
 50
270.0
 51
352.0000000060732077
  0
LINE
  5
30208
  8
0
 10
3673.5532707524339457
 20
202.8373496248499919
 30
0.0
 11
3673.6458352346021456
 21
202.8373496248499919
 31
0.0
  0
LINE
  5
30209
  8
0
 10
3673.2646405579480415
 20
202.8441501576662915
 30
0.0
 11
3673.2572966549528246
 21
202.89640474334999
 31
0.0
  0
ARC
  5
3020A
  8
0
 10
3673.2724636756929613
 20
202.8452496251499895
 30
0.0
 40
0.0079
 50
187.9999998982804073
 51
270.0
  0
LINE
  5
3020B
  8
0
 10
3673.4360054391381709
 20
202.8373496250499954
 30
0.0
 11
3673.2724636756929613
 21
202.8373496250499954
 31
0.0
  0
ARC
  5
3020C
  8
0
 10
3673.5532707524339457
 20
202.8452496248499983
 30
0.0
 40
0.0079
 50
188.0000000057304135
 51
270.0000000000259774
  0
ARC
  5
3020D
  8
0
 10
3673.6458352346021456
 20
202.8452496248499983
 30
0.0
 40
0.0079
 50
270.0000000000782165
 51
352.0000000135377718
  0
LINE
  5
3020E
  8
0
 10
3674.1183406696368365
 20
202.8964047431499864
 30
0.0
 11
3674.1109967665938711
 21
202.8441501577532051
 31
0.0
  0
LINE
  5
3020F
  8
0
 10
3674.1031736488521346
 20
202.8373496251500114
 30
0.0
 11
3673.8927581307830224
 21
202.8373496251500114
 31
0.0
  0
ARC
  5
30210
  8
0
 10
3674.1031736488521346
 20
202.8452496252500055
 30
0.0
 40
0.0079
 50
270.0
 51
352.0000000060732077
  0
LINE
  5
30211
  8
0
 10
3674.4548693905239816
 20
202.8964047430499988
 30
0.0
 11
3674.4475254874801067
 21
202.8441501576533028
 31
0.0
  0
LINE
  5
30212
  8
0
 10
3674.3393147698247958
 20
202.8441501576662915
 30
0.0
 11
3674.3319708668300336
 21
202.89640474334999
 31
0.0
  0
ARC
  5
30213
  8
0
 10
3674.3471378875701703
 20
202.8452496251499895
 30
0.0
 40
0.0079
 50
187.9999998982804073
 51
270.0
  0
LINE
  5
30214
  8
0
 10
3674.4397249575449678
 20
202.8373496250499954
 30
0.0
 11
3674.2701929414929509
 21
202.8373496250499954
 31
0.0
  0
ARC
  5
30215
  8
0
 10
3674.4397023697370059
 20
202.8452496251499895
 30
0.0
 40
0.0079
 50
270.0
 51
352.0000000060732077
  0
LINE
  5
30216
  8
0
 10
3673.8849593754889611
 20
202.8441501573663004
 30
0.0
 11
3673.8776154724951084
 21
202.8964047430499988
 31
0.0
  0
ARC
  5
30217
  8
0
 10
3673.8927824932347903
 20
202.8452496248499983
 30
0.0
 40
0.0079
 50
187.9999998982804073
 51
270.0
  0
LINE
  5
30218
  8
0
 10
3674.6736972195208182
 20
202.8556112929935011
 30
0.0
 11
3674.6720864619528584
 21
202.844150157353198
 31
0.0
  0
LINE
  5
30219
  8
0
 10
3674.5638642639610225
 20
202.844071123600088
 30
0.0
 11
3674.5565092534538962
 21
202.89640474334999
 31
0.0
  0
ARC
  5
3021A
  8
0
 10
3674.5716873817059422
 20
202.8451705910837006
 30
0.0
 40
0.0079
 50
187.9999998982804073
 51
270.0
  0
LINE
  5
3021B
  8
0
 10
3674.7817689167231947
 20
202.8372705909837066
 30
0.0
 11
3674.5716873817059422
 21
202.8372705909837066
 31
0.0
  0
ARC
  5
3021C
  8
0
 10
3674.6642633442088481
 20
202.8452496248499983
 30
0.0
 40
0.0079
 50
270.0
 51
352.0000000060732077
  0
LINE
  5
3021D
  8
0
 10
3675.0042109269238608
 20
202.8964047430499988
 30
0.0
 11
3674.9968670238808954
 21
202.8441501576533028
 31
0.0
  0
LINE
  5
3021E
  8
0
 10
3674.8886563062251298
 20
202.8441501576662915
 30
0.0
 11
3674.8813124032299129
 21
202.89640474334999
 31
0.0
  0
ARC
  5
3021F
  8
0
 10
3674.896479423970959
 20
202.8452496251499895
 30
0.0
 40
0.0079
 50
187.9999998982804073
 51
270.0
  0
LINE
  5
30220
  8
0
 10
3674.989066493944847
 20
202.8373496250499954
 30
0.0
 11
3674.896479423970959
 21
202.8373496250499954
 31
0.0
  0
ARC
  5
30221
  8
0
 10
3674.9890439061368852
 20
202.8452496251499895
 30
0.0
 40
0.0079
 50
270.0
 51
352.0000000060732077
  0
LINE
  5
30222
  8
0
 10
3674.7969470450939298
 20
202.89640474334999
 30
0.0
 11
3674.7895920344658407
 21
202.8440711233870104
 31
0.0
  0
ARC
  5
30223
  8
0
 10
3674.7817689167231947
 20
202.8451705908836971
 30
0.0
 40
0.0079
 50
270.0
 51
352.0000000060732077
  0
LINE
  5
30224
  8
0
 10
3675.135344787709073
 20
202.8964047429500113
 30
0.0
 11
3675.1280008846661076
 21
202.8441501575532868
 31
0.0
  0
LINE
  5
30225
  8
0
 10
3675.0197901669321254
 20
202.8441501576662915
 30
0.0
 11
3675.012446263937818
 21
202.89640474334999
 31
0.0
  0
ARC
  5
30226
  8
0
 10
3675.0276132846761357
 20
202.8452496251499895
 30
0.0
 40
0.0079
 50
187.9999998982804073
 51
270.0
  0
LINE
  5
30227
  8
0
 10
3675.1202003546518426
 20
202.8373496250499954
 30
0.0
 11
3675.0276132846761357
 21
202.8373496250499954
 31
0.0
  0
ARC
  5
30228
  8
0
 10
3675.1201777669230069
 20
202.8452496250500019
 30
0.0
 40
0.0079
 50
270.0
 51
352.0000000060732077
  0
LINE
  5
30229
  8
0
 10
3675.5023533901480732
 20
202.8912662396176074
 30
0.0
 11
3675.4957316566092231
 21
202.8441501572532104
 31
0.0
  0
LINE
  5
3022A
  8
0
 10
3675.3875209389539123
 20
202.8441501572661991
 30
0.0
 11
3675.3801770359600596
 21
202.8964047429500113
 31
0.0
  0
ARC
  5
3022B
  8
0
 10
3675.395344056698832
 20
202.8452496247500108
 30
0.0
 40
0.0079
 50
187.9999998982804073
 51
270.0
  0
LINE
  5
3022C
  8
0
 10
3675.4879311266731747
 20
202.8373496246499883
 30
0.0
 11
3675.395344056698832
 21
202.8373496246499883
 31
0.0
  0
ARC
  5
3022D
  8
0
 10
3675.4879085388661224
 20
202.8452496247500108
 30
0.0
 40
0.0079
 50
270.0
 51
352.0000000060732077
  0
LINE
  5
3022E
  8
0
 10
3675.3138470556050379
 20
202.8373496246169054
 30
0.0
 11
3675.2212825734491162
 21
202.8373496247498906
 31
0.0
  0
LINE
  5
3022F
  8
0
 10
3676.6130596539519502
 20
202.8373496248499919
 30
0.0
 11
3676.5204951719670134
 21
202.8373496248499919
 31
0.0
  0
ARC
  5
30230
  8
0
 10
3676.6130596539519502
 20
202.8452496248499983
 30
0.0
 40
0.0079
 50
270.0
 51
351.9999999060502773
  0
ARC
  5
30231
  8
0
 10
3676.5204951719670134
 20
202.8452496248499983
 30
0.0
 40
0.0079
 50
188.0000000939529059
 51
270.0
  0
LINE
  5
30232
  8
0
 10
3675.8373683338541014
 20
202.8441501572661991
 30
0.0
 11
3675.8300244308588844
 21
202.8964047429500113
 31
0.0
  0
ARC
  5
30233
  8
0
 10
3675.8451914515990211
 20
202.8452496247500108
 30
0.0
 40
0.0079
 50
187.9999998982804073
 51
270.0
  0
LINE
  5
30234
  8
0
 10
3675.9377785215738186
 20
202.8373496246499883
 30
0.0
 11
3675.8451914515990211
 21
202.8373496246499883
 31
0.0
  0
LINE
  5
30235
  8
0
 10
3676.0656511172592218
 20
202.8964047429500113
 30
0.0
 11
3676.0583072141330376
 21
202.8441501569531908
 31
0.0
  0
LINE
  5
30236
  8
0
 10
3676.0504840963890274
 20
202.8373496244498995
 30
0.0
 11
3675.913608238064171
 21
202.8373496244498995
 31
0.0
  0
ARC
  5
30237
  8
0
 10
3676.0504840963890274
 20
202.8452496244499059
 30
0.0
 40
0.0079
 50
270.0
 51
352.0000000060732077
  0
LINE
  5
30238
  8
0
 10
3675.9557047466309996
 20
202.8964047425498904
 30
0.0
 11
3675.9483608435880342
 21
202.8441501571531944
 31
0.0
  0
ARC
  5
30239
  8
0
 10
3675.9405377258449334
 20
202.8452496246499948
 30
0.0
 40
0.0079
 50
270.0
 51
352.0000000060732077
  0
LINE
  5
3023A
  8
0
 10
3675.9786203755888891
 20
202.8964047424499029
 30
0.0
 11
3675.9712764725459238
 21
202.8441501570532068
 31
0.0
  0
ARC
  5
3023B
  8
0
 10
3675.963453354802823
 20
202.8452496245500072
 30
0.0
 40
0.0079
 50
270.0
 51
352.0000000060732077
  0
LINE
  5
3023C
  8
0
 10
3675.3290140764029275
 20
202.8964047425498904
 30
0.0
 11
3675.3216701733599621
 21
202.8441501571531944
 31
0.0
  0
ARC
  5
3023D
  8
0
 10
3675.3138470556168613
 20
202.8452496246499948
 30
0.0
 40
0.0079
 50
270.0
 51
352.0000000060732077
  0
LINE
  5
3023E
  8
0
 10
3674.0005139963368492
 20
202.8964047431499864
 30
0.0
 11
3673.9931700932938838
 21
202.8441501577532051
 31
0.0
  0
ARC
  5
3023F
  8
0
 10
3673.9853469755521473
 20
202.8452496252500055
 30
0.0
 40
0.0079
 50
270.0
 51
352.0000000060732077
  0
LINE
  5
30240
  8
0
 10
3674.0027700694008672
 20
202.8441501573663004
 30
0.0
 11
3673.9979700813491945
 21
202.8783038474529121
 31
0.0
  0
ARC
  5
30241
  8
0
 10
3674.0105931871457869
 20
202.8452496248499983
 30
0.0
 40
0.0079
 50
187.9999998982804073
 51
270.0
  0
LINE
  5
30242
  8
0
 10
3674.2623698237471217
 20
202.8441501576662915
 30
0.0
 11
3674.2550259207541785
 21
202.89640474334999
 31
0.0
  0
ARC
  5
30243
  8
0
 10
3674.2701929414929509
 20
202.8452496251499895
 30
0.0
 40
0.0079
 50
187.9999998982804073
 51
270.0
  0
LINE
  5
30244
  8
0
 10
3674.6753190844751771
 20
202.8440711234999867
 30
0.0
 11
3674.6679640739539536
 21
202.89640474334999
 31
0.0
  0
ARC
  5
30245
  8
0
 10
3674.6831422022210063
 20
202.8451705909837131
 30
0.0
 40
0.0079
 50
187.9999998982804073
 51
270.0
  0
LINE
  5
30246
  8
0
 10
3675.2134594557041964
 20
202.8441501572661991
 30
0.0
 11
3675.206115552709889
 21
202.8964047429500113
 31
0.0
  0
ARC
  5
30247
  8
0
 10
3675.2212825734491162
 20
202.8452496247500108
 30
0.0
 40
0.0079
 50
187.9999998982804073
 51
270.0
  0
LINE
  5
30248
  8
0
 10
3675.5089751235677795
 20
202.8441501571662968
 30
0.0
 11
3675.5016312205730173
 21
202.8964047428499953
 31
0.0
  0
ARC
  5
30249
  8
0
 10
3675.516798241313154
 20
202.8452496246499948
 30
0.0
 40
0.0079
 50
187.9999998982804073
 51
270.0
  0
LINE
  5
3024A
  8
0
 10
3675.653817226108913
 20
202.8964047429500113
 30
0.0
 11
3675.6464733230659476
 21
202.8441501575532868
 31
0.0
  0
ARC
  5
3024B
  8
0
 10
3675.6386502053228469
 20
202.8452496250500019
 30
0.0
 40
0.0079
 50
270.0
 51
352.0000000060732077
  0
LINE
  5
3024C
  8
0
 10
3675.6245297443101663
 20
202.8964047429500113
 30
0.0
 11
3675.6171858412672009
 21
202.8441501575532868
 31
0.0
  0
ARC
  5
3024D
  8
0
 10
3675.6093627235231907
 20
202.8452496250500019
 30
0.0
 40
0.0079
 50
270.0
 51
352.0000000060732077
  0
LINE
  5
3024E
  8
0
 10
3675.516798241313154
 20
202.8373496246499883
 30
0.0
 11
3675.6386502053228469
 21
202.8373496250499954
 31
0.0
  0
LINE
  5
3024F
  8
0
 10
3676.1658164101959301
 20
202.8964047430499988
 30
0.0
 11
3676.1731603132921009
 21
202.8441501573516064
 31
0.0
  0
ARC
  5
30250
  8
0
 10
3676.1809834310352016
 20
202.8452496248499983
 30
0.0
 40
0.0079
 50
188.0000000057530087
 51
270.0
  0
LINE
  5
30251
  8
0
 10
3676.1809834310352016
 20
202.8373496248499919
 30
0.0
 11
3676.2882565044837975
 21
202.8373496248499919
 31
0.0
  0
LINE
  5
30252
  8
0
 10
3676.3034235253289808
 20
202.89640474334999
 30
0.0
 11
3676.2960796222278077
 21
202.8441501573568928
 31
0.0
  0
ARC
  5
30253
  8
0
 10
3676.2882565044837975
 20
202.8452496248499983
 30
0.0
 40
0.0079
 50
270.0
 51
352.0000000330563807
  0
LINE
  5
30254
  8
0
 10
3676.2898178247091892
 20
202.8964047429500113
 30
0.0
 11
3676.2824739216448506
 21
202.8441501573543064
 31
0.0
  0
ARC
  5
30255
  8
0
 10
3676.2746508039022046
 20
202.8452496248499983
 30
0.0
 40
0.0079
 50
270.0
 51
352.0000000135345886
  0
CIRCLE
  5
30256
  8
0
 10
3676.5669115285090811
 20
204.3669471988964119
 30
0.0
 40
0.0236220472
  0
LINE
  5
30257
  8
0
 10
3676.0392183579087941
 20
204.1877433258964061
 30
0.0
 11
3677.0943364681102139
 21
204.1877433258964061
 31
0.0
  0
LINE
  5
30258
  8
0
 10
3677.0943364681102139
 20
204.1877433258964061
 30
0.0
 11
3677.0943364681102139
 21
204.1798693101964091
 31
0.0
  0
LINE
  5
30259
  8
0
 10
3676.0392183579087941
 20
204.1877433258964061
 30
0.0
 11
3676.0392183579087941
 21
204.1798693101964091
 31
0.0
  0
LINE
  5
3025A
  8
0
 10
3676.1927616649591073
 20
205.4780101909964003
 30
0.0
 11
3676.9407931609589468
 21
205.4780101909964003
 31
0.0
  0
LINE
  5
3025B
  8
0
 10
3676.1927616649591073
 20
205.4780101909964003
 30
0.0
 11
3676.0746514287598075
 21
205.3598999547963899
 31
0.0
  0
LINE
  5
3025C
  8
0
 10
3676.0746514287598075
 20
205.3402149153963876
 30
0.0
 11
3677.0589033972592006
 21
205.3402149153965013
 31
0.0
  0
LINE
  5
3025D
  8
0
 10
3676.0746514287598075
 20
205.3598999547963899
 30
0.0
 11
3676.0746514287598075
 21
205.3402149153963876
 31
0.0
  0
LINE
  5
3025E
  8
0
 10
3677.0589033972592006
 20
205.3402149153963876
 30
0.0
 11
3677.0589033972592006
 21
205.3598999547963899
 31
0.0
  0
LINE
  5
3025F
  8
0
 10
3677.0589033972592006
 20
205.3598999547963899
 30
0.0
 11
3676.9407931609589468
 21
205.4780101909964003
 31
0.0
  0
LINE
  5
30260
  8
0
 10
3676.1927616649591073
 20
205.3402149153963876
 30
0.0
 11
3676.1927616649591073
 21
205.2921440492964109
 31
0.0
  0
LINE
  5
30261
  8
0
 10
3676.9211081216599268
 20
205.3402149153963876
 30
0.0
 11
3676.9211081216599268
 21
205.2921440492964109
 31
0.0
  0
LINE
  5
30262
  8
0
 10
3676.0746514287598075
 20
205.3598999547963899
 30
0.0
 11
3677.0589033972592006
 21
205.3598999547963899
 31
0.0
  0
LINE
  5
30263
  8
0
 10
3676.9407931610098785
 20
205.3402149153963876
 30
0.0
 11
3676.9407931610098785
 21
205.2921440492964109
 31
0.0
  0
LINE
  5
30264
  8
0
 10
3676.2124467043099685
 20
205.3402149153963876
 30
0.0
 11
3676.2124467043099685
 21
205.2921440492964109
 31
0.0
  0
ARC
  5
30265
  8
0
 10
3676.5667774130101861
 20
207.3468388933756046
 30
0.0
 40
0.3740178369363632
 50
0.1914936070663584
 51
179.8085063929335945
  0
LINE
  5
30266
  8
0
 10
3676.1927616650091295
 20
204.4551350072742935
 30
0.0
 11
3676.1927616650091295
 21
204.2773920568162112
 31
0.0
  0
LINE
  5
30267
  8
0
 10
3676.9407931610098785
 20
204.4551350319514995
 30
0.0
 11
3676.9407931610098785
 21
204.2773919789987929
 31
0.0
  0
ARC
  5
30268
  8
0
 10
3676.5667774130101861
 20
204.041002316996412
 30
0.0
 40
0.8915305921000001
 50
122.0001321178552018
 51
213.4271855403542872
  0
ARC
  5
30269
  8
0
 10
3676.5667774130101861
 20
204.041002316996412
 30
0.0
 40
0.8915305921000001
 50
326.5728144596096172
 51
57.9998730201853405
  0
LINE
  5
3026A
  8
0
 10
3676.9368982848100131
 20
177.6512223065541889
 30
0.0
 11
3676.1966560157388813
 21
177.6512223065541889
 31
0.0
  0
LINE
  5
3026B
  8
0
 10
3676.9388223904729784
 20
177.4150018341541966
 30
0.0
 11
3676.1947324355310229
 21
177.4150018341541966
 31
0.0
  0
LINE
  5
3026C
  8
0
 10
3676.1887563165460051
 20
177.6433912462865976
 30
0.0
 11
3676.1868327361680713
 21
177.4229707738865898
 31
0.0
  0
LINE
  5
3026D
  8
0
 10
3676.9447982848100764
 20
177.6433223066541984
 30
0.0
 11
3676.9467220895749051
 21
177.4229708035067006
 31
0.0
  0
ARC
  5
3026E
  8
0
 10
3676.9368982850178327
 20
177.6433223067631957
 30
0.0
 40
0.0078999997910048
 50
359.9999992095940229
 51
90.0000015157296218
  0
ARC
  5
3026F
  8
0
 10
3676.9388223904729784
 20
177.4229018343228859
 30
0.0
 40
0.0079000001687577
 50
270.0000012283417732
 51
0.5002143366940341
  0
ARC
  5
30270
  8
0
 10
3676.1947324355310229
 20
177.4229018343231132
 30
0.0
 40
0.0079000001689465
 50
179.5000004959227908
 51
269.9999987703033071
  0
ARC
  5
30271
  8
0
 10
3676.1966469674212021
 20
177.6433314341794869
 30
0.0
 40
0.0078908775624829
 50
89.93430001361709
 51
179.5656992399088949
  0
LINE
  5
30272
  8
0
 10
3676.1927616650091295
 20
177.4110810571964123
 30
0.0
 11
3676.1927616650091295
 21
167.2142306634964086
 31
0.0
  0
LINE
  5
30273
  8
0
 10
3680.3462900115100638
 20
161.3894275137963916
 30
0.0
 11
3676.8241249878587951
 21
161.3894275137963916
 31
0.0
  0
LINE
  5
30274
  8
0
 10
3676.3097774129601021
 20
161.3894275137963916
 30
0.0
 11
3672.7872648145089443
 21
161.3894275137963916
 31
0.0
  0
LINE
  5
30275
  8
0
 10
3676.0628404052317819
 20
159.6177739705964029
 30
0.0
 11
3672.7872648145089443
 21
159.6177739705964029
 31
0.0
  0
ARC
  5
30276
  8
0
 10
3680.3462900115100638
 20
161.3697275137963913
 30
0.0
 40
0.0197
 50
0.0
 51
90.0
  0
ARC
  5
30277
  8
0
 10
3680.3896197386588938
 20
161.3851750996325052
 30
0.0
 40
0.0118187060887372
 50
89.5375578808308603
 51
179.9624421191527119
  0
LINE
  5
30278
  8
0
 10
3680.3778010351102239
 20
161.3851828468964129
 30
0.0
 11
3680.3778010351102239
 21
159.6220075168662902
 31
0.0
  0
ARC
  5
30279
  8
0
 10
3680.3896975393217872
 20
159.6221051605145078
 30
0.0
 40
0.0118969049234756
 50
180.4702594315654949
 51
270.0332857888815852
  0
LINE
  5
3027A
  8
0
 10
3680.6927616649099946
 20
161.3825367550155079
 30
0.0
 11
3680.6927616649099946
 21
159.6245611107964066
 31
0.0
  0
LINE
  5
3027B
  8
0
 10
3680.7045726886099146
 20
159.6227814996964014
 30
0.0
 11
3680.7045726886099146
 21
161.5822546304964078
 31
0.0
  0
LINE
  5
3027C
  8
0
 10
3681.1711806159669322
 20
161.5881113936646045
 30
0.0
 11
3680.7145011018101286
 21
161.5920971501903978
 31
0.0
  0
ARC
  5
3027D
  8
0
 10
3681.1711465824791958
 20
161.5842115421646952
 30
0.0
 40
0.0039
 50
0.1399999722860433
 51
89.5000000013894237
  0
ARC
  5
3027E
  8
0
 10
3682.4269833437651869
 20
161.5672788533842947
 30
0.0
 40
0.0098729856480239
 50
0.4228176842306109
 51
89.3257470375851739
  0
ARC
  5
3027F
  8
0
 10
3680.7144158405380949
 20
161.5822543675311067
 30
0.0
 40
0.0098431519322859
 50
89.5036983964796491
 51
179.9984693116230119
  0
LINE
  5
30280
  8
0
 10
3682.4368560605839775
 20
161.5673517110201942
 30
0.0
 11
3682.4368561532101012
 21
159.7104335527963883
 31
0.0
  0
ARC
  5
30281
  8
0
 10
3682.4270136335098869
 20
159.7104335527963883
 30
0.0
 40
0.0098425197000112
 50
314.9999998037985733
 51
359.9999999999789111
  0
LINE
  5
30282
  8
0
 10
3682.3497264782099592
 20
159.6272097507037984
 30
0.0
 11
3680.7145010994099721
 21
159.6129393545963921
 31
0.0
  0
ARC
  5
30283
  8
0
 10
3680.7144492191691825
 20
159.6228158084853135
 30
0.0
 40
0.0098765901494104
 50
180.199031520938405
 51
270.3009674861481244
  0
ARC
  5
30284
  8
0
 10
3679.5195332796029106
 20
160.5036151731169127
 30
0.0
 40
1.37776864774771
 50
40.319786664961569
 51
139.9891567604678073
  0
ARC
  5
30285
  8
0
 10
3679.5195333185088202
 20
160.5036007421963973
 30
0.0
 40
1.3777779556999989
 50
220.0113018441707027
 51
319.6628002812225873
  0
ARC
  5
30286
  8
0
 10
3680.6807616964138106
 20
161.3824544350702865
 30
0.0
 40
0.01200025085119
 50
0.3930436522808822
 51
88.5490162834072976
  0
ARC
  5
30287
  8
0
 10
3568.1713137043561801
 20
158.8707717460164019
 30
0.0
 40
114.2905545758147952
 50
0.8185925190361683
 51
1.1993806682816761
  0
LINE
  5
30288
  8
0
 10
3682.3634741208102241
 20
159.6329746152009932
 30
0.0
 11
3682.4339733459100898
 21
159.7034738403486926
 31
0.0
  0
ARC
  5
30289
  8
0
 10
3682.3495546977701451
 20
159.6468940374757892
 30
0.0
 40
0.0196850363028569
 50
270.4999949715037246
 51
315.0000015759760004
  0
ARC
  5
3028A
  8
0
 10
3655.1300644768789425
 20
160.6063508664205131
 30
0.0
 40
27.3203326001760196
 50
358.1941471884389898
 51
359.7845135186410062
  0
ARC
  5
3028B
  8
0
 10
3679.5195333185088202
 20
160.5036007421963973
 30
0.0
 40
1.240700628199999
 50
225.5590973423024082
 51
314.0878419099643111
  0
ARC
  5
3028C
  8
0
 10
3679.5195333185088202
 20
160.5036007421963973
 30
0.0
 40
1.240700628199999
 50
45.9136201180643013
 51
134.4409026576975066
  0
LINE
  5
3028D
  8
0
 10
3677.0704785661901042
 20
159.6177739705964029
 30
0.0
 11
3680.3462900115100638
 21
159.6177739705964029
 31
0.0
  0
ARC
  5
3028E
  8
0
 10
3680.3462900115100638
 20
159.6374739705964032
 30
0.0
 40
0.0197
 50
270.0
 51
0.0
  0
LINE
  5
3028F
  8
0
 10
3680.3897044507889404
 20
159.6102082575986003
 30
0.0
 11
3680.6810537107098753
 21
159.6127614648428903
 31
0.0
  0
ARC
  5
30290
  8
0
 10
3680.6809616650098178
 20
159.6245611107964066
 30
0.0
 40
0.0118
 50
270.4990828843601207
 51
0.0
  0
LINE
  5
30291
  8
0
 10
3676.9407931610098785
 20
167.2142306634964086
 30
0.0
 11
3676.9407931610098785
 21
177.4110810571964123
 31
0.0
  0
LINE
  5
30292
  8
0
 10
3676.9407931610098785
 20
177.6551755452964017
 30
0.0
 11
3676.9407931610098785
 21
185.7260140575220078
 31
0.0
  0
LINE
  5
30293
  8
0
 10
3680.6810655636031697
 20
161.3944508380820935
 30
0.0
 11
3680.5643564218098618
 21
161.3950756334963899
 31
0.0
  0
LINE
  5
30294
  8
0
 10
3680.5643564218098618
 20
161.3950756334963899
 30
0.0
 11
3680.4985501294099777
 21
161.3959348907463891
 31
0.0
  0
LINE
  5
30295
  8
0
 10
3680.4985501294099777
 20
161.3959348907463891
 30
0.0
 11
3680.3897151280261824
 21
161.3969934207688084
 31
0.0
  0
LINE
  5
30296
  8
0
 10
3680.365990011508984
 20
161.3697275137963913
 30
0.0
 11
3680.365990011508984
 21
159.6374590098963893
 31
0.0
  0
LINE
  5
30297
  8
0
 10
3680.6927616649099946
 20
161.3486256252973021
 30
0.0
 11
3680.7045726886099146
 21
161.3485222697964048
 31
0.0
  0
LINE
  5
30298
  8
0
 10
3680.6927616649099946
 20
159.6576604071954932
 30
0.0
 11
3680.7045726886099146
 21
159.6577634860963997
 31
0.0
  0
LINE
  5
30299
  8
0
 10
3680.3659900114089396
 20
159.6657052199963971
 30
0.0
 11
3680.3778010351102239
 21
159.6656021467159121
 31
0.0
  0
LINE
  5
3029A
  8
0
 10
3680.3659900114089396
 20
161.3414962643963975
 30
0.0
 11
3680.3778010351102239
 21
161.3415993376169126
 31
0.0
  0
LINE
  5
3029B
  8
0
 10
3681.175046570836912
 20
161.584221071651001
 30
0.0
 11
3681.1755316664462043
 21
161.3856933482497027
 31
0.0
  0
LINE
  5
3029C
  8
0
 10
3681.1826133681352076
 20
161.5744421043870034
 30
0.0
 11
3681.1812683726539035
 21
161.3817888103693008
 31
0.0
  0
ARC
  5
3029D
  8
0
 10
3681.1879141596350564
 20
161.4191960164922932
 30
0.0
 40
0.0379929671719032
 50
255.5517684656072959
 51
266.9537535003473181
  0
ARC
  5
3029E
  8
0
 10
3681.1794307077311714
 20
161.3862097625720935
 30
0.0
 40
0.0039333179630016
 50
187.5693490256446978
 51
255.3319477630730034
  0
LINE
  5
3029F
  8
0
 10
3681.1858951378821985
 20
161.3812567346635092
 30
0.0
 11
3681.9555192672569319
 21
161.3812567346635092
 31
0.0
  0
LINE
  5
302A0
  8
0
 10
3681.194516049820777
 20
161.5861592762468888
 30
0.0
 11
3681.9491332085090107
 21
161.5795740798737938
 31
0.0
  0
ARC
  5
302A1
  8
0
 10
3681.9490302392650847
 20
161.5677745291478118
 30
0.0
 40
0.0118
 50
0.4000000109572125
 51
89.5000188135259975
  0
ARC
  5
302A2
  8
0
 10
3681.1944130805768509
 20
161.5743597255209067
 30
0.0
 40
0.0118
 50
89.5000188135259975
 51
179.6000000263331913
  0
LINE
  5
302A3
  8
0
 10
3681.9608299517080923
 20
161.5678569080216107
 30
0.0
 11
3681.9621261186221091
 21
161.3821976950563055
 31
0.0
  0
LINE
  5
302A4
  8
0
 10
3681.9663652309018289
 20
161.5772472689866106
 30
0.0
 11
3681.9658971730300436
 21
161.3856924071741048
 31
0.0
  0
ARC
  5
302A5
  8
0
 10
3681.9702652192590904
 20
161.5772377394960131
 30
0.0
 40
0.0039
 50
89.4999999975591862
 51
179.8599999655966997
  0
LINE
  5
302A6
  8
0
 10
3681.9702992527481911
 20
161.5811375909960077
 30
0.0
 11
3682.4270995243100515
 21
161.5771511553998891
 31
0.0
  0
ARC
  5
302A7
  8
0
 10
3681.9535146775051544
 20
161.4191967817700117
 30
0.0
 40
0.0379929671719032
 50
273.024451560418413
 51
284.4482315343926189
  0
ARC
  5
302A8
  8
0
 10
3681.9619981294081299
 20
161.386210527849812
 30
0.0
 40
0.0039333179630016
 50
284.6680522369265987
 51
352.4306509743552169
  0
LINE
  5
302A9
  8
0
 10
3680.7045726886099146
 20
161.5331305502072041
 30
0.0
 11
3681.1751814439230657
 21
161.52902360892719
 31
0.0
  0
LINE
  5
302AA
  8
0
 10
3681.1822958486368407
 20
161.5289615224444049
 30
0.0
 11
3681.9611489495750902
 21
161.522164572929114
 31
0.0
  0
LINE
  5
302AB
  8
0
 10
3681.9662305298252249
 20
161.5221202266403964
 30
0.0
 11
3682.4368560630450702
 21
161.5180131389419103
 31
0.0
  0
LINE
  5
302AC
  8
0
 10
3682.349731519209854
 20
161.4062035610963903
 30
0.0
 11
3681.9659543735970146
 21
161.4091020057674939
 31
0.0
  0
LINE
  5
302AD
  8
0
 10
3680.7045726886099146
 20
161.4185648486331104
 30
0.0
 11
3681.1754599495520779
 21
161.4150438338772915
 31
0.0
  0
LINE
  5
302AE
  8
0
 10
3682.4270995230090193
 20
161.3506860639963918
 30
0.0
 11
3682.4368560713919578
 21
161.3506860639963918
 31
0.0
  0
LINE
  5
302AF
  8
0
 10
3682.4270995230090193
 20
161.3506860639963918
 30
0.0
 11
3682.3879930874581987
 21
161.3897170153518061
 31
0.0
  0
ARC
  5
302B0
  8
0
 10
3682.3497002261069611
 20
161.3534894125797905
 30
0.0
 40
0.0527141578049251
 50
43.4125123163228608
 51
89.9659870724474047
  0
LINE
  5
302B1
  8
0
 10
3682.3497315240379066
 20
161.4062041396865936
 30
0.0
 11
3682.3497264782099592
 21
159.6272097507037984
 31
0.0
  0
LINE
  5
302B2
  8
0
 10
3676.1927359064811753
 20
197.5793565224294923
 30
0.0
 11
3676.1927359064811753
 21
197.5793458251461914
 31
0.0
  0
LINE
  5
302B3
  8
0
 10
3676.1927359064811753
 20
197.5793458251461914
 30
0.0
 11
3676.1927359064811753
 21
197.57935652232959
 31
0.0
  0
LINE
  5
302B4
  8
0
 10
3676.9369245688098999
 20
197.5803723956964006
 30
0.0
 11
3676.1966302572091081
 21
197.5803723956964006
 31
0.0
  0
ARC
  5
302B5
  8
0
 10
3676.1966302572091081
 20
197.5724723956963942
 30
0.0
 40
0.0079
 50
90.0
 51
179.500000006406907
  0
LINE
  5
302B6
  8
0
 10
3676.9388481491059792
 20
197.3441519232964083
 30
0.0
 11
3676.1947066769130288
 21
197.3441519232964083
 31
0.0
  0
ARC
  5
302B7
  8
0
 10
3676.1947066769130288
 20
197.3520519232963863
 30
0.0
 40
0.0079
 50
179.500000006406907
 51
270.0
  0
LINE
  5
302B8
  8
0
 10
3676.9448242680018666
 20
197.5725413353258944
 30
0.0
 11
3676.9467478482979459
 21
197.3521208629258865
 31
0.0
  0
ARC
  5
302B9
  8
0
 10
3676.9369245688098999
 20
197.5724723956963942
 30
0.0
 40
0.0079
 50
0.4999999936370602
 51
90.0
  0
ARC
  5
302BA
  8
0
 10
3676.9388481491059792
 20
197.3520519232963863
 30
0.0
 40
0.0079
 50
270.0
 51
0.4999999935116748
  0
LINE
  5
302BB
  8
0
 10
3676.1887305580171414
 20
197.5725413353258944
 30
0.0
 11
3676.1868069777210621
 21
197.3521208629258865
 31
0.0
  0
LINE
  5
302BC
  8
0
 10
3676.9407931610098785
 20
197.5843094035963929
 30
0.0
 11
3676.9407931610098785
 21
202.8373496250964081
 31
0.0
  0
ARC
  5
302BD
  8
0
 10
3680.5468174897878271
 20
203.3530976565953097
 30
0.0
 40
0.0157480315010972
 50
359.0000000037472887
 51
89.9999999983585326
  0
ARC
  5
302BE
  8
0
 10
3680.4965629897938015
 20
202.9554598702690953
 30
0.0
 40
0.059055141227681
 50
270.0398847651574101
 51
358.9999917075742815
  0
LINE
  5
302BF
  8
0
 10
3680.5625631227881058
 20
203.352822815550013
 30
0.0
 11
3680.5556091364887834
 21
202.9544292074731118
 31
0.0
  0
LINE
  5
302C0
  8
0
 10
3679.4725525706089684
 20
202.8964047429500113
 30
0.0
 11
3679.4798964736742164
 21
202.8441501573543064
 31
0.0
  0
LINE
  5
302C1
  8
0
 10
3679.5881071913267988
 20
202.8441501573516064
 30
0.0
 11
3679.5954510944661706
 21
202.89640474334999
 31
0.0
  0
LINE
  5
302C2
  8
0
 10
3679.6823823660952257
 20
202.8964047430499988
 30
0.0
 11
3679.6897262691381911
 21
202.8441501576533028
 31
0.0
  0
LINE
  5
302C3
  8
0
 10
3679.7979369869431139
 20
202.844150157466288
 30
0.0
 11
3679.8052808899378761
 21
202.8964047431499864
 31
0.0
  0
ARC
  5
302C4
  8
0
 10
3679.7901138691981942
 20
202.8452496249499859
 30
0.0
 40
0.0079
 50
270.0
 51
352.0000001017197064
  0
LINE
  5
302C5
  8
0
 10
3677.3659900114098491
 20
203.3688456880963997
 30
0.0
 11
3677.3541789878099735
 21
203.380656711796405
 31
0.0
  0
ARC
  5
302C6
  8
0
 10
3679.6975493868822014
 20
202.8452496251499895
 30
0.0
 40
0.0079
 50
187.9999999939252007
 51
270.0
  0
LINE
  5
302C7
  8
0
 10
3679.5802840735850623
 20
202.8373496248499919
 30
0.0
 11
3679.4877195914168624
 21
202.8373496248499919
 31
0.0
  0
LINE
  5
302C8
  8
0
 10
3679.8679585155528002
 20
202.8373496250499954
 30
0.0
 11
3679.8762581710661834
 21
202.89640474334999
 31
0.0
  0
ARC
  5
302C9
  8
0
 10
3679.8610911503260468
 20
202.8452496251499895
 30
0.0
 40
0.0079
 50
270.0
 51
352.0000001017197064
  0
LINE
  5
302CA
  8
0
 10
3679.6975493868822014
 20
202.8373496250499954
 30
0.0
 11
3679.8610911503260468
 21
202.8373496250499954
 31
0.0
  0
ARC
  5
302CB
  8
0
 10
3679.5802840735850623
 20
202.8452496248499983
 30
0.0
 40
0.0079
 50
269.9999999999739089
 51
351.9999999942679096
  0
ARC
  5
302CC
  8
0
 10
3679.4877195914168624
 20
202.8452496248499983
 30
0.0
 40
0.0079
 50
187.9999999864604945
 51
269.9999999999218971
  0
LINE
  5
302CD
  8
0
 10
3679.0152141563821715
 20
202.8964047431499864
 30
0.0
 11
3679.0225580594251369
 21
202.8441501577532051
 31
0.0
  0
LINE
  5
302CE
  8
0
 10
3679.0303811771668734
 20
202.8373496251500114
 30
0.0
 11
3679.2407966952359857
 21
202.8373496251500114
 31
0.0
  0
ARC
  5
302CF
  8
0
 10
3679.0303811771668734
 20
202.8452496252500055
 30
0.0
 40
0.0079
 50
187.9999999939252007
 51
270.0
  0
LINE
  5
302D0
  8
0
 10
3678.6786854354950265
 20
202.8964047430499988
 30
0.0
 11
3678.6860293385389014
 21
202.8441501576533028
 31
0.0
  0
LINE
  5
302D1
  8
0
 10
3678.793284303676046
 20
202.8373496250499954
 30
0.0
 11
3678.8015839591880649
 21
202.89640474334999
 31
0.0
  0
ARC
  5
302D2
  8
0
 10
3678.7864169384488378
 20
202.8452496251499895
 30
0.0
 40
0.0079
 50
270.0
 51
352.0000001017197064
  0
LINE
  5
302D3
  8
0
 10
3678.6938298684740403
 20
202.8373496250499954
 30
0.0
 11
3678.8633618845260571
 21
202.8373496250499954
 31
0.0
  0
ARC
  5
302D4
  8
0
 10
3678.6938524562810926
 20
202.8452496251499895
 30
0.0
 40
0.0079
 50
187.9999999939252007
 51
270.0
  0
LINE
  5
302D5
  8
0
 10
3679.2476396980541722
 20
202.8373496250499954
 30
0.0
 11
3679.2559393535238996
 21
202.8964047430499988
 31
0.0
  0
ARC
  5
302D6
  8
0
 10
3679.2407723327842177
 20
202.8452496248499983
 30
0.0
 40
0.0079
 50
270.0
 51
352.0000001017197064
  0
LINE
  5
302D7
  8
0
 10
3678.4598576064981899
 20
202.8556112929935011
 30
0.0
 11
3678.4614683640661497
 21
202.844150157353198
 31
0.0
  0
LINE
  5
302D8
  8
0
 10
3678.5696905620579855
 20
202.844071123600088
 30
0.0
 11
3678.5770455725651118
 21
202.89640474334999
 31
0.0
  0
ARC
  5
302D9
  8
0
 10
3678.5618674443130658
 20
202.8451705910837006
 30
0.0
 40
0.0079
 50
270.0
 51
352.0000001017197064
  0
LINE
  5
302DA
  8
0
 10
3678.3517859092958133
 20
202.8372705909837066
 30
0.0
 11
3678.5618674443130658
 21
202.8372705909837066
 31
0.0
  0
ARC
  5
302DB
  8
0
 10
3678.4692914818101599
 20
202.8452496248499983
 30
0.0
 40
0.0079
 50
187.9999999939252007
 51
270.0
  0
LINE
  5
302DC
  8
0
 10
3678.1293438990951472
 20
202.8964047430499988
 30
0.0
 11
3678.1366878021381126
 21
202.8441501576533028
 31
0.0
  0
LINE
  5
302DD
  8
0
 10
3678.2448985197938782
 20
202.8441501576662915
 30
0.0
 11
3678.2522424227890951
 21
202.89640474334999
 31
0.0
  0
ARC
  5
302DE
  8
0
 10
3678.237075402048049
 20
202.8452496251499895
 30
0.0
 40
0.0079
 50
270.0
 51
352.0000001017197064
  0
LINE
  5
302DF
  8
0
 10
3678.1444883320750705
 20
202.8373496250499954
 30
0.0
 11
3678.237075402048049
 21
202.8373496250499954
 31
0.0
  0
ARC
  5
302E0
  8
0
 10
3678.1445109198821228
 20
202.8452496251499895
 30
0.0
 40
0.0079
 50
187.9999999939252007
 51
270.0
  0
LINE
  5
302E1
  8
0
 10
3678.3366077809259878
 20
202.89640474334999
 30
0.0
 11
3678.3439627915518031
 21
202.8440711233870104
 31
0.0
  0
ARC
  5
302E2
  8
0
 10
3678.3517859092958133
 20
202.8451705908836971
 30
0.0
 40
0.0079
 50
187.9999999939252007
 51
270.0
  0
LINE
  5
302E3
  8
0
 10
3677.9982100383090255
 20
202.8964047429500113
 30
0.0
 11
3678.0055539413519909
 21
202.8441501575532868
 31
0.0
  0
LINE
  5
302E4
  8
0
 10
3678.1137646590868826
 20
202.8441501576662915
 30
0.0
 11
3678.12110856208119
 21
202.89640474334999
 31
0.0
  0
ARC
  5
302E5
  8
0
 10
3678.1059415413428724
 20
202.8452496251499895
 30
0.0
 40
0.0079
 50
270.0
 51
352.0000001017197064
  0
LINE
  5
302E6
  8
0
 10
3678.0133544713671654
 20
202.8373496250499954
 30
0.0
 11
3678.1059415413428724
 21
202.8373496250499954
 31
0.0
  0
ARC
  5
302E7
  8
0
 10
3678.0133770590960012
 20
202.8452496250500019
 30
0.0
 40
0.0079
 50
187.9999999939252007
 51
270.0
  0
LINE
  5
302E8
  8
0
 10
3677.6304792662690488
 20
202.89640474334999
 30
0.0
 11
3677.6378231694097849
 21
202.8441501572532104
 31
0.0
  0
LINE
  5
302E9
  8
0
 10
3677.7460338870650958
 20
202.8441501572661991
 30
0.0
 11
3677.7533777900598579
 21
202.8964047429500113
 31
0.0
  0
ARC
  5
302EA
  8
0
 10
3677.738210769320176
 20
202.8452496247500108
 30
0.0
 40
0.0079
 50
270.0
 51
352.0000001017197064
  0
LINE
  5
302EB
  8
0
 10
3677.6456236993458333
 20
202.8373496246499883
 30
0.0
 11
3677.738210769320176
 21
202.8373496246499883
 31
0.0
  0
ARC
  5
302EC
  8
0
 10
3677.6456462871519761
 20
202.8452496247500108
 30
0.0
 40
0.0079
 50
187.9999999939252007
 51
270.0
  0
LINE
  5
302ED
  8
0
 10
3677.8197077704130606
 20
202.8373496246169054
 30
0.0
 11
3677.9122722525698919
 21
202.8373496247498906
 31
0.0
  0
LINE
  5
302EE
  8
0
 10
3677.2961864921649067
 20
202.8441501572661991
 30
0.0
 11
3677.3035303951601236
 21
202.8964047429500113
 31
0.0
  0
ARC
  5
302EF
  8
0
 10
3677.2883633744199869
 20
202.8452496247500108
 30
0.0
 40
0.0079
 50
270.0
 51
352.0000001017197064
  0
LINE
  5
302F0
  8
0
 10
3677.1957763044460989
 20
202.8373496246499883
 30
0.0
 11
3677.2883633744199869
 21
202.8373496246499883
 31
0.0
  0
LINE
  5
302F1
  8
0
 10
3677.0679037087597862
 20
202.8964047429500113
 30
0.0
 11
3677.0752476118868799
 21
202.8441501569531908
 31
0.0
  0
LINE
  5
302F2
  8
0
 10
3677.0830707296299806
 20
202.8373496244498995
 30
0.0
 11
3677.2199465879562013
 21
202.8373496244498995
 31
0.0
  0
ARC
  5
302F3
  8
0
 10
3677.0830707296299806
 20
202.8452496244499059
 30
0.0
 40
0.0079
 50
187.9999999939267923
 51
270.0
  0
LINE
  5
302F4
  8
0
 10
3677.1778500793880085
 20
202.8964047425498904
 30
0.0
 11
3677.1851939824309738
 21
202.8441501571531944
 31
0.0
  0
ARC
  5
302F5
  8
0
 10
3677.1930171001740746
 20
202.8452496246499948
 30
0.0
 40
0.0079
 50
187.9999999939252007
 51
270.0
  0
LINE
  5
302F6
  8
0
 10
3677.1549344504301189
 20
202.8964047424499029
 30
0.0
 11
3677.1622783534730843
 21
202.8441501570532068
 31
0.0
  0
ARC
  5
302F7
  8
0
 10
3677.170101471216185
 20
202.8452496245500072
 30
0.0
 40
0.0079
 50
187.9999999939252007
 51
270.0
  0
LINE
  5
302F8
  8
0
 10
3677.8045407496160806
 20
202.8964047425498904
 30
0.0
 11
3677.811884652659046
 21
202.8441501571531944
 31
0.0
  0
ARC
  5
302F9
  8
0
 10
3677.8197077704021467
 20
202.8452496246499948
 30
0.0
 40
0.0079
 50
187.9999999939252007
 51
270.0
  0
LINE
  5
302FA
  8
0
 10
3679.1330408296821588
 20
202.8964047431499864
 30
0.0
 11
3679.1413404852519307
 21
202.8373496251500114
 31
0.0
  0
ARC
  5
302FB
  8
0
 10
3679.1482078504668607
 20
202.8452496252500055
 30
0.0
 40
0.0079
 50
187.9999999939252007
 51
270.0
  0
LINE
  5
302FC
  8
0
 10
3679.1307847566181408
 20
202.8441501573663004
 30
0.0
 11
3679.1355847446698135
 21
202.8783038474529974
 31
0.0
  0
ARC
  5
302FD
  8
0
 10
3679.1229616388732211
 20
202.8452496248499983
 30
0.0
 40
0.0079
 50
270.0
 51
352.0000001017197064
  0
LINE
  5
302FE
  8
0
 10
3678.8711850022709768
 20
202.8441501576662915
 30
0.0
 11
3678.8785289052648295
 21
202.89640474334999
 31
0.0
  0
ARC
  5
302FF
  8
0
 10
3678.8633618845260571
 20
202.8452496251499895
 30
0.0
 40
0.0079
 50
270.0
 51
352.0000001017197064
  0
LINE
  5
30300
  8
0
 10
3678.458235741543831
 20
202.8440711234999867
 30
0.0
 11
3678.4655907520659639
 21
202.89640474334999
 31
0.0
  0
ARC
  5
30301
  8
0
 10
3678.4504126237980017
 20
202.8451705909837131
 30
0.0
 40
0.0079
 50
270.0
 51
352.0000001017197064
  0
LINE
  5
30302
  8
0
 10
3677.9200953703148116
 20
202.8441501572663128
 30
0.0
 11
3677.9274392733100285
 21
202.8964047429500113
 31
0.0
  0
ARC
  5
30303
  8
0
 10
3677.9122722525698919
 20
202.8452496247500108
 30
0.0
 40
0.0079
 50
270.0
 51
352.0000001017197064
  0
LINE
  5
30304
  8
0
 10
3677.6245797024507738
 20
202.8441501571662968
 30
0.0
 11
3677.6319236054459907
 21
202.8964047428499953
 31
0.0
  0
ARC
  5
30305
  8
0
 10
3677.616756584705854
 20
202.8452496246499948
 30
0.0
 40
0.0079
 50
270.0
 51
352.0000001017197064
  0
LINE
  5
30306
  8
0
 10
3677.4797375999091855
 20
202.8964047429500113
 30
0.0
 11
3677.4870815029530604
 21
202.8441501575532868
 31
0.0
  0
ARC
  5
30307
  8
0
 10
3677.4949046206961611
 20
202.8452496250500019
 30
0.0
 40
0.0079
 50
187.9999999939252007
 51
270.0
  0
LINE
  5
30308
  8
0
 10
3677.509025081710206
 20
202.8964047429500113
 30
0.0
 11
3677.5163689847531714
 21
202.8441501575532868
 31
0.0
  0
ARC
  5
30309
  8
0
 10
3677.5241921024958174
 20
202.8452496250500019
 30
0.0
 40
0.0079
 50
187.9999999939252007
 51
270.0
  0
LINE
  5
3030A
  8
0
 10
3677.616756584705854
 20
202.8373496246499883
 30
0.0
 11
3677.4949046206961611
 21
202.8373496250499954
 31
0.0
  0
LINE
  5
3030B
  8
0
 10
3676.9677384158239875
 20
202.8964047430499988
 30
0.0
 11
3676.9603945127278166
 21
202.8441501573516064
 31
0.0
  0
ARC
  5
3030C
  8
0
 10
3676.9525713949838064
 20
202.8452496248499983
 30
0.0
 40
0.0079
 50
270.0
 51
351.9999999942453996
  0
LINE
  5
3030D
  8
0
 10
3676.9525713949838064
 20
202.8373496248499919
 30
0.0
 11
3676.8452983215352106
 21
202.8373496248499919
 31
0.0
  0
LINE
  5
3030E
  8
0
 10
3676.8301313006900273
 20
202.89640474334999
 30
0.0
 11
3676.8374752037912003
 21
202.8441501573568928
 31
0.0
  0
ARC
  5
3030F
  8
0
 10
3676.8452983215352106
 20
202.8452496248499983
 30
0.0
 40
0.0079
 50
187.9999999669435056
 51
270.0
  0
LINE
  5
30310
  8
0
 10
3676.8437370013098189
 20
202.8964047429500113
 30
0.0
 11
3676.8510809043727932
 21
202.8441501573543064
 31
0.0
  0
ARC
  5
30311
  8
0
 10
3676.8589040221168034
 20
202.8452496248499983
 30
0.0
 40
0.0079
 50
187.9999999864654114
 51
270.0
  0
LINE
  5
30312
  8
0
 10
3674.7906441537647879
 20
187.2679121251038055
 30
0.0
 11
3674.7906441537647879
 21
185.7547573273477894
 31
0.0
  0
LINE
  5
30313
  8
0
 10
3674.8293748669079832
 20
187.3022567928408932
 30
0.0
 11
3675.7596907987599479
 21
187.3103747909964056
 31
0.0
  0
LINE
  5
30314
  8
0
 10
3675.7992477962770863
 20
187.3123059847681873
 30
0.0
 11
3676.1354180555740641
 21
187.3093714990424132
 31
0.0
  0
LINE
  5
30315
  8
0
 10
3676.1533661905350527
 20
187.2987342950258949
 30
0.0
 11
3676.1888253501738291
 21
187.29877600774239
 31
0.0
  0
ARC
  5
30316
  8
0
 10
3676.5876290837331908
 20
188.0710863185726964
 30
0.0
 40
0.8691994213731055
 50
242.6891835290034862
 51
268.6253702924071263
  0
ARC
  5
30317
  8
0
 10
3676.6069833866931731
 20
188.0845822935841056
 30
0.0
 40
0.9073729318685574
 50
238.6876023198799999
 51
267.4603748777092846
  0
LINE
  5
30318
  8
0
 10
3675.7793758382740634
 20
187.2977520538424017
 30
0.0
 11
3675.7793758382740634
 21
185.724917408142403
 31
0.0
  0
ARC
  5
30319
  8
0
 10
3675.7990758382729837
 20
187.2926067352788095
 30
0.0
 40
0.0197
 50
89.4998683786799916
 51
180.0000000000015916
  0
ARC
  5
3031A
  8
0
 10
3683.0293661074010743
 20
186.3632869906761869
 30
0.0
 40
8.2882378141049937
 50
173.7339313954439035
 51
178.9987800066161014
  0
ARC
  5
3031B
  8
0
 10
3674.8297187002040118
 20
187.2628582728034132
 30
0.0
 40
0.0394000203360645
 50
90.5000110802943141
 51
172.6303492029620941
  0
LINE
  5
3031C
  8
0
 10
3677.3541789878740929
 20
187.2792074749997084
 30
0.0
 11
3677.3541789878740929
 21
185.7434619869850962
 31
0.0
  0
LINE
  5
3031D
  8
0
 10
3677.3679585153740845
 20
187.2787949207898066
 30
0.0
 11
3677.3679585208078606
 21
185.7438448220314058
 31
0.0
  0
LINE
  5
3031E
  8
0
 10
3677.3878304281229248
 20
187.2984941707439077
 30
0.0
 11
3678.1143624852429639
 21
187.2921535822910073
 31
0.0
  0
LINE
  5
3031F
  8
0
 10
3677.3346508554777756
 20
187.2989067252761117
 30
0.0
 11
3676.9981610821728282
 21
187.3018424558424044
 31
0.0
  0
LINE
  5
30320
  8
0
 10
3676.9800656760739912
 20
187.2987665703423943
 30
0.0
 11
3676.9447292313739126
 21
187.2987758863424119
 31
0.0
  0
ARC
  5
30321
  8
0
 10
3677.3344789878728989
 20
187.2792074749978042
 30
0.0
 40
0.0197
 50
0.0000000053543239
 51
89.500131305768889
  0
ARC
  5
30322
  8
0
 10
3677.3876585153739143
 20
187.2787949208596103
 30
0.0
 40
0.0197
 50
89.5000000014675976
 51
180.0000002028569099
  0
LINE
  5
30323
  8
0
 10
3677.3679585155127825
 20
187.2394750412420024
 30
0.0
 11
3677.3639356164740093
 21
187.2394750412420024
 31
0.0
  0
ARC
  5
30324
  8
0
 10
3677.3640215075361084
 20
187.2493522934265968
 30
0.0
 40
0.0098425196616666
 50
180.0013637836393059
 51
269.501783634570188
  0
ARC
  5
30325
  8
0
 10
3676.5459279336951113
 20
188.0710777093306092
 30
0.0
 40
0.8691907620431798
 50
271.3744989174720104
 51
297.3109305110286869
  0
ARC
  5
30326
  8
0
 10
3676.5063113205301306
 20
188.2027014560599127
 30
0.0
 40
1.026383518136081
 50
273.3773525542305833
 51
298.6335969820374885
  0
ARC
  5
30327
  8
0
 10
3676.97969421146081
 20
187.2902894763547863
 30
0.0
 40
0.0084852288379654
 50
37.9780351679975681
 51
87.4909152067355222
  0
LINE
  5
30328
  8
0
 10
3678.7591662056897803
 20
187.2109554230565891
 30
0.0
 11
3678.9964128253591298
 21
187.2099029892964097
 31
0.0
  0
LINE
  5
30329
  8
0
 10
3676.9407931610098785
 20
193.6740317918871881
 30
0.0
 11
3676.9407931610098785
 21
187.2967560493734993
 31
0.0
  0
LINE
  5
3032A
  8
0
 10
3676.1927616650091295
 20
177.6551755452964017
 30
0.0
 11
3676.1927616650091295
 21
185.7260140683021916
 31
0.0
  0
LINE
  5
3032B
  8
0
 10
3679.0181860690349822
 20
187.1484344032342051
 30
0.0
 11
3679.0181860690349822
 21
185.8781583074469097
 31
0.0
  0
ARC
  5
3032C
  8
0
 10
3672.6350256110199552
 20
186.5094874104707117
 30
0.0
 40
6.418721698682794
 50
0.220866475441341
 51
5.6122704335424842
  0
ARC
  5
3032D
  8
0
 10
3669.7840015628789843
 20
186.1787984019491944
 30
0.0
 40
9.2885554902902925
 50
5.9224512951338788
 51
6.2297252515760171
  0
ARC
  5
3032E
  8
0
 10
3678.9930869394029287
 20
187.1854762643197034
 30
0.0
 40
0.0246521076275675
 50
2.954776191466665
 51
82.246419876048023
  0
LINE
  5
3032F
  8
0
 10
3674.8293748669079832
 20
185.720412659610588
 30
0.0
 11
3675.7595190165598069
 21
185.7122954202964138
 31
0.0
  0
LINE
  5
30330
  8
0
 10
3675.7992477962770863
 20
185.710363477216589
 30
0.0
 11
3676.1354180555740641
 21
185.7132979629423915
 31
0.0
  0
LINE
  5
30331
  8
0
 10
3676.1533661905350527
 20
185.7239351669589098
 30
0.0
 11
3676.1888253501738291
 21
185.7238934542423863
 31
0.0
  0
ARC
  5
30332
  8
0
 10
3676.5697395470460833
 20
185.0215485799886892
 30
0.0
 40
0.7989893289455915
 50
90.2124160580978014
 51
118.4730301205018037
  0
ARC
  5
30333
  8
0
 10
3676.6069833866931731
 20
184.9380871684006138
 30
0.0
 40
0.9073729318685574
 50
92.5396251222906443
 51
121.3123976801200001
  0
ARC
  5
30334
  8
0
 10
3675.7990758382729837
 20
185.7300627267059951
 30
0.0
 40
0.0197
 50
179.9999999999967031
 51
270.5001316213200084
  0
ARC
  5
30335
  8
0
 10
3681.509625174681787
 20
186.5633132870553084
 30
0.0
 40
6.7674565901389343
 50
180.4673499593075974
 51
186.8619244136756095
  0
ARC
  5
30336
  8
0
 10
3674.8297187002040118
 20
185.7598111796482101
 30
0.0
 40
0.0394000203360645
 50
187.3696507970379059
 51
269.4999889197056859
  0
LINE
  5
30337
  8
0
 10
3677.3878304281229248
 20
185.724175291240897
 30
0.0
 11
3678.0163834335689899
 21
185.7296983863047046
 31
0.0
  0
LINE
  5
30338
  8
0
 10
3677.3346508554777756
 20
185.7237627367086077
 30
0.0
 11
3676.9981610821728282
 21
185.7208270061424003
 31
0.0
  0
LINE
  5
30339
  8
0
 10
3676.9800656760739912
 20
185.7239028916424104
 30
0.0
 11
3676.9447292313739126
 21
185.7238935756423928
 31
0.0
  0
ARC
  5
3033A
  8
0
 10
3677.3344789878728989
 20
185.7434619869868868
 30
0.0
 40
0.0197
 50
270.4998686942309973
 51
359.9999999946440994
  0
ARC
  5
3033B
  8
0
 10
3677.3876585153739143
 20
185.7438745411251944
 30
0.0
 40
0.0197
 50
179.9999997971414132
 51
270.4999999985324166
  0
LINE
  5
3033C
  8
0
 10
3677.3679585155127825
 20
185.7831944207426886
 30
0.0
 11
3677.3639356164740093
 21
185.7831944207426886
 31
0.0
  0
ARC
  5
3033D
  8
0
 10
3677.3640215068880934
 20
185.7733171691976963
 30
0.0
 40
0.009842519016472
 50
90.4982126259641433
 51
179.9986399394526018
  0
ARC
  5
3033E
  8
0
 10
3676.5638152999767954
 20
185.0215487434475108
 30
0.0
 40
0.7989891654105344
 50
61.5269851761720972
 51
89.7875853953440526
  0
ARC
  5
3033F
  8
0
 10
3676.5063113205301306
 20
184.8199680059248067
 30
0.0
 40
1.026383518136081
 50
61.3664030179624831
 51
86.6226474457693314
  0
ARC
  5
30340
  8
0
 10
3676.97969421146081
 20
185.73237998562999
 30
0.0
 40
0.0084852288379654
 50
272.509084793264492
 51
322.0219648320024248
  0
LINE
  5
30341
  8
0
 10
3678.7154831494171958
 20
185.8510501124852112
 30
0.0
 11
3678.9992329605211125
 21
185.8535852115749094
 31
0.0
  0
ARC
  5
30342
  8
0
 10
3678.9930729866619004
 20
185.8779321370757032
 30
0.0
 40
0.0251141008056075
 50
284.1983513633421126
 51
0.5159962918444739
  0
ARC
  5
30343
  8
0
 10
3673.1362132292370006
 20
186.5255500265932938
 30
0.0
 40
5.917492756745264
 50
353.7190951865592865
 51
0.0840486021831102
  0
LINE
  5
30344
  8
0
 10
3679.0084413316099017
 20
193.1506191390328127
 30
0.0
 11
3679.0084413316099017
 21
187.9916668280735053
 31
0.0
  0
ARC
  5
30345
  8
0
 10
3678.4939216239909001
 20
194.8870505959048103
 30
0.0
 40
2.3775973372956489
 50
54.3783928977068527
 51
89.8114293132631047
  0
ARC
  5
30346
  8
0
 10
3678.4836169864761359
 20
192.8474242881922862
 30
0.0
 40
0.0792196842434714
 50
315.4027534542452145
 51
1.095093080753281
  0
LINE
  5
30347
  8
0
 10
3677.9952326578099928
 20
193.1480180551274941
 30
0.0
 11
3677.9952326578099928
 21
187.9911631137883887
 31
0.0
  0
ARC
  5
30348
  8
0
 10
3666.2319097272029467
 20
192.7106847420120914
 30
0.0
 40
11.9186598782161006
 50
359.4400951896257084
 51
0.8430487698292513
  0
ARC
  5
30349
  8
0
 10
3677.82447515708418
 20
192.8800188261006952
 30
0.0
 40
0.3248602475575164
 50
1.063658876322209
 51
50.5999432077559419
  0
ARC
  5
3034A
  8
0
 10
3678.4366841461028343
 20
195.3692650541231046
 30
0.0
 40
2.2600891871632811
 50
230.2632329093133876
 51
257.1016329020022795
  0
ARC
  5
3034B
  8
0
 10
3678.0915122715850885
 20
194.9976268911709951
 30
0.0
 40
1.7538695670691991
 50
181.9798207688251921
 51
231.1733947024349902
  0
ARC
  5
3034C
  8
0
 10
3678.201317107253999
 20
195.2997276812394034
 30
0.0
 40
1.8626312938957801
 50
125.3072592414120976
 51
179.8834923368528962
  0
ARC
  5
3034D
  8
0
 10
3678.5184090663869938
 20
194.8596981813064986
 30
0.0
 40
2.4049945960227102
 50
90.3969615508949857
 51
125.4132162381259974
  0
ARC
  5
3034E
  8
0
 10
3678.1416613800088271
 20
194.9492303056985918
 30
0.0
 40
1.8030129580242971
 50
115.5486476960738003
 51
180.3875411265088928
  0
ARC
  5
3034F
  8
0
 10
3678.5189069742168613
 20
192.8474242881922862
 30
0.0
 40
0.0792196842434714
 50
178.904906919246713
 51
224.5972465457365956
  0
ARC
  5
30350
  8
0
 10
3678.5357880410479083
 20
192.5843833422518117
 30
0.0
 40
0.3859127854608432
 50
178.5401123118934947
 51
224.0537641381976925
  0
LINE
  5
30351
  8
0
 10
3676.3386896642427928
 20
195.3035152319394001
 30
0.0
 11
3676.3386896656761564
 21
194.9370350558774874
 31
0.0
  0
ARC
  5
30352
  8
0
 10
3678.4641588088661592
 20
194.5328192893514085
 30
0.0
 40
2.3204672398669999
 50
89.1886888483251141
 51
118.2997144755436949
  0
ARC
  5
30353
  8
0
 10
3678.5012619803460439
 20
192.8298563764969913
 30
0.0
 40
0.0543207656569661
 50
224.470124853049299
 51
315.5298751469508147
  0
LINE
  5
30354
  8
0
 10
3678.5628222014461244
 20
192.8489383202382044
 30
0.0
 11
3678.5593454994050262
 21
193.5887130283464046
 31
0.0
  0
ARC
  5
30355
  8
0
 10
3678.4998129615701146
 20
195.7631119564798894
 30
0.0
 40
0.0192984899190496
 50
99.3118873504307942
 51
189.7556834185052139
  0
ARC
  5
30356
  8
0
 10
3678.5023144099918682
 20
195.7586663450229878
 30
0.0
 40
0.0241536911818787
 50
22.4230776510615613
 51
103.464732091449406
  0
ARC
  5
30357
  8
0
 10
3678.5061885530071777
 20
195.7618134061659134
 30
0.0
 40
0.0194248467807419
 50
281.1623326051861227
 51
18.1973016530019116
  0
ARC
  5
30358
  8
0
 10
3678.5029852254419893
 20
195.7642914757340122
 30
0.0
 40
0.0226333759500226
 50
191.3378806680146056
 51
287.9192992649084886
  0
ARC
  5
30359
  8
0
 10
3678.5021716278088206
 20
195.7633169415929899
 30
0.0
 40
0.0522847693122655
 50
96.3316742982766812
 51
182.3667374927979097
  0
ARC
  5
3035A
  8
0
 10
3678.5056212317808786
 20
195.7622252254307114
 30
0.0
 40
0.0538519689245516
 50
9.2879466961371122
 51
99.8536107418127017
  0
ARC
  5
3035B
  8
0
 10
3678.5047780007789697
 20
195.771506045150403
 30
0.0
 40
0.0539924002082997
 50
267.4134231027397846
 51
359.3746159997677978
  0
ARC
  5
3035C
  8
0
 10
3678.5009001786988847
 20
195.7691382217354032
 30
0.0
 40
0.0515897022303617
 50
188.8988186660695874
 51
271.6008140401111746
  0
LINE
  5
3035D
  8
0
 10
3678.4499034934688098
 20
195.7619981411515084
 30
0.0
 11
3678.4484975840159677
 21
195.8177186746148095
 31
0.0
  0
LINE
  5
3035E
  8
0
 10
3678.5587671847611091
 20
195.7709167292701125
 30
0.0
 11
3678.5595738316078496
 21
195.8189051970194043
 31
0.0
  0
ARC
  5
3035F
  8
0
 10
3678.4859142394848277
 20
195.7909052560679015
 30
0.0
 40
0.0466869474058104
 50
158.2133840497203039
 51
219.5809946408471092
  0
ARC
  5
30360
  8
0
 10
3678.5067999332968611
 20
195.7746361217047024
 30
0.0
 40
0.0724932431122075
 50
92.6133845199988741
 51
152.3900050833823059
  0
ARC
  5
30361
  8
0
 10
3678.5049439863510088
 20
195.780005351143501
 30
0.0
 40
0.0670642826098466
 50
33.3864235002422731
 51
91.2384472238465349
  0
ARC
  5
30362
  8
0
 10
3678.5257231255709485
 20
195.7955265310457094
 30
0.0
 40
0.0412013615210623
 50
323.3228355864023911
 51
31.2646143211150083
  0
ARC
  5
30363
  8
0
 10
3678.4991825208699083
 20
196.2378861056996016
 30
0.0
 40
0.0192984899190496
 50
99.3118873504307942
 51
189.7556834185052139
  0
ARC
  5
30364
  8
0
 10
3678.5016839692921167
 20
196.2334404942427
 30
0.0
 40
0.0241536911818787
 50
22.4230776510615613
 51
103.464732091449406
  0
ARC
  5
30365
  8
0
 10
3678.505558112306062
 20
196.2365875553855972
 30
0.0
 40
0.0194248467807419
 50
281.1623326051861227
 51
18.1973016530019116
  0
ARC
  5
30366
  8
0
 10
3678.5023547847417831
 20
196.239065624953696
 30
0.0
 40
0.0226333759500226
 50
191.3378806680146056
 51
287.9192992649084886
  0
ARC
  5
30367
  8
0
 10
3678.5015411871081596
 20
196.2380910908125031
 30
0.0
 40
0.0522847693122655
 50
96.3316742982766812
 51
182.3667374927979097
  0
ARC
  5
30368
  8
0
 10
3678.5049907910811271
 20
196.2369993746503951
 30
0.0
 40
0.0538519689245516
 50
9.2879466961371122
 51
99.8536107418127017
  0
ARC
  5
30369
  8
0
 10
3678.5041475600792182
 20
196.2462801943700867
 30
0.0
 40
0.0539924002082997
 50
267.4134231027397846
 51
359.3746159997677978
  0
ARC
  5
3036A
  8
0
 10
3678.5002697379991332
 20
196.243912370954888
 30
0.0
 40
0.0515897022303617
 50
188.8988186660695874
 51
271.6008140401111746
  0
LINE
  5
3036B
  8
0
 10
3678.4492730527681488
 20
196.2367722903711922
 30
0.0
 11
3678.4478671433162162
 21
196.292492823834408
 31
0.0
  0
LINE
  5
3036C
  8
0
 10
3678.5581367440609029
 20
196.2456908784897962
 30
0.0
 11
3678.5589433909071886
 21
196.2936793462390881
 31
0.0
  0
ARC
  5
3036D
  8
0
 10
3678.4852837987850762
 20
196.2656794052875
 30
0.0
 40
0.0466869474058104
 50
158.2133840497203039
 51
219.5809946408471092
  0
ARC
  5
3036E
  8
0
 10
3678.5061694925962001
 20
196.2494102709243862
 30
0.0
 40
0.0724932431122075
 50
92.6133845199988741
 51
152.3900050833823059
  0
ARC
  5
3036F
  8
0
 10
3678.5043135456498931
 20
196.2547795003630995
 30
0.0
 40
0.0670642826098466
 50
33.3864235002422731
 51
91.2384472238465349
  0
ARC
  5
30370
  8
0
 10
3678.525092684871197
 20
196.2703006802653078
 30
0.0
 40
0.0412013615210623
 50
323.3228355864023911
 51
31.2646143211150083
  0
ARC
  5
30371
  8
0
 10
3678.4962975130379164
 20
193.5741403802759066
 30
0.0
 40
0.0192984899190496
 50
99.3118873504307942
 51
189.7556834185052139
  0
ARC
  5
30372
  8
0
 10
3678.4987989614592152
 20
193.5696947688190903
 30
0.0
 40
0.0241536911818787
 50
22.4230776510615613
 51
103.464732091449406
  0
ARC
  5
30373
  8
0
 10
3678.5026731044731605
 20
193.5728418299619022
 30
0.0
 40
0.0194248467807419
 50
281.1623326051861227
 51
18.1973016530019116
  0
ARC
  5
30374
  8
0
 10
3678.4994697769097911
 20
193.5753198995300863
 30
0.0
 40
0.0226333759500226
 50
191.3378806680146056
 51
287.9192992649084886
  0
ARC
  5
30375
  8
0
 10
3678.4986561792761677
 20
193.5743453653890072
 30
0.0
 40
0.0522847693122655
 50
96.3316742982766812
 51
182.3667374927979097
  0
ARC
  5
30376
  8
0
 10
3678.5021057832491351
 20
193.5732536492268139
 30
0.0
 40
0.0538519689245516
 50
9.2879466961371122
 51
99.8536107418127017
  0
ARC
  5
30377
  8
0
 10
3678.501262552245862
 20
193.5825344689465055
 30
0.0
 40
0.0539924002082997
 50
267.4134231027397846
 51
359.3746159997677978
  0
ARC
  5
30378
  8
0
 10
3678.497384730165777
 20
193.5801666455313068
 30
0.0
 40
0.0515897022303617
 50
188.8988186660695874
 51
271.6008140401111746
  0
LINE
  5
30379
  8
0
 10
3678.4463880449347926
 20
193.5730265649476962
 30
0.0
 11
3678.44498213548286
 21
193.6287470984107131
 31
0.0
  0
LINE
  5
3037A
  8
0
 10
3678.5552517362280014
 20
193.5819451530661865
 30
0.0
 11
3678.5560583830751966
 21
193.6299336208153932
 31
0.0
  0
ARC
  5
3037B
  8
0
 10
3678.4823987909530842
 20
193.6019336798638903
 30
0.0
 40
0.0466869474058104
 50
158.2133840497203039
 51
219.5809946408471092
  0
ARC
  5
3037C
  8
0
 10
3678.5032844847642082
 20
193.5856645455008049
 30
0.0
 40
0.0724932431122075
 50
92.6133845199988741
 51
152.3900050833823059
  0
ARC
  5
3037D
  8
0
 10
3678.5014285378169916
 20
193.5910337749396035
 30
0.0
 40
0.0670642826098466
 50
33.3864235002422731
 51
91.2384472238465349
  0
ARC
  5
3037E
  8
0
 10
3678.5222076770378408
 20
193.6065549548416982
 30
0.0
 40
0.0412013615210623
 50
323.3228355864023911
 51
31.2646143211150083
  0
ARC
  5
3037F
  8
0
 10
3678.4959689360857737
 20
193.9873573613577094
 30
0.0
 40
0.0192984899190496
 50
99.3118873504307942
 51
189.7556834185052139
  0
ARC
  5
30380
  8
0
 10
3678.4984703845079821
 20
193.982911749900893
 30
0.0
 40
0.0241536911818787
 50
22.4230776510615613
 51
103.464732091449406
  0
ARC
  5
30381
  8
0
 10
3678.5023445275219274
 20
193.986058811043705
 30
0.0
 40
0.0194248467807419
 50
281.1623326051861227
 51
18.1973016530019116
  0
ARC
  5
30382
  8
0
 10
3678.4991411999590127
 20
193.988536880611889
 30
0.0
 40
0.0226333759500226
 50
191.3378806680146056
 51
287.9192992649084886
  0
ARC
  5
30383
  8
0
 10
3678.4983276023249346
 20
193.9875623464708099
 30
0.0
 40
0.0522847693122655
 50
96.3316742982766812
 51
182.3667374927979097
  0
ARC
  5
30384
  8
0
 10
3678.501777206297902
 20
193.9864706303085882
 30
0.0
 40
0.0538519689245516
 50
9.2879466961371122
 51
99.8536107418127017
  0
ARC
  5
30385
  8
0
 10
3678.5009339752950837
 20
193.9957514500283082
 30
0.0
 40
0.0539924002082997
 50
267.4134231027397846
 51
359.3746159997677978
  0
ARC
  5
30386
  8
0
 10
3678.4970561532149986
 20
193.9933836266131948
 30
0.0
 40
0.0515897022303617
 50
188.8988186660695874
 51
271.6008140401111746
  0
LINE
  5
30387
  8
0
 10
3678.4460594679840142
 20
193.9862435460293
 30
0.0
 11
3678.4446535585320817
 21
194.0419640794926011
 31
0.0
  0
LINE
  5
30388
  8
0
 10
3678.554923159277223
 20
193.995162134147904
 30
0.0
 11
3678.5557298061239635
 21
194.0431506018971959
 31
0.0
  0
ARC
  5
30389
  8
0
 10
3678.4820702140018511
 20
194.0151506609456931
 30
0.0
 40
0.0466869474058104
 50
158.2133840497203039
 51
219.5809946408471092
  0
ARC
  5
3038A
  8
0
 10
3678.5029559078129751
 20
193.9988815265826076
 30
0.0
 40
0.0724932431122075
 50
92.6133845199988741
 51
152.3900050833823059
  0
ARC
  5
3038B
  8
0
 10
3678.5010999608671227
 20
194.0042507560212925
 30
0.0
 40
0.0670642826098466
 50
33.3864235002422731
 51
91.2384472238465349
  0
ARC
  5
3038C
  8
0
 10
3678.5218791000870624
 20
194.0197719359235009
 30
0.0
 40
0.0412013615210623
 50
323.3228355864023911
 51
31.2646143211150083
  0
LINE
  5
3038D
  8
0
 10
3678.5906503621749835
 20
194.372161819064587
 30
0.0
 11
3678.5907194812980379
 21
194.4993989217402088
 31
0.0
  0
LINE
  5
3038E
  8
0
 10
3678.6004588810387759
 20
194.3990405752209938
 30
0.0
 11
3678.6004588810387759
 21
194.4889138545487981
 31
0.0
  0
ARC
  5
3038F
  8
0
 10
3678.5902619158860034
 20
194.4881909867484922
 30
0.0
 40
0.0102225552671106
 50
4.0549419992339173
 51
63.7192913533139631
  0
LINE
  5
30390
  8
0
 10
3678.5947881497390881
 20
194.4973568933210117
 30
0.0
 11
3678.5084306720391396
 21
194.5406989415211001
 31
0.0
  0
LINE
  5
30391
  8
0
 10
3678.5017457118387938
 20
194.3256845320325112
 30
0.0
 11
3678.5906503621749835
 21
194.372161819064587
 31
0.0
  0
LINE
  5
30392
  8
0
 10
3678.5017457118387938
 20
194.5105267461611902
 30
0.0
 11
3678.5907009060438213
 21
194.4652048889298896
 31
0.0
  0
ARC
  5
30393
  8
0
 10
3678.5902619158860034
 20
194.3997634430214134
 30
0.0
 40
0.0102225552671106
 50
272.2306805316354144
 51
355.945058000766096
  0
ARC
  5
30394
  8
0
 10
3678.500489110109811
 20
194.4104202800612882
 30
0.0
 40
0.0260821343565964
 50
87.2384983094183468
 51
185.168353897772505
  0
ARC
  5
30395
  8
0
 10
3678.5034209711620861
 20
194.4106681804948948
 30
0.0
 40
0.0258582695715078
 50
359.1953265816529779
 51
93.7145780951834553
  0
ARC
  5
30396
  8
0
 10
3678.5029598135752167
 20
194.413599806864994
 30
0.0
 40
0.0265223217029157
 50
267.3762770868167991
 51
352.8639151066620911
  0
ARC
  5
30397
  8
0
 10
3678.5004814389008061
 20
194.4136325185855867
 30
0.0
 40
0.0265573403068198
 50
192.0886836895402894
 51
272.7286200788429937
  0
LINE
  5
30398
  8
0
 10
3678.4128410615021494
 20
194.372161819064587
 30
0.0
 11
3678.4127719423800045
 21
194.4993989217402088
 31
0.0
  0
LINE
  5
30399
  8
0
 10
3678.4030325426388117
 20
194.3990405752209938
 30
0.0
 11
3678.4030325426388117
 21
194.4889138545487981
 31
0.0
  0
ARC
  5
3039A
  8
0
 10
3678.4132295077920389
 20
194.4881909867484922
 30
0.0
 40
0.0102225552671106
 50
116.2807086466859943
 51
175.9450580007660108
  0
LINE
  5
3039B
  8
0
 10
3678.4087032739389542
 20
194.4973568933210117
 30
0.0
 11
3678.4950607516389027
 21
194.5406989415211001
 31
0.0
  0
LINE
  5
3039C
  8
0
 10
3678.5017457118387938
 20
194.3256845320325112
 30
0.0
 11
3678.4128410615021494
 21
194.372161819064587
 31
0.0
  0
LINE
  5
3039D
  8
0
 10
3678.5017457118387938
 20
194.5105267461611902
 30
0.0
 11
3678.412790517634221
 21
194.4652048889298896
 31
0.0
  0
ARC
  5
3039E
  8
0
 10
3678.4132295077920389
 20
194.3997634430214134
 30
0.0
 40
0.0102225552671106
 50
184.054941999233904
 51
267.769319468364472
  0
ARC
  5
3039F
  8
0
 10
3678.5017457118387938
 20
194.5276234304743923
 30
0.0
 40
0.0146852879442696
 50
62.9212452507376625
 51
117.078754749262302
  0
LINE
  5
303A0
  8
0
 10
3678.5906503621749835
 20
195.2653599289619137
 30
0.0
 11
3678.5907194812980379
 21
195.3925970316375071
 31
0.0
  0
LINE
  5
303A1
  8
0
 10
3678.6004588810387759
 20
195.2922386851182921
 30
0.0
 11
3678.6004588810387759
 21
195.3821119644460964
 31
0.0
  0
ARC
  5
303A2
  8
0
 10
3678.5902619158860034
 20
195.3813890966457905
 30
0.0
 40
0.0102225552671106
 50
4.0549419992339173
 51
63.7192913533139631
  0
LINE
  5
303A3
  8
0
 10
3678.5947881497390881
 20
195.3905550032181964
 30
0.0
 11
3678.5084306720391396
 21
195.4338970514183131
 31
0.0
  0
LINE
  5
303A4
  8
0
 10
3678.5017457118387938
 20
195.2188826419298096
 30
0.0
 11
3678.5906503621749835
 21
195.2653599289619137
 31
0.0
  0
LINE
  5
303A5
  8
0
 10
3678.5017457118387938
 20
195.4037248560584885
 30
0.0
 11
3678.5907009060438213
 21
195.358402998827188
 31
0.0
  0
ARC
  5
303A6
  8
0
 10
3678.5902619158860034
 20
195.2929615529187117
 30
0.0
 40
0.0102225552671106
 50
272.2306805316354144
 51
355.945058000766096
  0
ARC
  5
303A7
  8
0
 10
3678.500489110109811
 20
195.3049844370704022
 30
0.0
 40
0.0260821343565964
 50
87.2384983094183468
 51
185.168353897772505
  0
ARC
  5
303A8
  8
0
 10
3678.5034209711620861
 20
195.3052323375040089
 30
0.0
 40
0.0258582695715078
 50
359.1953265816529779
 51
93.7145780951834553
  0
ARC
  5
303A9
  8
0
 10
3678.5029598135752167
 20
195.308163963874108
 30
0.0
 40
0.0265223217029157
 50
267.3762770868167991
 51
352.8639151066620911
  0
ARC
  5
303AA
  8
0
 10
3678.5004814389008061
 20
195.3081966755947008
 30
0.0
 40
0.0265573403068198
 50
192.0886836895402894
 51
272.7286200788429937
  0
LINE
  5
303AB
  8
0
 10
3678.4128410615021494
 20
195.2653599289619137
 30
0.0
 11
3678.4127719423800045
 21
195.3925970316375071
 31
0.0
  0
LINE
  5
303AC
  8
0
 10
3678.4030325426388117
 20
195.2922386851182921
 30
0.0
 11
3678.4030325426388117
 21
195.3821119644460964
 31
0.0
  0
ARC
  5
303AD
  8
0
 10
3678.4132295077920389
 20
195.3813890966457905
 30
0.0
 40
0.0102225552671106
 50
116.2807086466859943
 51
175.9450580007660108
  0
LINE
  5
303AE
  8
0
 10
3678.4087032739389542
 20
195.3905550032181964
 30
0.0
 11
3678.4950607516389027
 21
195.4338970514183131
 31
0.0
  0
LINE
  5
303AF
  8
0
 10
3678.5017457118387938
 20
195.2188826419298096
 30
0.0
 11
3678.4128410615021494
 21
195.2653599289619137
 31
0.0
  0
LINE
  5
303B0
  8
0
 10
3678.5017457118387938
 20
195.4037248560584885
 30
0.0
 11
3678.412790517634221
 21
195.358402998827188
 31
0.0
  0
ARC
  5
303B1
  8
0
 10
3678.4132295077920389
 20
195.2929615529187117
 30
0.0
 40
0.0102225552671106
 50
184.054941999233904
 51
267.769319468364472
  0
ARC
  5
303B2
  8
0
 10
3678.5017457118387938
 20
195.4208215403716906
 30
0.0
 40
0.0146852879442696
 50
62.9212452507376625
 51
117.078754749262302
  0
LINE
  5
303B3
  8
0
 10
3678.5014285378169916
 20
193.6580980575492958
 30
0.0
 11
3678.5013613651221931
 21
193.9417607413998894
 31
0.0
  0
LINE
  5
303B4
  8
0
 10
3678.5013306861310411
 20
194.0713146417409973
 30
0.0
 11
3678.5012703912680081
 21
194.3259330185912006
 31
0.0
  0
LINE
  5
303B5
  8
0
 10
3678.5017457118387938
 20
195.4355068283159937
 30
0.0
 11
3678.5017459067948948
 21
195.7175554521296021
 31
0.0
  0
LINE
  5
303B6
  8
0
 10
3678.5017459962359681
 20
195.8469529801618023
 30
0.0
 11
3678.5017462349728703
 21
196.1923412203533132
 31
0.0
  0
LINE
  5
303B7
  8
0
 10
3678.4397017592459633
 20
192.8489383202382044
 30
0.0
 11
3678.4431219793059427
 21
193.5766947590290954
 31
0.0
  0
ARC
  5
303B8
  8
0
 10
3677.6158599562882046
 20
194.005750236853288
 30
0.0
 40
0.0192984899190496
 50
350.2443165814947861
 51
80.6881126495692342
  0
ARC
  5
303B9
  8
0
 10
3677.6133585078659962
 20
194.0013046253963864
 30
0.0
 40
0.0241536911818787
 50
76.5352679085252703
 51
157.5769223489384103
  0
ARC
  5
303BA
  8
0
 10
3677.6094843648529604
 20
194.004451686539312
 30
0.0
 40
0.0194248467807419
 50
161.8026983469981133
 51
258.8376673948133089
  0
ARC
  5
303BB
  8
0
 10
3677.6126876924149656
 20
194.0069297561074109
 30
0.0
 40
0.0226333759500226
 50
252.0807007350915114
 51
348.6621193319853091
  0
ARC
  5
303BC
  8
0
 10
3677.6135012900490437
 20
194.0059552219663885
 30
0.0
 40
0.0522847693122655
 50
357.6332625072020051
 51
83.6683257017233188
  0
ARC
  5
303BD
  8
0
 10
3677.6100516860760763
 20
194.0048635058041953
 30
0.0
 40
0.0538519689245516
 50
80.1463892581873125
 51
170.7120533038628878
  0
ARC
  5
303BE
  8
0
 10
3677.6108949170788947
 20
194.0141443255238016
 30
0.0
 40
0.0539924002082997
 50
180.6253840002322022
 51
272.5865768972602154
  0
ARC
  5
303BF
  8
0
 10
3677.6147727391589797
 20
194.0117765021086882
 30
0.0
 40
0.0515897022303617
 50
268.3991859598888254
 51
351.1011813339304126
  0
LINE
  5
303C0
  8
0
 10
3677.6657694243899641
 20
194.0046364215249923
 30
0.0
 11
3677.6671753338418966
 21
194.0603569549882081
 31
0.0
  0
LINE
  5
303C1
  8
0
 10
3677.55690573309721
 20
194.0135550096435111
 30
0.0
 11
3677.5560990862509243
 21
194.0615434773928882
 31
0.0
  0
ARC
  5
303C2
  8
0
 10
3677.6297586783721272
 20
194.0335435364411865
 30
0.0
 40
0.0466869474058104
 50
320.4190053591528908
 51
21.7866159502797103
  0
ARC
  5
303C3
  8
0
 10
3677.6088729845610032
 20
194.017274402078101
 30
0.0
 40
0.0724932431122075
 50
27.6099949166176302
 51
87.3866154799751058
  0
ARC
  5
303C4
  8
0
 10
3677.6107289315068556
 20
194.0226436315168996
 30
0.0
 40
0.0670642826098466
 50
88.7615527761274166
 51
146.6135764997576985
  0
ARC
  5
303C5
  8
0
 10
3677.5899497922869159
 20
194.038164811419108
 30
0.0
 40
0.0412013615210623
 50
148.7353856788849953
 51
216.6771644135976089
  0
LINE
  5
303C6
  8
0
 10
3678.0566990928459745
 20
193.462460162111114
 30
0.0
 11
3678.0566990928459745
 21
193.747176339499191
 31
0.0
  0
LINE
  5
303C7
  8
0
 10
3678.0566990928459745
 20
193.8765998131709125
 30
0.0
 11
3678.0566990928459745
 21
194.1574938092383888
 31
0.0
  0
LINE
  5
303C8
  8
0
 10
3678.0566990928459745
 20
194.2869506218960112
 30
0.0
 11
3678.0566990928459745
 21
194.5344529466032952
 31
0.0
  0
LINE
  5
303C9
  8
0
 10
3678.0571838216387732
 20
195.2080178886781141
 30
0.0
 11
3678.0571838216387732
 21
195.4976798414438122
 31
0.0
  0
LINE
  5
303CA
  8
0
 10
3678.0571838216387732
 20
195.62707740613331
 30
0.0
 11
3678.0571838216387732
 21
195.9583977913256945
 31
0.0
  0
LINE
  5
303CB
  8
0
 10
3678.0571838216387732
 20
196.0878250642215903
 30
0.0
 11
3678.0571838216387732
 21
196.4131828546071858
 31
0.0
  0
LINE
  5
303CC
  8
0
 10
3678.0571838216387732
 20
196.5898878232937932
 30
0.0
 11
3678.0571838216387732
 21
196.6799210224922092
 31
0.0
  0
LINE
  5
303CD
  8
0
 10
3677.612634500205786
 20
196.352917125308494
 30
0.0
 11
3677.612639016898811
 21
196.5458609723617087
 31
0.0
  0
LINE
  5
303CE
  8
0
 10
3677.6126311700618317
 20
196.1946526801010009
 30
0.0
 11
3677.6126230380018569
 21
195.8472677896122889
 31
0.0
  0
LINE
  5
303CF
  8
0
 10
3677.6126200069179504
 20
195.712812741960704
 30
0.0
 11
3677.6126126946619479
 21
195.4004482056272991
 31
0.0
  0
LINE
  5
303D0
  8
0
 10
3677.6126092888298444
 20
195.2709656022190927
 30
0.0
 11
3677.6126018657701024
 21
194.9538677611218986
 31
0.0
  0
LINE
  5
303D1
  8
0
 10
3677.612113220550782
 20
194.8243700938753875
 30
0.0
 11
3677.6121059652041367
 21
194.5144365971831917
 31
0.0
  0
LINE
  5
303D2
  8
0
 10
3677.612102932740072
 20
194.3848959671634873
 30
0.0
 11
3677.6120960222488065
 21
194.0896939787558892
 31
0.0
  0
LINE
  5
303D3
  8
0
 10
3677.612092456064147
 20
193.9601652075184859
 30
0.0
 11
3677.6120860173969049
 21
193.6851185683279937
 31
0.0
  0
LINE
  5
303D4
  8
0
 10
3677.612081962684897
 20
193.5268182807593007
 30
0.0
 11
3677.6120785563512072
 21
193.3813066688504989
 31
0.0
  0
LINE
  5
303D5
  8
0
 10
3677.1680172582459818
 20
196.1339228811237945
 30
0.0
 11
3677.1680172582459818
 21
196.2864331829385094
 31
0.0
  0
LINE
  5
303D6
  8
0
 10
3677.1680172582459818
 20
195.9755428525413095
 30
0.0
 11
3677.1680172582459818
 21
195.6589704073537916
 31
0.0
  0
LINE
  5
303D7
  8
0
 10
3677.1680172582459818
 20
195.5294848970615078
 30
0.0
 11
3677.1680172582459818
 21
195.1920785004716095
 31
0.0
  0
LINE
  5
303D8
  8
0
 10
3677.1680172582459818
 20
195.0625929901794109
 30
0.0
 11
3677.1680172582459818
 21
194.759228132342713
 31
0.0
  0
LINE
  5
303D9
  8
0
 10
3677.1675325294531831
 20
194.6296815097028059
 30
0.0
 11
3677.1675325294531831
 21
194.321185675489005
 31
0.0
  0
LINE
  5
303DA
  8
0
 10
3677.1675325294531831
 20
194.1916568556686968
 30
0.0
 11
3677.1675325294531831
 21
193.9187708272343116
 31
0.0
  0
LINE
  5
303DB
  8
0
 10
3677.1675325294531831
 20
193.7604703835305031
 30
0.0
 11
3677.1675325294531831
 21
193.6370556471013913
 31
0.0
  0
ARC
  5
303DC
  8
0
 10
3677.1712994645968138
 20
194.2372418724640966
 30
0.0
 40
0.0192984899190496
 50
350.2443165814947861
 51
80.6881126495692342
  0
ARC
  5
303DD
  8
0
 10
3677.1687980161759697
 20
194.232796261007195
 30
0.0
 40
0.0241536911818787
 50
76.5352679085252703
 51
157.5769223489384103
  0
ARC
  5
303DE
  8
0
 10
3677.1649238731620244
 20
194.2359433221498932
 30
0.0
 40
0.0194248467807419
 50
161.8026983469981133
 51
258.8376673948133089
  0
ARC
  5
303DF
  8
0
 10
3677.168127200724939
 20
194.238421391718191
 30
0.0
 40
0.0226333759500226
 50
252.0807007350915114
 51
348.6621193319853091
  0
ARC
  5
303E0
  8
0
 10
3677.1689407983599267
 20
194.2374468575771971
 30
0.0
 40
0.0522847693122655
 50
357.6332625072020051
 51
83.6683257017233188
  0
ARC
  5
303E1
  8
0
 10
3677.1654911943860498
 20
194.2363551414148901
 30
0.0
 40
0.0538519689245516
 50
80.1463892581873125
 51
170.7120533038628878
  0
ARC
  5
303E2
  8
0
 10
3677.1663344253888681
 20
194.2456359611346102
 30
0.0
 40
0.0539924002082997
 50
180.6253840002322022
 51
272.5865768972602154
  0
ARC
  5
303E3
  8
0
 10
3677.1702122474689531
 20
194.2432681377194967
 30
0.0
 40
0.0515897022303617
 50
268.3991859598888254
 51
351.1011813339304126
  0
LINE
  5
303E4
  8
0
 10
3677.2212089326999376
 20
194.2361280571356872
 30
0.0
 11
3677.2226148421518701
 21
194.2918485905987893
 31
0.0
  0
LINE
  5
303E5
  8
0
 10
3677.1123452414071835
 20
194.2450466452542059
 30
0.0
 11
3677.1115385945599883
 21
194.2930351130036115
 31
0.0
  0
ARC
  5
303E6
  8
0
 10
3677.1851981866830101
 20
194.2650351720519097
 30
0.0
 40
0.0466869474058104
 50
320.4190053591528908
 51
21.7866159502797103
  0
ARC
  5
303E7
  8
0
 10
3677.1643124928709767
 20
194.2487660376889096
 30
0.0
 40
0.0724932431122075
 50
27.6099949166176302
 51
87.3866154799751058
  0
ARC
  5
303E8
  8
0
 10
3677.166168439816829
 20
194.2541352671275945
 30
0.0
 40
0.0670642826098466
 50
88.7615527761274166
 51
146.6135764997576985
  0
ARC
  5
303E9
  8
0
 10
3677.1453893005959799
 20
194.2696564470296892
 30
0.0
 40
0.0412013615210623
 50
148.7353856788849953
 51
216.6771644135976089
  0
ARC
  5
303EA
  8
0
 10
3678.0592275116860037
 20
193.7927196419541076
 30
0.0
 40
0.0192984899190496
 50
350.2443165814947861
 51
80.6881126495692342
  0
ARC
  5
303EB
  8
0
 10
3678.0567260632651596
 20
193.788274030497405
 30
0.0
 40
0.0241536911818787
 50
76.5352679085252703
 51
157.5769223489384103
  0
ARC
  5
303EC
  8
0
 10
3678.0528519202512143
 20
193.7914210916401032
 30
0.0
 40
0.0194248467807419
 50
161.8026983469981133
 51
258.8376673948133089
  0
ARC
  5
303ED
  8
0
 10
3678.056055247814129
 20
193.7938991612082873
 30
0.0
 40
0.0226333759500226
 50
252.0807007350915114
 51
348.6621193319853091
  0
ARC
  5
303EE
  8
0
 10
3678.0568688454482071
 20
193.7929246270672081
 30
0.0
 40
0.0522847693122655
 50
357.6332625072020051
 51
83.6683257017233188
  0
ARC
  5
303EF
  8
0
 10
3678.0534192414747849
 20
193.7918329109049864
 30
0.0
 40
0.0538519689245516
 50
80.1463892581873125
 51
170.7120533038628878
  0
ARC
  5
303F0
  8
0
 10
3678.0542624724771485
 20
193.8011137306247917
 30
0.0
 40
0.0539924002082997
 50
180.6253840002322022
 51
272.5865768972602154
  0
ARC
  5
303F1
  8
0
 10
3678.0581402945581431
 20
193.7987459072097067
 30
0.0
 40
0.0515897022303617
 50
268.3991859598888254
 51
351.1011813339304126
  0
LINE
  5
303F2
  8
0
 10
3678.109136979788218
 20
193.7916058266258119
 30
0.0
 11
3678.11054288924106
 21
193.8473263600889993
 31
0.0
  0
LINE
  5
303F3
  8
0
 10
3678.0002732884959187
 20
193.8005244147443875
 30
0.0
 11
3677.9994666416500877
 21
193.8485128824935941
 31
0.0
  0
ARC
  5
303F4
  8
0
 10
3678.0731262337708358
 20
193.8205129415420913
 30
0.0
 40
0.0466869474058104
 50
320.4190053591528908
 51
21.7866159502797103
  0
ARC
  5
303F5
  8
0
 10
3678.0522405399601666
 20
193.8042438071790912
 30
0.0
 40
0.0724932431122075
 50
27.6099949166176302
 51
87.3866154799751058
  0
ARC
  5
303F6
  8
0
 10
3678.054096486906019
 20
193.8096130366178045
 30
0.0
 40
0.0670642826098466
 50
88.7615527761274166
 51
146.6135764997576985
  0
ARC
  5
303F7
  8
0
 10
3678.0333173476860793
 20
193.8251342165198992
 30
0.0
 40
0.0412013615210623
 50
148.7353856788849953
 51
216.6771644135976089
  0
ARC
  5
303F8
  8
0
 10
3677.6161885332389829
 20
194.4304871159918093
 30
0.0
 40
0.0192984899190496
 50
350.2443165814947861
 51
80.6881126495692342
  0
ARC
  5
303F9
  8
0
 10
3677.6136870848167746
 20
194.426041504534993
 30
0.0
 40
0.0241536911818787
 50
76.5352679085252703
 51
157.5769223489384103
  0
ARC
  5
303FA
  8
0
 10
3677.6098129418028293
 20
194.4291885656776913
 30
0.0
 40
0.0194248467807419
 50
161.8026983469981133
 51
258.8376673948133089
  0
ARC
  5
303FB
  8
0
 10
3677.6130162693661987
 20
194.431666635245989
 30
0.0
 40
0.0226333759500226
 50
252.0807007350915114
 51
348.6621193319853091
  0
ARC
  5
303FC
  8
0
 10
3677.6138298670011864
 20
194.4306921011049099
 30
0.0
 40
0.0522847693122655
 50
357.6332625072020051
 51
83.6683257017233188
  0
ARC
  5
303FD
  8
0
 10
3677.6103802630282189
 20
194.4296003849426882
 30
0.0
 40
0.0538519689245516
 50
80.1463892581873125
 51
170.7120533038628878
  0
ARC
  5
303FE
  8
0
 10
3677.6112234940301278
 20
194.4388812046624082
 30
0.0
 40
0.0539924002082997
 50
180.6253840002322022
 51
272.5865768972602154
  0
ARC
  5
303FF
  8
0
 10
3677.6151013161102128
 20
194.4365133812472948
 30
0.0
 40
0.0515897022303617
 50
268.3991859598888254
 51
351.1011813339304126
  0
LINE
  5
30400
  8
0
 10
3677.6660980013411972
 20
194.4293733006635136
 30
0.0
 11
3677.6675039107940393
 21
194.4850938341265874
 31
0.0
  0
LINE
  5
30401
  8
0
 10
3677.5572343100479884
 20
194.4382918887820892
 30
0.0
 11
3677.5564276632007932
 21
194.4862803565314096
 31
0.0
  0
ARC
  5
30402
  8
0
 10
3677.630087255323815
 20
194.458280415579793
 30
0.0
 40
0.0466869474058104
 50
320.4190053591528908
 51
21.7866159502797103
  0
ARC
  5
30403
  8
0
 10
3677.6092015615117816
 20
194.4420112812167076
 30
0.0
 40
0.0724932431122075
 50
27.6099949166176302
 51
87.3866154799751058
  0
ARC
  5
30404
  8
0
 10
3677.6110575084589982
 20
194.4473805106553925
 30
0.0
 40
0.0670642826098466
 50
88.7615527761274166
 51
146.6135764997576985
  0
ARC
  5
30405
  8
0
 10
3677.590278369238149
 20
194.4629016905576009
 30
0.0
 40
0.0412013615210623
 50
148.7353856788849953
 51
216.6771644135976089
  0
ARC
  5
30406
  8
0
 10
3677.1721127703408456
 20
194.6752784500137921
 30
0.0
 40
0.0192984899190496
 50
350.2443165814947861
 51
80.6881126495692342
  0
ARC
  5
30407
  8
0
 10
3677.169611321919092
 20
194.6708328385570894
 30
0.0
 40
0.0241536911818787
 50
76.5352679085252703
 51
157.5769223489384103
  0
ARC
  5
30408
  8
0
 10
3677.1657371789051467
 20
194.6739798996997877
 30
0.0
 40
0.0194248467807419
 50
161.8026983469981133
 51
258.8376673948133089
  0
ARC
  5
30409
  8
0
 10
3677.1689405064689709
 20
194.6764579692681139
 30
0.0
 40
0.0226333759500226
 50
252.0807007350915114
 51
348.6621193319853091
  0
ARC
  5
3040A
  8
0
 10
3677.169754104103049
 20
194.6754834351270063
 30
0.0
 40
0.0522847693122655
 50
357.6332625072020051
 51
83.6683257017233188
  0
ARC
  5
3040B
  8
0
 10
3677.1663045001300816
 20
194.674391718964813
 30
0.0
 40
0.0538519689245516
 50
80.1463892581873125
 51
170.7120533038628878
  0
ARC
  5
3040C
  8
0
 10
3677.1671477311319904
 20
194.6836725386845046
 30
0.0
 40
0.0539924002082997
 50
180.6253840002322022
 51
272.5865768972602154
  0
ARC
  5
3040D
  8
0
 10
3677.1710255532120755
 20
194.6813047152693059
 30
0.0
 40
0.0515897022303617
 50
268.3991859598888254
 51
351.1011813339304126
  0
LINE
  5
3040E
  8
0
 10
3677.2220222384430599
 20
194.6741646346856101
 30
0.0
 11
3677.2234281478959019
 21
194.7298851681487122
 31
0.0
  0
LINE
  5
3040F
  8
0
 10
3677.1131585471498511
 20
194.6830832228041004
 30
0.0
 11
3677.1123519003040201
 21
194.7310716905533923
 31
0.0
  0
ARC
  5
30410
  8
0
 10
3677.1860114924261325
 20
194.7030717496018042
 30
0.0
 40
0.0466869474058104
 50
320.4190053591528908
 51
21.7866159502797103
  0
ARC
  5
30411
  8
0
 10
3677.1651257986150085
 20
194.686802615238804
 30
0.0
 40
0.0724932431122075
 50
27.6099949166176302
 51
87.3866154799751058
  0
ARC
  5
30412
  8
0
 10
3677.1669817455608609
 20
194.6921718446774037
 30
0.0
 40
0.0670642826098466
 50
88.7615527761274166
 51
146.6135764997576985
  0
ARC
  5
30413
  8
0
 10
3677.1462026063409212
 20
194.707693024579612
 30
0.0
 40
0.0412013615210623
 50
148.7353856788849953
 51
216.6771644135976089
  0
ARC
  5
30414
  8
0
 10
3678.0595560886367821
 20
194.2030509525575042
 30
0.0
 40
0.0192984899190496
 50
350.2443165814947861
 51
80.6881126495692342
  0
ARC
  5
30415
  8
0
 10
3678.057054640215938
 20
194.1986053411008015
 30
0.0
 40
0.0241536911818787
 50
76.5352679085252703
 51
157.5769223489384103
  0
ARC
  5
30416
  8
0
 10
3678.0531804972019927
 20
194.2017524022434998
 30
0.0
 40
0.0194248467807419
 50
161.8026983469981133
 51
258.8376673948133089
  0
ARC
  5
30417
  8
0
 10
3678.0563838247649073
 20
194.2042304718115986
 30
0.0
 40
0.0226333759500226
 50
252.0807007350915114
 51
348.6621193319853091
  0
ARC
  5
30418
  8
0
 10
3678.057197422399895
 20
194.2032559376706047
 30
0.0
 40
0.0522847693122655
 50
357.6332625072020051
 51
83.6683257017233188
  0
ARC
  5
30419
  8
0
 10
3678.0537478184260181
 20
194.2021642215082977
 30
0.0
 40
0.0538519689245516
 50
80.1463892581873125
 51
170.7120533038628878
  0
ARC
  5
3041A
  8
0
 10
3678.0545910494288364
 20
194.2114450412279893
 30
0.0
 40
0.0539924002082997
 50
180.6253840002322022
 51
272.5865768972602154
  0
ARC
  5
3041B
  8
0
 10
3678.0584688715089214
 20
194.2090772178129896
 30
0.0
 40
0.0515897022303617
 50
268.3991859598888254
 51
351.1011813339304126
  0
LINE
  5
3041C
  8
0
 10
3678.1094655567399059
 20
194.2019371372290948
 30
0.0
 11
3678.1108714661932027
 21
194.2576576706923959
 31
0.0
  0
LINE
  5
3041D
  8
0
 10
3678.0006018654471518
 20
194.2108557253476988
 30
0.0
 11
3677.9997952186008661
 21
194.2588441930969907
 31
0.0
  0
ARC
  5
3041E
  8
0
 10
3678.0734548107220689
 20
194.2308442521454879
 30
0.0
 40
0.0466869474058104
 50
320.4190053591528908
 51
21.7866159502797103
  0
ARC
  5
3041F
  8
0
 10
3678.052569116910945
 20
194.2145751177822888
 30
0.0
 40
0.0724932431122075
 50
27.6099949166176302
 51
87.3866154799751058
  0
ARC
  5
30420
  8
0
 10
3678.0544250638567974
 20
194.2199443472210874
 30
0.0
 40
0.0670642826098466
 50
88.7615527761274166
 51
146.6135764997576985
  0
ARC
  5
30421
  8
0
 10
3678.0336459246368577
 20
194.2354655271232957
 30
0.0
 40
0.0412013615210623
 50
148.7353856788849953
 51
216.6771644135976089
  0
ARC
  5
30422
  8
0
 10
3677.6157500138078831
 20
194.8699520651105104
 30
0.0
 40
0.0192984899190496
 50
350.2443165814947861
 51
80.6881126495692342
  0
ARC
  5
30423
  8
0
 10
3677.6132485653861295
 20
194.8655064536538077
 30
0.0
 40
0.0241536911818787
 50
76.5352679085252703
 51
157.5769223489384103
  0
ARC
  5
30424
  8
0
 10
3677.6093744223730937
 20
194.868653514796506
 30
0.0
 40
0.0194248467807419
 50
161.8026983469981133
 51
258.8376673948133089
  0
ARC
  5
30425
  8
0
 10
3677.6125777499360083
 20
194.8711315843646901
 30
0.0
 40
0.0226333759500226
 50
252.0807007350915114
 51
348.6621193319853091
  0
ARC
  5
30426
  8
0
 10
3677.6133913475700865
 20
194.8701570502236962
 30
0.0
 40
0.0522847693122655
 50
357.6332625072020051
 51
83.6683257017233188
  0
ARC
  5
30427
  8
0
 10
3677.6099417435971191
 20
194.8690653340613892
 30
0.0
 40
0.0538519689245516
 50
80.1463892581873125
 51
170.7120533038628878
  0
ARC
  5
30428
  8
0
 10
3677.6107849745999374
 20
194.8783461537811093
 30
0.0
 40
0.0539924002082997
 50
180.6253840002322022
 51
272.5865768972602154
  0
ARC
  5
30429
  8
0
 10
3677.6146627966800224
 20
194.8759783303661095
 30
0.0
 40
0.0515897022303617
 50
268.3991859598888254
 51
351.1011813339304126
  0
LINE
  5
3042A
  8
0
 10
3677.6656594819110069
 20
194.8688382497821863
 30
0.0
 11
3677.6670653913629394
 21
194.9245587832454021
 31
0.0
  0
LINE
  5
3042B
  8
0
 10
3677.556795790617798
 20
194.877756837900705
 30
0.0
 11
3677.5559891437710576
 21
194.9257453056499969
 31
0.0
  0
ARC
  5
3042C
  8
0
 10
3677.6296487358931699
 20
194.8977453646984941
 30
0.0
 40
0.0466869474058104
 50
320.4190053591528908
 51
21.7866159502797103
  0
ARC
  5
3042D
  8
0
 10
3677.608763042082046
 20
194.8814762303354087
 30
0.0
 40
0.0724932431122075
 50
27.6099949166176302
 51
87.3866154799751058
  0
ARC
  5
3042E
  8
0
 10
3677.6106189890278984
 20
194.8868454597742073
 30
0.0
 40
0.0670642826098466
 50
88.7615527761274166
 51
146.6135764997576985
  0
ARC
  5
3042F
  8
0
 10
3677.5898398498079587
 20
194.9023666396763019
 30
0.0
 40
0.0412013615210623
 50
148.7353856788849953
 51
216.6771644135976089
  0
ARC
  5
30430
  8
0
 10
3677.1711895221178565
 20
195.1081615296587017
 30
0.0
 40
0.0192984899190496
 50
350.2443165814947861
 51
80.6881126495692342
  0
ARC
  5
30431
  8
0
 10
3677.1686880736970124
 20
195.1037159182019138
 30
0.0
 40
0.0241536911818787
 50
76.5352679085252703
 51
157.5769223489384103
  0
ARC
  5
30432
  8
0
 10
3677.1648139306821577
 20
195.1068629793446974
 30
0.0
 40
0.0194248467807419
 50
161.8026983469981133
 51
258.8376673948133089
  0
ARC
  5
30433
  8
0
 10
3677.1680172582459818
 20
195.1093410489129099
 30
0.0
 40
0.0226333759500226
 50
252.0807007350915114
 51
348.6621193319853091
  0
ARC
  5
30434
  8
0
 10
3677.16883085588006
 20
195.1083665147716886
 30
0.0
 40
0.0522847693122655
 50
357.6332625072020051
 51
83.6683257017233188
  0
ARC
  5
30435
  8
0
 10
3677.1653812519070925
 20
195.107274798609609
 30
0.0
 40
0.0538519689245516
 50
80.1463892581873125
 51
170.7120533038628878
  0
ARC
  5
30436
  8
0
 10
3677.1662244829099109
 20
195.1165556183293006
 30
0.0
 40
0.0539924002082997
 50
180.6253840002322022
 51
272.5865768972602154
  0
ARC
  5
30437
  8
0
 10
3677.1701023049899959
 20
195.1141877949141019
 30
0.0
 40
0.0515897022303617
 50
268.3991859598888254
 51
351.1011813339304126
  0
LINE
  5
30438
  8
0
 10
3677.2210989902200708
 20
195.1070477143302924
 30
0.0
 11
3677.2225048996729129
 21
195.1627682477935934
 31
0.0
  0
LINE
  5
30439
  8
0
 10
3677.1122352989282263
 20
195.1159663024488964
 30
0.0
 11
3677.111428652081031
 21
195.1639547701981883
 31
0.0
  0
ARC
  5
3043A
  8
0
 10
3677.1850882442031434
 20
195.1359548292467139
 30
0.0
 40
0.0466869474058104
 50
320.4190053591528908
 51
21.7866159502797103
  0
ARC
  5
3043B
  8
0
 10
3677.1642025503920195
 20
195.1196856948836
 30
0.0
 40
0.0724932431122075
 50
27.6099949166176302
 51
87.3866154799751058
  0
ARC
  5
3043C
  8
0
 10
3677.1660584973378718
 20
195.1250549243223134
 30
0.0
 40
0.0670642826098466
 50
88.7615527761274166
 51
146.6135764997576985
  0
ARC
  5
3043D
  8
0
 10
3677.1452793581170226
 20
195.1405761042244933
 30
0.0
 40
0.0412013615210623
 50
148.7353856788849953
 51
216.6771644135976089
  0
ARC
  5
3043E
  8
0
 10
3677.6157500138078831
 20
195.3165330846694872
 30
0.0
 40
0.0192984899190496
 50
350.2443165814947861
 51
80.6881126495692342
  0
ARC
  5
3043F
  8
0
 10
3677.6132485653861295
 20
195.3120874732128129
 30
0.0
 40
0.0241536911818787
 50
76.5352679085252703
 51
157.5769223489384103
  0
ARC
  5
30440
  8
0
 10
3677.6093744223730937
 20
195.3152345343555112
 30
0.0
 40
0.0194248467807419
 50
161.8026983469981133
 51
258.8376673948133089
  0
ARC
  5
30441
  8
0
 10
3677.6125777499360083
 20
195.3177126039236953
 30
0.0
 40
0.0226333759500226
 50
252.0807007350915114
 51
348.6621193319853091
  0
ARC
  5
30442
  8
0
 10
3677.6133913475700865
 20
195.3167380697825877
 30
0.0
 40
0.0522847693122655
 50
357.6332625072020051
 51
83.6683257017233188
  0
ARC
  5
30443
  8
0
 10
3677.6099417435971191
 20
195.3156463536203944
 30
0.0
 40
0.0538519689245516
 50
80.1463892581873125
 51
170.7120533038628878
  0
ARC
  5
30444
  8
0
 10
3677.6107849745999374
 20
195.324927173340086
 30
0.0
 40
0.0539924002082997
 50
180.6253840002322022
 51
272.5865768972602154
  0
ARC
  5
30445
  8
0
 10
3677.6146627966800224
 20
195.322559349925001
 30
0.0
 40
0.0515897022303617
 50
268.3991859598888254
 51
351.1011813339304126
  0
LINE
  5
30446
  8
0
 10
3677.6656594819110069
 20
195.3154192693411062
 30
0.0
 11
3677.6670653913629394
 21
195.3711398028044073
 31
0.0
  0
LINE
  5
30447
  8
0
 10
3677.556795790617798
 20
195.3243378574597102
 30
0.0
 11
3677.5559891437710576
 21
195.3723263252090021
 31
0.0
  0
ARC
  5
30448
  8
0
 10
3677.6296487358931699
 20
195.3443263842574993
 30
0.0
 40
0.0466869474058104
 50
320.4190053591528908
 51
21.7866159502797103
  0
ARC
  5
30449
  8
0
 10
3677.608763042082046
 20
195.3280572498944139
 30
0.0
 40
0.0724932431122075
 50
27.6099949166176302
 51
87.3866154799751058
  0
ARC
  5
3044A
  8
0
 10
3677.6106189890278984
 20
195.3334264793330988
 30
0.0
 40
0.0670642826098466
 50
88.7615527761274166
 51
146.6135764997576985
  0
ARC
  5
3044B
  8
0
 10
3677.5898398498079587
 20
195.3489476592353071
 30
0.0
 40
0.0412013615210623
 50
148.7353856788849953
 51
216.6771644135976089
  0
ARC
  5
3044C
  8
0
 10
3677.1711895221178565
 20
195.5750534365409123
 30
0.0
 40
0.0192984899190496
 50
350.2443165814947861
 51
80.6881126495692342
  0
ARC
  5
3044D
  8
0
 10
3677.1686880736970124
 20
195.570607825084096
 30
0.0
 40
0.0241536911818787
 50
76.5352679085252703
 51
157.5769223489384103
  0
ARC
  5
3044E
  8
0
 10
3677.1648139306821577
 20
195.573754886226908
 30
0.0
 40
0.0194248467807419
 50
161.8026983469981133
 51
258.8376673948133089
  0
ARC
  5
3044F
  8
0
 10
3677.1680172582459818
 20
195.576232955795092
 30
0.0
 40
0.0226333759500226
 50
252.0807007350915114
 51
348.6621193319853091
  0
ARC
  5
30450
  8
0
 10
3677.16883085588006
 20
195.5752584216538992
 30
0.0
 40
0.0522847693122655
 50
357.6332625072020051
 51
83.6683257017233188
  0
ARC
  5
30451
  8
0
 10
3677.1653812519070925
 20
195.5741667054917912
 30
0.0
 40
0.0538519689245516
 50
80.1463892581873125
 51
170.7120533038628878
  0
ARC
  5
30452
  8
0
 10
3677.1662244829099109
 20
195.5834475252115112
 30
0.0
 40
0.0539924002082997
 50
180.6253840002322022
 51
272.5865768972602154
  0
ARC
  5
30453
  8
0
 10
3677.1701023049899959
 20
195.5810797017963125
 30
0.0
 40
0.0515897022303617
 50
268.3991859598888254
 51
351.1011813339304126
  0
LINE
  5
30454
  8
0
 10
3677.2210989902200708
 20
195.573939621212503
 30
0.0
 11
3677.2225048996729129
 21
195.6296601546758041
 31
0.0
  0
LINE
  5
30455
  8
0
 10
3677.1122352989282263
 20
195.582858209331107
 30
0.0
 11
3677.111428652081031
 21
195.6308466770803989
 31
0.0
  0
ARC
  5
30456
  8
0
 10
3677.1850882442031434
 20
195.6028467361288961
 30
0.0
 40
0.0466869474058104
 50
320.4190053591528908
 51
21.7866159502797103
  0
ARC
  5
30457
  8
0
 10
3677.1642025503920195
 20
195.5865776017658106
 30
0.0
 40
0.0724932431122075
 50
27.6099949166176302
 51
87.3866154799751058
  0
ARC
  5
30458
  8
0
 10
3677.1660584973378718
 20
195.5919468312044955
 30
0.0
 40
0.0670642826098466
 50
88.7615527761274166
 51
146.6135764997576985
  0
ARC
  5
30459
  8
0
 10
3677.1452793581170226
 20
195.6074680111067039
 30
0.0
 40
0.0412013615210623
 50
148.7353856788849953
 51
216.6771644135976089
  0
ARC
  5
3045A
  8
0
 10
3677.6157500138078831
 20
195.7786907483151992
 30
0.0
 40
0.0192984899190496
 50
350.2443165814947861
 51
80.6881126495692342
  0
ARC
  5
3045B
  8
0
 10
3677.6132485653861295
 20
195.7742451368584113
 30
0.0
 40
0.0241536911818787
 50
76.5352679085252703
 51
157.5769223489384103
  0
ARC
  5
3045C
  8
0
 10
3677.6093744223730937
 20
195.7773921980011096
 30
0.0
 40
0.0194248467807419
 50
161.8026983469981133
 51
258.8376673948133089
  0
ARC
  5
3045D
  8
0
 10
3677.6125777499360083
 20
195.7798702675692937
 30
0.0
 40
0.0226333759500226
 50
252.0807007350915114
 51
348.6621193319853091
  0
ARC
  5
3045E
  8
0
 10
3677.6133913475700865
 20
195.7788957334281861
 30
0.0
 40
0.0522847693122655
 50
357.6332625072020051
 51
83.6683257017233188
  0
ARC
  5
3045F
  8
0
 10
3677.6099417435971191
 20
195.7778040172659928
 30
0.0
 40
0.0538519689245516
 50
80.1463892581873125
 51
170.7120533038628878
  0
ARC
  5
30460
  8
0
 10
3677.6107849745999374
 20
195.7870848369857129
 30
0.0
 40
0.0539924002082997
 50
180.6253840002322022
 51
272.5865768972602154
  0
ARC
  5
30461
  8
0
 10
3677.6146627966800224
 20
195.7847170135707131
 30
0.0
 40
0.0515897022303617
 50
268.3991859598888254
 51
351.1011813339304126
  0
LINE
  5
30462
  8
0
 10
3677.6656594819110069
 20
195.7775769329867899
 30
0.0
 11
3677.6670653913629394
 21
195.8332974664500057
 31
0.0
  0
LINE
  5
30463
  8
0
 10
3677.556795790617798
 20
195.7864955211053939
 30
0.0
 11
3677.5559891437710576
 21
195.8344839888546005
 31
0.0
  0
ARC
  5
30464
  8
0
 10
3677.6296487358931699
 20
195.8064840479030977
 30
0.0
 40
0.0466869474058104
 50
320.4190053591528908
 51
21.7866159502797103
  0
ARC
  5
30465
  8
0
 10
3677.608763042082046
 20
195.7902149135400123
 30
0.0
 40
0.0724932431122075
 50
27.6099949166176302
 51
87.3866154799751058
  0
ARC
  5
30466
  8
0
 10
3677.6106189890278984
 20
195.7955841429788109
 30
0.0
 40
0.0670642826098466
 50
88.7615527761274166
 51
146.6135764997576985
  0
ARC
  5
30467
  8
0
 10
3677.5898398498079587
 20
195.8111053228809908
 30
0.0
 40
0.0412013615210623
 50
148.7353856788849953
 51
216.6771644135976089
  0
ARC
  5
30468
  8
0
 10
3678.0591175692070465
 20
195.5432363326330005
 30
0.0
 40
0.0192984899190496
 50
350.2443165814947861
 51
80.6881126495692342
  0
ARC
  5
30469
  8
0
 10
3678.0566161207848381
 20
195.5387907211760137
 30
0.0
 40
0.0241536911818787
 50
76.5352679085252703
 51
157.5769223489384103
  0
ARC
  5
3046A
  8
0
 10
3678.0527419777708928
 20
195.5419377823189109
 30
0.0
 40
0.0194248467807419
 50
161.8026983469981133
 51
258.8376673948133089
  0
ARC
  5
3046B
  8
0
 10
3678.0559453053351717
 20
195.5444158518870097
 30
0.0
 40
0.0226333759500226
 50
252.0807007350915114
 51
348.6621193319853091
  0
ARC
  5
3046C
  8
0
 10
3678.0567589029687952
 20
195.5434413177459874
 30
0.0
 40
0.0522847693122655
 50
357.6332625072020051
 51
83.6683257017233188
  0
ARC
  5
3046D
  8
0
 10
3678.0533092989949182
 20
195.5423496015837941
 30
0.0
 40
0.0538519689245516
 50
80.1463892581873125
 51
170.7120533038628878
  0
ARC
  5
3046E
  8
0
 10
3678.0541525299981913
 20
195.5516304213034005
 30
0.0
 40
0.0539924002082997
 50
180.6253840002322022
 51
272.5865768972602154
  0
ARC
  5
3046F
  8
0
 10
3678.0580303520791858
 20
195.5492625978884007
 30
0.0
 40
0.0515897022303617
 50
268.3991859598888254
 51
351.1011813339304126
  0
LINE
  5
30470
  8
0
 10
3678.109027037308806
 20
195.5421225173045912
 30
0.0
 11
3678.1104329467621028
 21
195.597843050767807
 31
0.0
  0
LINE
  5
30471
  8
0
 10
3678.0001633460169614
 20
195.5510411054231099
 30
0.0
 11
3677.999356699170221
 21
195.5990295731724871
 31
0.0
  0
ARC
  5
30472
  8
0
 10
3678.0730162912918786
 20
195.571029632220899
 30
0.0
 40
0.0466869474058104
 50
320.4190053591528908
 51
21.7866159502797103
  0
ARC
  5
30473
  8
0
 10
3678.0521305974812094
 20
195.5547604978576999
 30
0.0
 40
0.0724932431122075
 50
27.6099949166176302
 51
87.3866154799751058
  0
ARC
  5
30474
  8
0
 10
3678.0539865444270617
 20
195.5601297272964985
 30
0.0
 40
0.0670642826098466
 50
88.7615527761274166
 51
146.6135764997576985
  0
ARC
  5
30475
  8
0
 10
3678.0332074052062126
 20
195.5756509071987068
 30
0.0
 40
0.0412013615210623
 50
148.7353856788849953
 51
216.6771644135976089
  0
ARC
  5
30476
  8
0
 10
3678.059748009906798
 20
196.0039426977793937
 30
0.0
 40
0.0192984899190496
 50
350.2443165814947861
 51
80.6881126495692342
  0
ARC
  5
30477
  8
0
 10
3678.0572465614850444
 20
195.9994970863226058
 30
0.0
 40
0.0241536911818787
 50
76.5352679085252703
 51
157.5769223489384103
  0
ARC
  5
30478
  8
0
 10
3678.0533724184710991
 20
196.0026441474653893
 30
0.0
 40
0.0194248467807419
 50
161.8026983469981133
 51
258.8376673948133089
  0
ARC
  5
30479
  8
0
 10
3678.0565757460349232
 20
196.0051222170336018
 30
0.0
 40
0.0226333759500226
 50
252.0807007350915114
 51
348.6621193319853091
  0
ARC
  5
3047A
  8
0
 10
3678.0573893436690014
 20
196.0041476828924942
 30
0.0
 40
0.0522847693122655
 50
357.6332625072020051
 51
83.6683257017233188
  0
ARC
  5
3047B
  8
0
 10
3678.0539397396960339
 20
196.0030559667303862
 30
0.0
 40
0.0538519689245516
 50
80.1463892581873125
 51
170.7120533038628878
  0
ARC
  5
3047C
  8
0
 10
3678.0547829706988523
 20
196.0123367864499926
 30
0.0
 40
0.0539924002082997
 50
180.6253840002322022
 51
272.5865768972602154
  0
ARC
  5
3047D
  8
0
 10
3678.0586607927789373
 20
196.0099689630347939
 30
0.0
 40
0.0515897022303617
 50
268.3991859598888254
 51
351.1011813339304126
  0
LINE
  5
3047E
  8
0
 10
3678.1096574780090123
 20
196.0028288824512117
 30
0.0
 11
3678.1110633874618543
 21
196.0585494159143138
 31
0.0
  0
LINE
  5
3047F
  8
0
 10
3678.0007937867171677
 20
196.011747470569702
 30
0.0
 11
3677.9999871398699725
 21
196.0597359383191076
 31
0.0
  0
ARC
  5
30480
  8
0
 10
3678.0736467319920848
 20
196.0317359973674058
 30
0.0
 40
0.0466869474058104
 50
320.4190053591528908
 51
21.7866159502797103
  0
ARC
  5
30481
  8
0
 10
3678.0527610381809609
 20
196.015466863004292
 30
0.0
 40
0.0724932431122075
 50
27.6099949166176302
 51
87.3866154799751058
  0
ARC
  5
30482
  8
0
 10
3678.0546169851268132
 20
196.0208360924430906
 30
0.0
 40
0.0670642826098466
 50
88.7615527761274166
 51
146.6135764997576985
  0
ARC
  5
30483
  8
0
 10
3678.0338378459059641
 20
196.0363572723452137
 30
0.0
 40
0.0412013615210623
 50
148.7353856788849953
 51
216.6771644135976089
  0
ARC
  5
30484
  8
0
 10
3678.0586913809811449
 20
193.3631747855318963
 30
0.0
 40
0.0201111964834572
 50
358.1936767116677061
 51
95.6852527123201071
  0
ARC
  5
30485
  8
0
 10
3678.0560068962481637
 20
193.3609384688492128
 30
0.0
 40
0.0222593534004068
 50
88.2179923327614262
 51
170.4731942620772998
  0
ARC
  5
30486
  8
0
 10
3678.0568127014998936
 20
193.3667575030104047
 30
0.0
 40
0.022858080891165
 50
185.3591505879545878
 51
269.7152287973352145
  0
ARC
  5
30487
  8
0
 10
3678.0578874635962165
 20
193.3649044247472943
 30
0.0
 40
0.0210383102902863
 50
266.7618650140822183
 51
353.5494422035267235
  0
ARC
  5
30488
  8
0
 10
3678.054637678112158
 20
193.3540520973166963
 30
0.0
 40
0.0781015297921497
 50
9.3422463410040208
 51
88.4875573863808853
  0
ARC
  5
30489
  8
0
 10
3678.0557626269560387
 20
193.3578411262726888
 30
0.0
 40
0.0742911940381561
 50
89.2777479896213606
 51
173.892573795825399
  0
ARC
  5
3048A
  8
0
 10
3678.053409800974805
 20
193.3764379076112903
 30
0.0
 40
0.0723116391904934
 50
188.503510126300398
 51
272.6071542130703733
  0
ARC
  5
3048B
  8
0
 10
3678.0619236289899163
 20
193.3741828611426001
 30
0.0
 40
0.0701764925088872
 50
265.730463646853309
 51
353.9039482170571773
  0
LINE
  5
3048C
  8
0
 10
3678.1317032919851044
 20
193.3667304297925966
 30
0.0
 11
3678.1298839986889107
 21
193.4268952949896914
 31
0.0
  0
LINE
  5
3048D
  8
0
 10
3677.981893097646207
 20
193.3657451854384988
 30
0.0
 11
3677.9808730899458169
 21
193.4258580814382924
 31
0.0
  0
ARC
  5
3048E
  8
0
 10
3678.0877106894640747
 20
193.3955100998475984
 30
0.0
 40
0.0525701292085178
 50
326.8075533796023251
 51
36.65646417261501
  0
ARC
  5
3048F
  8
0
 10
3678.0522243104778681
 20
193.3601701234005077
 30
0.0
 40
0.1023878688940399
 50
40.669157868231693
 51
87.4951345724642664
  0
ARC
  5
30490
  8
0
 10
3678.0527861873010806
 20
193.3737234710334008
 30
0.0
 40
0.0888229203147584
 50
87.4751387416847876
 51
144.0591337738410971
  0
ARC
  5
30491
  8
0
 10
3678.0275050388017917
 20
193.396584239870009
 30
0.0
 40
0.0550590270005809
 50
147.8808925358173099
 51
214.0633334873662079
  0
ARC
  5
30492
  8
0
 10
3677.6145707391151518
 20
193.5858128462334946
 30
0.0
 40
0.0201111964834572
 50
358.1936767116677061
 51
95.6852527123201071
  0
ARC
  5
30493
  8
0
 10
3677.6118862543821706
 20
193.5835765295508111
 30
0.0
 40
0.0222593534004068
 50
88.2179923327614262
 51
170.4731942620772998
  0
ARC
  5
30494
  8
0
 10
3677.61269205963481
 20
193.5893955637118893
 30
0.0
 40
0.022858080891165
 50
185.3591505879545878
 51
269.7152287973352145
  0
ARC
  5
30495
  8
0
 10
3677.6137668217302235
 20
193.5875424854488074
 30
0.0
 40
0.0210383102902863
 50
266.7618650140822183
 51
353.5494422035267235
  0
ARC
  5
30496
  8
0
 10
3677.6105170362470744
 20
193.5766901580182946
 30
0.0
 40
0.0781015297921497
 50
9.3422463410040208
 51
88.4875573863808853
  0
ARC
  5
30497
  8
0
 10
3677.6116419850900456
 20
193.5804791869742019
 30
0.0
 40
0.0742911940381561
 50
89.2777479896213606
 51
173.892573795825399
  0
ARC
  5
30498
  8
0
 10
3677.6092891591088119
 20
193.5990759683128033
 30
0.0
 40
0.0723116391904934
 50
188.503510126300398
 51
272.6071542130703733
  0
ARC
  5
30499
  8
0
 10
3677.6178029871239232
 20
193.5968209218439995
 30
0.0
 40
0.0701764925088872
 50
265.730463646853309
 51
353.9039482170571773
  0
LINE
  5
3049A
  8
0
 10
3677.6875826501200208
 20
193.5893684904941097
 30
0.0
 11
3677.6857633568229176
 21
193.6495333556910907
 31
0.0
  0
LINE
  5
3049B
  8
0
 10
3677.5377724557811234
 20
193.5883832461400971
 30
0.0
 11
3677.536752448081188
 21
193.6484961421396918
 31
0.0
  0
ARC
  5
3049C
  8
0
 10
3677.6435900475989911
 20
193.6181481605491115
 30
0.0
 40
0.0525701292085178
 50
326.8075533796023251
 51
36.65646417261501
  0
ARC
  5
3049D
  8
0
 10
3677.608103668611875
 20
193.582808184102106
 30
0.0
 40
0.1023878688940399
 50
40.669157868231693
 51
87.4951345724642664
  0
ARC
  5
3049E
  8
0
 10
3677.6086655454350876
 20
193.5963615317348001
 30
0.0
 40
0.0888229203147584
 50
87.4751387416847876
 51
144.0591337738410971
  0
ARC
  5
3049F
  8
0
 10
3677.5833843969371628
 20
193.6192223005716073
 30
0.0
 40
0.0550590270005809
 50
147.8808925358173099
 51
214.0633334873662079
  0
ARC
  5
304A0
  8
0
 10
3677.1700213054878077
 20
193.8194649489894061
 30
0.0
 40
0.0201111964834572
 50
358.1936767116677061
 51
95.6852527123201071
  0
ARC
  5
304A1
  8
0
 10
3677.1673368207548265
 20
193.8172286323066089
 30
0.0
 40
0.0222593534004068
 50
88.2179923327614262
 51
170.4731942620772998
  0
ARC
  5
304A2
  8
0
 10
3677.1681426260070111
 20
193.8230476664678008
 30
0.0
 40
0.022858080891165
 50
185.3591505879545878
 51
269.7152287973352145
  0
ARC
  5
304A3
  8
0
 10
3677.1692173881019698
 20
193.8211945882046905
 30
0.0
 40
0.0210383102902863
 50
266.7618650140822183
 51
353.5494422035267235
  0
ARC
  5
304A4
  8
0
 10
3677.1659676026201851
 20
193.8103422607742061
 30
0.0
 40
0.0781015297921497
 50
9.3422463410040208
 51
88.4875573863808853
  0
ARC
  5
304A5
  8
0
 10
3677.167092551461792
 20
193.8141312897301134
 30
0.0
 40
0.0742911940381561
 50
89.2777479896213606
 51
173.892573795825399
  0
ARC
  5
304A6
  8
0
 10
3677.164739725481013
 20
193.8327280710686864
 30
0.0
 40
0.0723116391904934
 50
188.503510126300398
 51
272.6071542130703733
  0
ARC
  5
304A7
  8
0
 10
3677.1732535534961244
 20
193.8304730245999963
 30
0.0
 40
0.0701764925088872
 50
265.730463646853309
 51
353.9039482170571773
  0
LINE
  5
304A8
  8
0
 10
3677.243033216492222
 20
193.8230205932499928
 30
0.0
 11
3677.2412139231960282
 21
193.8831854584470875
 31
0.0
  0
LINE
  5
304A9
  8
0
 10
3677.0932230221528698
 20
193.8220353488960086
 30
0.0
 11
3677.0922030144529344
 21
193.8821482448956885
 31
0.0
  0
ARC
  5
304AA
  8
0
 10
3677.1990406139721017
 20
193.8518002633049946
 30
0.0
 40
0.0525701292085178
 50
326.8075533796023251
 51
36.65646417261501
  0
ARC
  5
304AB
  8
0
 10
3677.1635542349840762
 20
193.8164602868581028
 30
0.0
 40
0.1023878688940399
 50
40.669157868231693
 51
87.4951345724642664
  0
ARC
  5
304AC
  8
0
 10
3677.1641161118081982
 20
193.8300136344907969
 30
0.0
 40
0.0888229203147584
 50
87.4751387416847876
 51
144.0591337738410971
  0
ARC
  5
304AD
  8
0
 10
3677.1388349633089092
 20
193.8528744033274052
 30
0.0
 40
0.0550590270005809
 50
147.8808925358173099
 51
214.0633334873662079
  0
ARC
  5
304AE
  8
0
 10
3676.7231491053430545
 20
194.4729143723872085
 30
0.0
 40
0.0201111964834572
 50
358.1936767116677061
 51
95.6852527123201071
  0
ARC
  5
304AF
  8
0
 10
3676.7204646206100733
 20
194.4706780557044965
 30
0.0
 40
0.0222593534004068
 50
88.2179923327614262
 51
170.4731942620772998
  0
ARC
  5
304B0
  8
0
 10
3676.7212704258618032
 20
194.4764970898656031
 30
0.0
 40
0.022858080891165
 50
185.3591505879545878
 51
269.7152287973352145
  0
ARC
  5
304B1
  8
0
 10
3676.7223451879581262
 20
194.4746440116024928
 30
0.0
 40
0.0210383102902863
 50
266.7618650140822183
 51
353.5494422035267235
  0
ARC
  5
304B2
  8
0
 10
3676.7190954024749772
 20
194.4637916841720084
 30
0.0
 40
0.0781015297921497
 50
9.3422463410040208
 51
88.4875573863808853
  0
ARC
  5
304B3
  8
0
 10
3676.7202203513170389
 20
194.4675807131278873
 30
0.0
 40
0.0742911940381561
 50
89.2777479896213606
 51
173.892573795825399
  0
ARC
  5
304B4
  8
0
 10
3676.7178675253358051
 20
194.4861774944664887
 30
0.0
 40
0.0723116391904934
 50
188.503510126300398
 51
272.6071542130703733
  0
ARC
  5
304B5
  8
0
 10
3676.7263813533509165
 20
194.4839224479977133
 30
0.0
 40
0.0701764925088872
 50
265.730463646853309
 51
353.9039482170571773
  0
LINE
  5
304B6
  8
0
 10
3676.7961610163470141
 20
194.4764700166477098
 30
0.0
 11
3676.7943417230508203
 21
194.5366348818448046
 31
0.0
  0
LINE
  5
304B7
  8
0
 10
3676.6463508220081167
 20
194.4754847722938109
 30
0.0
 11
3676.6453308143081813
 21
194.5355976682934056
 31
0.0
  0
ARC
  5
304B8
  8
0
 10
3676.7521684138268938
 20
194.5052496867027969
 30
0.0
 40
0.0525701292085178
 50
326.8075533796023251
 51
36.65646417261501
  0
ARC
  5
304B9
  8
0
 10
3676.7166820348397778
 20
194.4699097102557914
 30
0.0
 40
0.1023878688940399
 50
40.669157868231693
 51
87.4951345724642664
  0
ARC
  5
304BA
  8
0
 10
3676.7172439116629903
 20
194.483463057888514
 30
0.0
 40
0.0888229203147584
 50
87.4751387416847876
 51
144.0591337738410971
  0
ARC
  5
304BB
  8
0
 10
3676.6919627631641561
 20
194.5063238267252075
 30
0.0
 40
0.0550590270005809
 50
147.8808925358173099
 51
214.0633334873662079
  0
ARC
  5
304BC
  8
0
 10
3676.7252704823740714
 20
194.9200747125406963
 30
0.0
 40
0.0201111964834572
 50
358.1936767116677061
 51
95.6852527123201071
  0
ARC
  5
304BD
  8
0
 10
3676.7225859976401807
 20
194.9178383958580127
 30
0.0
 40
0.0222593534004068
 50
88.2179923327614262
 51
170.4731942620772998
  0
ARC
  5
304BE
  8
0
 10
3676.7233918028919106
 20
194.9236574300192899
 30
0.0
 40
0.022858080891165
 50
185.3591505879545878
 51
269.7152287973352145
  0
ARC
  5
304BF
  8
0
 10
3676.7244665649877788
 20
194.921804351756208
 30
0.0
 40
0.0210383102902863
 50
266.7618650140822183
 51
353.5494422035267235
  0
ARC
  5
304C0
  8
0
 10
3676.7212167795050846
 20
194.91095202432561
 30
0.0
 40
0.0781015297921497
 50
9.3422463410040208
 51
88.4875573863808853
  0
ARC
  5
304C1
  8
0
 10
3676.7223417283480558
 20
194.9147410532814888
 30
0.0
 40
0.0742911940381561
 50
89.2777479896213606
 51
173.892573795825399
  0
ARC
  5
304C2
  8
0
 10
3676.719988902366822
 20
194.9333378346202039
 30
0.0
 40
0.0723116391904934
 50
188.503510126300398
 51
272.6071542130703733
  0
ARC
  5
304C3
  8
0
 10
3676.7285027303810239
 20
194.9310827881514001
 30
0.0
 40
0.0701764925088872
 50
265.730463646853309
 51
353.9039482170571773
  0
LINE
  5
304C4
  8
0
 10
3676.798282393378031
 20
194.9236303568013966
 30
0.0
 11
3676.7964631000809277
 21
194.9837952219984913
 31
0.0
  0
LINE
  5
304C5
  8
0
 10
3676.6484721990391336
 20
194.9226451124474977
 30
0.0
 11
3676.6474521913391982
 21
194.9827580084470924
 31
0.0
  0
ARC
  5
304C6
  8
0
 10
3676.7542897908570012
 20
194.9524100268565121
 30
0.0
 40
0.0525701292085178
 50
326.8075533796023251
 51
36.65646417261501
  0
ARC
  5
304C7
  8
0
 10
3676.7188034118698852
 20
194.9170700504093077
 30
0.0
 40
0.1023878688940399
 50
40.669157868231693
 51
87.4951345724642664
  0
ARC
  5
304C8
  8
0
 10
3676.7193652886940072
 20
194.9306233980422007
 30
0.0
 40
0.0888229203147584
 50
87.4751387416847876
 51
144.0591337738410971
  0
ARC
  5
304C9
  8
0
 10
3676.6940841401938087
 20
194.9534841668788943
 30
0.0
 40
0.0550590270005809
 50
147.8808925358173099
 51
214.0633334873662079
  0
ARC
  5
304CA
  8
0
 10
3676.7201392383758503
 20
195.3612817258741927
 30
0.0
 40
0.0201111964834572
 50
358.1936767116677061
 51
95.6852527123201071
  0
ARC
  5
304CB
  8
0
 10
3676.7174547536437785
 20
195.3590454091915092
 30
0.0
 40
0.0222593534004068
 50
88.2179923327614262
 51
170.4731942620772998
  0
ARC
  5
304CC
  8
0
 10
3676.7182605588959632
 20
195.3648644433527011
 30
0.0
 40
0.022858080891165
 50
185.3591505879545878
 51
269.7152287973352145
  0
ARC
  5
304CD
  8
0
 10
3676.7193353209909219
 20
195.3630113650895055
 30
0.0
 40
0.0210383102902863
 50
266.7618650140822183
 51
353.5494422035267235
  0
ARC
  5
304CE
  8
0
 10
3676.7160855355091371
 20
195.3521590376589927
 30
0.0
 40
0.0781015297921497
 50
9.3422463410040208
 51
88.4875573863808853
  0
ARC
  5
304CF
  8
0
 10
3676.7172104843511988
 20
195.3559480666149
 30
0.0
 40
0.0742911940381561
 50
89.2777479896213606
 51
173.892573795825399
  0
ARC
  5
304D0
  8
0
 10
3676.7148576583699651
 20
195.3745448479535867
 30
0.0
 40
0.0723116391904934
 50
188.503510126300398
 51
272.6071542130703733
  0
ARC
  5
304D1
  8
0
 10
3676.7233714863850764
 20
195.3722898014848965
 30
0.0
 40
0.0701764925088872
 50
265.730463646853309
 51
353.9039482170571773
  0
LINE
  5
304D2
  8
0
 10
3676.793151149381174
 20
195.364837370134893
 30
0.0
 11
3676.7913318560840708
 21
195.4250022353319025
 31
0.0
  0
LINE
  5
304D3
  8
0
 10
3676.6433409550418219
 20
195.3638521257807952
 30
0.0
 11
3676.642320947342796
 21
195.4239650217805888
 31
0.0
  0
ARC
  5
304D4
  8
0
 10
3676.7491585468610538
 20
195.3936170401898949
 30
0.0
 40
0.0525701292085178
 50
326.8075533796023251
 51
36.65646417261501
  0
ARC
  5
304D5
  8
0
 10
3676.7136721678730282
 20
195.3582770637428041
 30
0.0
 40
0.1023878688940399
 50
40.669157868231693
 51
87.4951345724642664
  0
ARC
  5
304D6
  8
0
 10
3676.7142340446971502
 20
195.3718304113756972
 30
0.0
 40
0.0888229203147584
 50
87.4751387416847876
 51
144.0591337738410971
  0
ARC
  5
304D7
  8
0
 10
3676.6889528961978613
 20
195.3946911802123054
 30
0.0
 40
0.0550590270005809
 50
147.8808925358173099
 51
214.0633334873662079
  0
ARC
  5
304D8
  8
0
 10
3677.17181807927318
 20
196.0345762069684952
 30
0.0
 40
0.0201111964834572
 50
358.1936767116677061
 51
95.6852527123201071
  0
ARC
  5
304D9
  8
0
 10
3677.1691335945411083
 20
196.0323398902856979
 30
0.0
 40
0.0222593534004068
 50
88.2179923327614262
 51
170.4731942620772998
  0
ARC
  5
304DA
  8
0
 10
3677.1699393997928382
 20
196.0381589244470035
 30
0.0
 40
0.022858080891165
 50
185.3591505879545878
 51
269.7152287973352145
  0
ARC
  5
304DB
  8
0
 10
3677.1710141618877969
 20
196.0363058461838932
 30
0.0
 40
0.0210383102902863
 50
266.7618650140822183
 51
353.5494422035267235
  0
ARC
  5
304DC
  8
0
 10
3677.1677643764051027
 20
196.0254535187534088
 30
0.0
 40
0.0781015297921497
 50
9.3422463410040208
 51
88.4875573863808853
  0
ARC
  5
304DD
  8
0
 10
3677.1688893252480739
 20
196.0292425477092877
 30
0.0
 40
0.0742911940381561
 50
89.2777479896213606
 51
173.892573795825399
  0
ARC
  5
304DE
  8
0
 10
3677.1665364992668401
 20
196.0478393290478891
 30
0.0
 40
0.0723116391904934
 50
188.503510126300398
 51
272.6071542130703733
  0
ARC
  5
304DF
  8
0
 10
3677.175050327281042
 20
196.0455842825791137
 30
0.0
 40
0.0701764925088872
 50
265.730463646853309
 51
353.9039482170571773
  0
LINE
  5
304E0
  8
0
 10
3677.2448299902780491
 20
196.0381318512291102
 30
0.0
 11
3677.2430106969809458
 21
196.098296716426205
 31
0.0
  0
LINE
  5
304E1
  8
0
 10
3677.0950197959391517
 20
196.0371466068752113
 30
0.0
 11
3677.0939997882392163
 21
196.097259502874806
 31
0.0
  0
ARC
  5
304E2
  8
0
 10
3677.2008373877570193
 20
196.0669115212841973
 30
0.0
 40
0.0525701292085178
 50
326.8075533796023251
 51
36.65646417261501
  0
ARC
  5
304E3
  8
0
 10
3677.1653510087699033
 20
196.0315715448371066
 30
0.0
 40
0.1023878688940399
 50
40.669157868231693
 51
87.4951345724642664
  0
ARC
  5
304E4
  8
0
 10
3677.1659128855940253
 20
196.0451248924698859
 30
0.0
 40
0.0888229203147584
 50
87.4751387416847876
 51
144.0591337738410971
  0
ARC
  5
304E5
  8
0
 10
3677.1406317370951911
 20
196.0679856613066079
 30
0.0
 40
0.0550590270005809
 50
147.8808925358173099
 51
214.0633334873662079
  0
ARC
  5
304E6
  8
0
 10
3677.61442901067403
 20
196.253640592299206
 30
0.0
 40
0.0201111964834572
 50
358.1936767116677061
 51
95.6852527123201071
  0
ARC
  5
304E7
  8
0
 10
3677.6117445259401393
 20
196.251404275616494
 30
0.0
 40
0.0222593534004068
 50
88.2179923327614262
 51
170.4731942620772998
  0
ARC
  5
304E8
  8
0
 10
3677.6125503311918692
 20
196.2572233097777996
 30
0.0
 40
0.022858080891165
 50
185.3591505879545878
 51
269.7152287973352145
  0
ARC
  5
304E9
  8
0
 10
3677.6136250932881921
 20
196.255370231514604
 30
0.0
 40
0.0210383102902863
 50
266.7618650140822183
 51
353.5494422035267235
  0
ARC
  5
304EA
  8
0
 10
3677.6103753078059526
 20
196.2445179040840912
 30
0.0
 40
0.0781015297921497
 50
9.3422463410040208
 51
88.4875573863808853
  0
ARC
  5
304EB
  8
0
 10
3677.6115002566480143
 20
196.2483069330401122
 30
0.0
 40
0.0742911940381561
 50
89.2777479896213606
 51
173.892573795825399
  0
ARC
  5
304EC
  8
0
 10
3677.6091474306667806
 20
196.2669037143787136
 30
0.0
 40
0.0723116391904934
 50
188.503510126300398
 51
272.6071542130703733
  0
ARC
  5
304ED
  8
0
 10
3677.6176612586818919
 20
196.2646486679099098
 30
0.0
 40
0.0701764925088872
 50
265.730463646853309
 51
353.9039482170571773
  0
LINE
  5
304EE
  8
0
 10
3677.68744092167708
 20
196.2571962365599063
 30
0.0
 11
3677.6856216283808862
 21
196.3173611017568874
 31
0.0
  0
LINE
  5
304EF
  8
0
 10
3677.5376307273390921
 20
196.2562109922058937
 30
0.0
 11
3677.5366107196391567
 21
196.3163238882054884
 31
0.0
  0
ARC
  5
304F0
  8
0
 10
3677.6434483191578693
 20
196.2859759066149934
 30
0.0
 40
0.0525701292085178
 50
326.8075533796023251
 51
36.65646417261501
  0
ARC
  5
304F1
  8
0
 10
3677.6079619401698437
 20
196.250635930167789
 30
0.0
 40
0.1023878688940399
 50
40.669157868231693
 51
87.4951345724642664
  0
ARC
  5
304F2
  8
0
 10
3677.6085238169930562
 20
196.2641892778007104
 30
0.0
 40
0.0888229203147584
 50
87.4751387416847876
 51
144.0591337738410971
  0
ARC
  5
304F3
  8
0
 10
3677.583242668494222
 20
196.287050046637404
 30
0.0
 40
0.0550590270005809
 50
147.8808925358173099
 51
214.0633334873662079
  0
ARC
  5
304F4
  8
0
 10
3678.0620862504238175
 20
196.4721786185671135
 30
0.0
 40
0.0201111964834572
 50
358.1936767116677061
 51
95.6852527123201071
  0
ARC
  5
304F5
  8
0
 10
3678.0594017656899268
 20
196.4699423018844016
 30
0.0
 40
0.0222593534004068
 50
88.2179923327614262
 51
170.4731942620772998
  0
ARC
  5
304F6
  8
0
 10
3678.0602075709421115
 20
196.4757613360455935
 30
0.0
 40
0.022858080891165
 50
185.3591505879545878
 51
269.7152287973352145
  0
ARC
  5
304F7
  8
0
 10
3678.0612823330379797
 20
196.4739082577825116
 30
0.0
 40
0.0210383102902863
 50
266.7618650140822183
 51
353.5494422035267235
  0
ARC
  5
304F8
  8
0
 10
3678.0586817441057974
 20
196.481399723403797
 30
0.0
 40
0.0733808322219834
 50
0.0
 51
91.1696596281900042
  0
ARC
  5
304F9
  8
0
 10
3678.0537697862960158
 20
196.4833704171556974
 30
0.0
 40
0.0714764297252481
 50
87.2622545315015543
 51
180.4702595767624871
  0
ARC
  5
304FA
  8
0
 10
3678.0580616520128387
 20
196.4892162407267051
 30
0.0
 40
0.0760384533703567
 50
184.8527304431985954
 51
271.5315496877828991
  0
ARC
  5
304FB
  8
0
 10
3678.0599156722309999
 20
196.4854661425580105
 30
0.0
 40
0.0722614111104802
 50
270.1413656070018874
 51
356.7740486098215911
  0
LINE
  5
304FC
  8
0
 10
3678.1320625763291901
 20
196.481399723403797
 30
0.0
 11
3678.133414760739015
 21
196.5441271955733953
 31
0.0
  0
LINE
  5
304FD
  8
0
 10
3677.9822957640390086
 20
196.4827837753736901
 30
0.0
 11
3677.9802761494388506
 21
196.5439988679733858
 31
0.0
  0
ARC
  5
304FE
  8
0
 10
3678.0762135324739575
 20
196.5139819432747004
 30
0.0
 40
0.0646584623319817
 50
329.7407989383906965
 51
27.7893912585516887
  0
ARC
  5
304FF
  8
0
 10
3678.0570999511828632
 20
196.5033726401875072
 30
0.0
 40
0.0865152237594968
 50
28.103646552483621
 51
89.9444557425063067
  0
ARC
  5
30500
  8
0
 10
3678.0549692946779032
 20
196.5062080142550087
 30
0.0
 40
0.0837091068548046
 50
88.4840615535172788
 51
153.1629579152111944
  0
ARC
  5
30501
  8
0
 10
3678.0549410326780162
 20
196.5158213574769093
 30
0.0
 40
0.0798048675642774
 50
159.3241761540205914
 51
204.4550694771824908
  0
LINE
  5
30502
  8
0
 10
3677.9682791713012193
 20
195.0378709893240057
 30
0.0
 11
3677.9682100521799839
 21
195.1651080919997128
 31
0.0
  0
LINE
  5
30503
  8
0
 10
3677.9584706524378817
 20
195.0647497454804125
 30
0.0
 11
3677.9584706524378817
 21
195.154623024808302
 31
0.0
  0
ARC
  5
30504
  8
0
 10
3677.9686676175911089
 20
195.1539001570079108
 30
0.0
 40
0.0102225552671106
 50
116.2807086466859943
 51
175.9450580007660108
  0
LINE
  5
30505
  8
0
 10
3677.9641413837389337
 20
195.1630660635804873
 30
0.0
 11
3678.0504988614379727
 21
195.2064081117804903
 31
0.0
  0
LINE
  5
30506
  8
0
 10
3678.0571838216387732
 20
194.9913937022921004
 30
0.0
 11
3677.9682791713012193
 21
195.0378709893240057
 31
0.0
  0
LINE
  5
30507
  8
0
 10
3678.0571838216387732
 20
195.1762359164206941
 30
0.0
 11
3677.9682286274342005
 21
195.1309140591893936
 31
0.0
  0
ARC
  5
30508
  8
0
 10
3677.9686676175911089
 20
195.0654726132808037
 30
0.0
 40
0.0102225552671106
 50
184.054941999233904
 51
267.769319468364472
  0
ARC
  5
30509
  8
0
 10
3678.0584404233668465
 20
195.0774954974326931
 30
0.0
 40
0.0260821343565964
 50
354.8316461022274098
 51
92.761501690581639
  0
ARC
  5
3050A
  8
0
 10
3678.0555085623150262
 20
195.0777433978662998
 30
0.0
 40
0.0258582695715078
 50
86.2854219048165731
 51
180.8046734183403998
  0
ARC
  5
3050B
  8
0
 10
3678.0559697199018956
 20
195.0806750242363137
 30
0.0
 40
0.0265223217029157
 50
187.1360848933379089
 51
272.6237229131832009
  0
ARC
  5
3050C
  8
0
 10
3678.0584480945772157
 20
195.0807077359569064
 30
0.0
 40
0.0265573403068198
 50
267.271379921130972
 51
347.9113163104595969
  0
LINE
  5
3050D
  8
0
 10
3678.1460884719758724
 20
195.0378709893240057
 30
0.0
 11
3678.1461575910971078
 21
195.1651080919997128
 31
0.0
  0
LINE
  5
3050E
  8
0
 10
3678.15589699083921
 20
195.0647497454804125
 30
0.0
 11
3678.15589699083921
 21
195.154623024808302
 31
0.0
  0
ARC
  5
3050F
  8
0
 10
3678.1457000256859828
 20
195.1539001570079108
 30
0.0
 40
0.0102225552671106
 50
4.0549419992339173
 51
63.7192913533139631
  0
LINE
  5
30510
  8
0
 10
3678.1502262595390675
 20
195.1630660635804873
 30
0.0
 11
3678.063868781839119
 21
195.2064081117804903
 31
0.0
  0
LINE
  5
30511
  8
0
 10
3678.0571838216387732
 20
194.9913937022921004
 30
0.0
 11
3678.1460884719758724
 21
195.0378709893240057
 31
0.0
  0
LINE
  5
30512
  8
0
 10
3678.0571838216387732
 20
195.1762359164206941
 30
0.0
 11
3678.1461390158438007
 21
195.1309140591893936
 31
0.0
  0
ARC
  5
30513
  8
0
 10
3678.1457000256859828
 20
195.0654726132808037
 30
0.0
 40
0.0102225552671106
 50
272.2306805316354144
 51
355.945058000766096
  0
ARC
  5
30514
  8
0
 10
3678.0571838216387732
 20
195.193332600733811
 30
0.0
 40
0.0146852879442696
 50
62.9212452507376625
 51
117.078754749262302
  0
LINE
  5
30515
  8
0
 10
3677.9682791713012193
 20
194.8066014414879987
 30
0.0
 11
3677.9682100521799839
 21
194.9338385441635921
 31
0.0
  0
LINE
  5
30516
  8
0
 10
3677.9584706524378817
 20
194.8334801976444055
 30
0.0
 11
3677.9584706524378817
 21
194.9233534769722098
 31
0.0
  0
ARC
  5
30517
  8
0
 10
3677.9686676175911089
 20
194.9226306091719039
 30
0.0
 40
0.0102225552671106
 50
116.2807086466859943
 51
175.9450580007660108
  0
LINE
  5
30518
  8
0
 10
3677.9641413837389337
 20
194.931796515744395
 30
0.0
 11
3678.0504988614379727
 21
194.9751385639443981
 31
0.0
  0
LINE
  5
30519
  8
0
 10
3678.0571838216387732
 20
194.7601241544558945
 30
0.0
 11
3677.9682791713012193
 21
194.8066014414879987
 31
0.0
  0
LINE
  5
3051A
  8
0
 10
3678.0571838216387732
 20
194.9449663685846019
 30
0.0
 11
3677.9682286274342005
 21
194.8996445113533014
 31
0.0
  0
ARC
  5
3051B
  8
0
 10
3677.9686676175911089
 20
194.8342030654447967
 30
0.0
 40
0.0102225552671106
 50
184.054941999233904
 51
267.769319468364472
  0
ARC
  5
3051C
  8
0
 10
3678.0584404233668465
 20
194.8462259495964872
 30
0.0
 40
0.0260821343565964
 50
354.8316461022274098
 51
92.761501690581639
  0
ARC
  5
3051D
  8
0
 10
3678.0555085623150262
 20
194.8464738500302076
 30
0.0
 40
0.0258582695715078
 50
86.2854219048165731
 51
180.8046734183403998
  0
ARC
  5
3051E
  8
0
 10
3678.0559697199018956
 20
194.849405476400193
 30
0.0
 40
0.0265223217029157
 50
187.1360848933379089
 51
272.6237229131832009
  0
ARC
  5
3051F
  8
0
 10
3678.0584480945772157
 20
194.8494381881208142
 30
0.0
 40
0.0265573403068198
 50
267.271379921130972
 51
347.9113163104595969
  0
LINE
  5
30520
  8
0
 10
3678.1460884719758724
 20
194.8066014414879987
 30
0.0
 11
3678.1461575910971078
 21
194.9338385441635921
 31
0.0
  0
LINE
  5
30521
  8
0
 10
3678.15589699083921
 20
194.8334801976444055
 30
0.0
 11
3678.15589699083921
 21
194.9233534769722098
 31
0.0
  0
ARC
  5
30522
  8
0
 10
3678.1457000256859828
 20
194.9226306091719039
 30
0.0
 40
0.0102225552671106
 50
4.0549419992339173
 51
63.7192913533139631
  0
LINE
  5
30523
  8
0
 10
3678.1502262595390675
 20
194.931796515744395
 30
0.0
 11
3678.063868781839119
 21
194.9751385639443981
 31
0.0
  0
LINE
  5
30524
  8
0
 10
3678.0571838216387732
 20
194.7601241544558945
 30
0.0
 11
3678.1460884719758724
 21
194.8066014414879987
 31
0.0
  0
LINE
  5
30525
  8
0
 10
3678.0571838216387732
 20
194.9449663685846019
 30
0.0
 11
3678.1461390158438007
 21
194.8996445113533014
 31
0.0
  0
ARC
  5
30526
  8
0
 10
3678.1457000256859828
 20
194.8342030654447967
 30
0.0
 40
0.0102225552671106
 50
272.2306805316354144
 51
355.945058000766096
  0
ARC
  5
30527
  8
0
 10
3678.0571838216387732
 20
194.962063052897804
 30
0.0
 40
0.0146852879442696
 50
62.9212452507376625
 51
117.078754749262302
  0
LINE
  5
30528
  8
0
 10
3677.9682791713012193
 20
194.5806768286767863
 30
0.0
 11
3677.9682100521799839
 21
194.7079139313526071
 31
0.0
  0
LINE
  5
30529
  8
0
 10
3677.9584706524378817
 20
194.607555584833392
 30
0.0
 11
3677.9584706524378817
 21
194.6974288641611111
 31
0.0
  0
ARC
  5
3052A
  8
0
 10
3677.9686676175911089
 20
194.6967059963608051
 30
0.0
 40
0.0102225552671106
 50
116.2807086466859943
 51
175.9450580007660108
  0
LINE
  5
3052B
  8
0
 10
3677.9641413837389337
 20
194.7058719029332963
 30
0.0
 11
3678.0504988614379727
 21
194.7492139511332994
 31
0.0
  0
LINE
  5
3052C
  8
0
 10
3678.0571838216387732
 20
194.5341995416447958
 30
0.0
 11
3677.9682791713012193
 21
194.5806768286767863
 31
0.0
  0
LINE
  5
3052D
  8
0
 10
3678.0571838216387732
 20
194.7190417557735884
 30
0.0
 11
3677.9682286274342005
 21
194.6737198985422879
 31
0.0
  0
ARC
  5
3052E
  8
0
 10
3677.9686676175911089
 20
194.6082784526336127
 30
0.0
 40
0.0102225552671106
 50
184.054941999233904
 51
267.769319468364472
  0
ARC
  5
3052F
  8
0
 10
3678.0584404233668465
 20
194.6291013888584871
 30
0.0
 40
0.0260821343565964
 50
354.8316461022274098
 51
92.761501690581639
  0
ARC
  5
30530
  8
0
 10
3678.0555085623150262
 20
194.6293492892920938
 30
0.0
 40
0.0258582695715078
 50
86.2854219048165731
 51
180.8046734183403998
  0
ARC
  5
30531
  8
0
 10
3678.0559697199018956
 20
194.6322809156621929
 30
0.0
 40
0.0265223217029157
 50
187.1360848933379089
 51
272.6237229131832009
  0
ARC
  5
30532
  8
0
 10
3678.0584480945772157
 20
194.6323136273828993
 30
0.0
 40
0.0265573403068198
 50
267.271379921130972
 51
347.9113163104595969
  0
LINE
  5
30533
  8
0
 10
3678.1460884719758724
 20
194.5806768286767863
 30
0.0
 11
3678.1461575910971078
 21
194.7079139313526071
 31
0.0
  0
LINE
  5
30534
  8
0
 10
3678.15589699083921
 20
194.607555584833392
 30
0.0
 11
3678.15589699083921
 21
194.6974288641611111
 31
0.0
  0
ARC
  5
30535
  8
0
 10
3678.1457000256859828
 20
194.6967059963608051
 30
0.0
 40
0.0102225552671106
 50
4.0549419992339173
 51
63.7192913533139631
  0
LINE
  5
30536
  8
0
 10
3678.1502262595390675
 20
194.7058719029332963
 30
0.0
 11
3678.063868781839119
 21
194.7492139511332994
 31
0.0
  0
LINE
  5
30537
  8
0
 10
3678.0571838216387732
 20
194.5341995416447958
 30
0.0
 11
3678.1460884719758724
 21
194.5806768286767863
 31
0.0
  0
LINE
  5
30538
  8
0
 10
3678.0571838216387732
 20
194.7190417557735884
 30
0.0
 11
3678.1461390158438007
 21
194.6737198985422879
 31
0.0
  0
ARC
  5
30539
  8
0
 10
3678.1457000256859828
 20
194.6082784526336127
 30
0.0
 40
0.0102225552671106
 50
272.2306805316354144
 51
355.945058000766096
  0
ARC
  5
3053A
  8
0
 10
3678.0571838216387732
 20
194.7361384400867053
 30
0.0
 40
0.0146852879442696
 50
62.9212452507376625
 51
117.078754749262302
  0
LINE
  5
3053B
  8
0
 10
3678.1903567374019985
 20
194.4852906336645049
 30
0.0
 11
3678.1902876182798536
 21
194.6125277363402972
 31
0.0
  0
LINE
  5
3053C
  8
0
 10
3678.1805482185391156
 20
194.5121693898211106
 30
0.0
 11
3678.1805482185391156
 21
194.6020426691488012
 31
0.0
  0
ARC
  5
3053D
  8
0
 10
3678.1907451836909786
 20
194.601319801348609
 30
0.0
 40
0.0102225552671106
 50
116.2807086466859943
 51
175.9450580007660108
  0
LINE
  5
3053E
  8
0
 10
3678.1862189498378939
 20
194.6104857079209864
 30
0.0
 11
3678.2725764275392066
 21
194.6538277561209895
 31
0.0
  0
LINE
  5
3053F
  8
0
 10
3678.2792613877390977
 20
194.4388133466324859
 30
0.0
 11
3678.1903567374019985
 21
194.4852906336645049
 31
0.0
  0
LINE
  5
30540
  8
0
 10
3678.2792613877390977
 20
194.623655560761307
 30
0.0
 11
3678.1903061935340702
 21
194.5783337035300065
 31
0.0
  0
ARC
  5
30541
  8
0
 10
3678.1907451836909786
 20
194.5128922576213029
 30
0.0
 40
0.0102225552671106
 50
184.054941999233904
 51
267.769319468364472
  0
ARC
  5
30542
  8
0
 10
3678.2805179894680805
 20
194.5202884034588919
 30
0.0
 40
0.0260821343565964
 50
354.8316461022274098
 51
92.761501690581639
  0
ARC
  5
30543
  8
0
 10
3678.2775861284148959
 20
194.5205363038926123
 30
0.0
 40
0.0258582695715078
 50
86.2854219048165731
 51
180.8046734183403998
  0
ARC
  5
30544
  8
0
 10
3678.2780472860022201
 20
194.5234679302625977
 30
0.0
 40
0.0265223217029157
 50
187.1360848933379089
 51
272.6237229131832009
  0
ARC
  5
30545
  8
0
 10
3678.2805256606770854
 20
194.5235006419833041
 30
0.0
 40
0.0265573403068198
 50
267.271379921130972
 51
347.9113163104595969
  0
LINE
  5
30546
  8
0
 10
3678.3681660380748326
 20
194.4852906336645049
 30
0.0
 11
3678.368235157197887
 21
194.6125277363402972
 31
0.0
  0
LINE
  5
30547
  8
0
 10
3678.3779745569390798
 20
194.5121693898211106
 30
0.0
 11
3678.3779745569390798
 21
194.6020426691488012
 31
0.0
  0
ARC
  5
30548
  8
0
 10
3678.3677775917849431
 20
194.601319801348609
 30
0.0
 40
0.0102225552671106
 50
4.0549419992339173
 51
63.7192913533139631
  0
LINE
  5
30549
  8
0
 10
3678.3723038256380278
 20
194.6104857079209864
 30
0.0
 11
3678.2859463479380793
 21
194.6538277561209895
 31
0.0
  0
LINE
  5
3054A
  8
0
 10
3678.2792613877390977
 20
194.4388133466324859
 30
0.0
 11
3678.3681660380748326
 21
194.4852906336645049
 31
0.0
  0
LINE
  5
3054B
  8
0
 10
3678.2792613877390977
 20
194.623655560761307
 30
0.0
 11
3678.3682165819441252
 21
194.5783337035300065
 31
0.0
  0
ARC
  5
3054C
  8
0
 10
3678.3677775917849431
 20
194.5128922576213029
 30
0.0
 40
0.0102225552671106
 50
272.2306805316354144
 51
355.945058000766096
  0
ARC
  5
3054D
  8
0
 10
3678.2792613877390977
 20
194.6407522450745091
 30
0.0
 40
0.0146852879442696
 50
62.9212452507376625
 51
117.078754749262302
  0
LINE
  5
3054E
  8
0
 10
3678.1903567374019985
 20
195.1503729223339008
 30
0.0
 11
3678.1902876182798536
 21
195.2776100250094942
 31
0.0
  0
LINE
  5
3054F
  8
0
 10
3678.1805482185391156
 20
195.1772516784903075
 30
0.0
 11
3678.1805482185391156
 21
195.2671249578181119
 31
0.0
  0
ARC
  5
30550
  8
0
 10
3678.1907451836909786
 20
195.2664020900176922
 30
0.0
 40
0.0102225552671106
 50
116.2807086466859943
 51
175.9450580007660108
  0
LINE
  5
30551
  8
0
 10
3678.1862189498378939
 20
195.2755679965904108
 30
0.0
 11
3678.2725764275392066
 21
195.3189100447903002
 31
0.0
  0
LINE
  5
30552
  8
0
 10
3678.2792613877390977
 20
195.1038956353017966
 30
0.0
 11
3678.1903567374019985
 21
195.1503729223339008
 31
0.0
  0
LINE
  5
30553
  8
0
 10
3678.2792613877390977
 20
195.288737849430504
 30
0.0
 11
3678.1903061935340702
 21
195.2434159921992887
 31
0.0
  0
ARC
  5
30554
  8
0
 10
3678.1907451836909786
 20
195.1779745462906988
 30
0.0
 40
0.0102225552671106
 50
184.054941999233904
 51
267.769319468364472
  0
ARC
  5
30555
  8
0
 10
3678.2805179894680805
 20
195.1899974304423893
 30
0.0
 40
0.0260821343565964
 50
354.8316461022274098
 51
92.761501690581639
  0
ARC
  5
30556
  8
0
 10
3678.2775861284148959
 20
195.1902453308759959
 30
0.0
 40
0.0258582695715078
 50
86.2854219048165731
 51
180.8046734183403998
  0
ARC
  5
30557
  8
0
 10
3678.2780472860022201
 20
195.1931769572462088
 30
0.0
 40
0.0265223217029157
 50
187.1360848933379089
 51
272.6237229131832009
  0
ARC
  5
30558
  8
0
 10
3678.2805256606770854
 20
195.1932096689666878
 30
0.0
 40
0.0265573403068198
 50
267.271379921130972
 51
347.9113163104595969
  0
LINE
  5
30559
  8
0
 10
3678.3681660380748326
 20
195.1503729223339008
 30
0.0
 11
3678.368235157197887
 21
195.2776100250094942
 31
0.0
  0
LINE
  5
3055A
  8
0
 10
3678.3779745569390798
 20
195.1772516784903075
 30
0.0
 11
3678.3779745569390798
 21
195.2671249578181119
 31
0.0
  0
ARC
  5
3055B
  8
0
 10
3678.3677775917849431
 20
195.2664020900176922
 30
0.0
 40
0.0102225552671106
 50
4.0549419992339173
 51
63.7192913533139631
  0
LINE
  5
3055C
  8
0
 10
3678.3723038256380278
 20
195.2755679965904108
 30
0.0
 11
3678.2859463479380793
 21
195.3189100447903002
 31
0.0
  0
LINE
  5
3055D
  8
0
 10
3678.2792613877390977
 20
195.1038956353017966
 30
0.0
 11
3678.3681660380748326
 21
195.1503729223339008
 31
0.0
  0
LINE
  5
3055E
  8
0
 10
3678.2792613877390977
 20
195.288737849430504
 30
0.0
 11
3678.3682165819441252
 21
195.2434159921992887
 31
0.0
  0
ARC
  5
3055F
  8
0
 10
3678.3677775917849431
 20
195.1779745462906988
 30
0.0
 40
0.0102225552671106
 50
272.2306805316354144
 51
355.945058000766096
  0
ARC
  5
30560
  8
0
 10
3678.2792613877390977
 20
195.3058345337437061
 30
0.0
 40
0.0146852879442696
 50
62.9212452507376625
 51
117.078754749262302
  0
LINE
  5
30561
  8
0
 10
3676.4944420838410224
 20
195.2353261345870976
 30
0.0
 11
3676.6630969161537905
 21
195.3240493161945892
 31
0.0
  0
LINE
  5
30562
  8
0
 10
3676.8016245793278358
 20
195.3969236883600047
 30
0.0
 11
3677.1164447735650356
 21
195.5625391580383052
 31
0.0
  0
LINE
  5
30563
  8
0
 10
3677.2317362718349614
 20
195.6009408043242104
 30
0.0
 11
3677.5586799545039867
 21
195.772934000931599
 31
0.0
  0
LINE
  5
30564
  8
0
 10
3677.668790621935841
 20
195.8133423510516025
 30
0.0
 11
3678.0054314494577739
 21
195.9904368633582123
 31
0.0
  0
LINE
  5
30565
  8
0
 10
3678.1091602773299201
 20
196.061012401978104
 30
0.0
 11
3678.4471129961420957
 21
196.238797052644486
 31
0.0
  0
LINE
  5
30566
  8
0
 10
3676.4821468575669314
 20
194.7833228969182073
 30
0.0
 11
3676.6707840342460258
 21
194.8803486459530063
 31
0.0
  0
LINE
  5
30567
  8
0
 10
3676.8068182781307769
 20
194.9503180159344993
 30
0.0
 11
3677.1129504458749579
 21
195.1077774489147885
 31
0.0
  0
LINE
  5
30568
  8
0
 10
3677.2310873639821693
 20
195.1279703419342013
 30
0.0
 11
3677.5634641541219025
 21
195.2989287266640872
 31
0.0
  0
LINE
  5
30569
  8
0
 10
3677.6748017899089973
 20
195.3326726467738013
 30
0.0
 11
3678.0196905668699401
 21
195.5100665863319023
 31
0.0
  0
LINE
  5
3056A
  8
0
 10
3678.1185735051822121
 20
195.581238026836786
 30
0.0
 11
3678.4502995018137881
 21
195.7518616751760874
 31
0.0
  0
LINE
  5
3056B
  8
0
 10
3677.836926156951904
 20
196.6266908996664995
 30
0.0
 11
3677.9817508357177758
 21
196.5467822898235966
 31
0.0
  0
LINE
  5
3056C
  8
0
 10
3677.3669561061437889
 20
196.4216684925391121
 30
0.0
 11
3677.5423816008537869
 21
196.3234743384601018
 31
0.0
  0
LINE
  5
3056D
  8
0
 10
3677.678540708266155
 20
196.2297426122869126
 30
0.0
 11
3677.9957889465667904
 21
196.0521633930036103
 31
0.0
  0
LINE
  5
3056E
  8
0
 10
3678.1096726360888169
 20
196.0037546997320135
 30
0.0
 11
3678.1096807234948756
 21
196.0037501728189966
 31
0.0
  0
LINE
  5
3056F
  8
0
 10
3678.1106175263771547
 20
196.0032257988297033
 30
0.0
 11
3678.4472682987388907
 21
195.8147860405902918
 31
0.0
  0
LINE
  5
30570
  8
0
 10
3677.0094552165278401
 20
196.1501506285532912
 30
0.0
 11
3677.0969529414910539
 21
196.1011073654638039
 31
0.0
  0
LINE
  5
30571
  8
0
 10
3677.234364196522165
 20
196.0080795493232131
 30
0.0
 11
3677.5584708142391719
 21
195.826414870286186
 31
0.0
  0
LINE
  5
30572
  8
0
 10
3677.6661623387431064
 20
195.7538678934780876
 30
0.0
 11
3677.9922595451098459
 21
195.5710874715690011
 31
0.0
  0
LINE
  5
30573
  8
0
 10
3678.103439459537185
 20
195.5247776977238061
 30
0.0
 11
3678.4030345372389093
 21
195.3568519576838014
 31
0.0
  0
LINE
  5
30574
  8
0
 10
3676.7505698963100258
 20
195.847863044910298
 30
0.0
 11
3677.111014849439016
 21
195.6302589027737042
 31
0.0
  0
LINE
  5
30575
  8
0
 10
3677.2131222692401025
 20
195.5526055020328045
 30
0.0
 11
3677.5510476598669811
 21
195.362829956984001
 31
0.0
  0
LINE
  5
30576
  8
0
 10
3677.6614521287679054
 20
195.3008279031498091
 30
0.0
 11
3677.9584706524378817
 21
195.1340252485325095
 31
0.0
  0
LINE
  5
30577
  8
0
 10
3676.5680450865202147
 20
194.4244093515690963
 30
0.0
 11
3676.6495500505470773
 21
194.4624773720886992
 31
0.0
  0
LINE
  5
30578
  8
0
 10
3676.7822631690528397
 20
194.5485378892497863
 30
0.0
 11
3677.1057943933237766
 21
194.6996476214164886
 31
0.0
  0
LINE
  5
30579
  8
0
 10
3677.2229795275038668
 20
194.730485751007393
 30
0.0
 11
3677.5527167579280103
 21
194.8844940841657092
 31
0.0
  0
LINE
  5
3057A
  8
0
 10
3677.6723474502668978
 20
194.9162942333329909
 30
0.0
 11
3677.968270133012993
 21
195.0545090144026119
 31
0.0
  0
LINE
  5
3057B
  8
0
 10
3676.5531132697551584
 20
195.4619759619396007
 30
0.0
 11
3676.6379181748779956
 21
195.4153540375677949
 31
0.0
  0
LINE
  5
3057C
  8
0
 10
3676.7831416913700195
 20
195.3355166768282913
 30
0.0
 11
3677.1075645362020623
 21
195.1571635814007948
 31
0.0
  0
LINE
  5
3057D
  8
0
 10
3677.2201769186390266
 20
195.1017768947019988
 30
0.0
 11
3677.5522437515178353
 21
194.9192214782875112
 31
0.0
  0
LINE
  5
3057E
  8
0
 10
3677.6631173795772156
 20
194.858268141984496
 30
0.0
 11
3677.9584706524378817
 21
194.6958961903829106
 31
0.0
  0
LINE
  5
3057F
  8
0
 10
3676.7531712842837806
 20
194.0659637440261918
 30
0.0
 11
3677.1135279346399329
 21
194.2343819034194041
 31
0.0
  0
LINE
  5
30580
  8
0
 10
3677.2297139468378191
 20
194.2509632796486869
 30
0.0
 11
3677.5666377575748811
 21
194.4084297451736916
 31
0.0
  0
LINE
  5
30581
  8
0
 10
3677.6715074192247812
 20
194.479068674428305
 30
0.0
 11
3677.9584706524378817
 21
194.6131853044491891
 31
0.0
  0
LINE
  5
30582
  8
0
 10
3676.4723702474479978
 20
195.0355334054436014
 30
0.0
 11
3676.6391528099461539
 21
194.9497364460565052
 31
0.0
  0
LINE
  5
30583
  8
0
 10
3676.7895379099941238
 20
194.8964497555004129
 30
0.0
 11
3677.1119973309819216
 21
194.7305688778351964
 31
0.0
  0
LINE
  5
30584
  8
0
 10
3677.2216091161758413
 20
194.6711656554437866
 30
0.0
 11
3677.5639121340877864
 21
194.4950767545059875
 31
0.0
  0
LINE
  5
30585
  8
0
 10
3677.6429846445112162
 20
194.3931081122871092
 30
0.0
 11
3678.0006488609510598
 21
194.2091170415631893
 31
0.0
  0
LINE
  5
30586
  8
0
 10
3678.1071650253197731
 20
194.1920424891600021
 30
0.0
 11
3678.4360256361051142
 21
194.0228686855865021
 31
0.0
  0
LINE
  5
30587
  8
0
 10
3676.5258432819027803
 20
194.5576403880145051
 30
0.0
 11
3676.6371015508889286
 21
194.5016607974540079
 31
0.0
  0
LINE
  5
30588
  8
0
 10
3676.7913501522248225
 20
194.4573933079120991
 30
0.0
 11
3677.1133039657552217
 21
194.2954022682799859
 31
0.0
  0
LINE
  5
30589
  8
0
 10
3677.208505857525779
 20
194.2086979655325081
 30
0.0
 11
3677.5487537583398989
 21
194.0375022571132035
 31
0.0
  0
LINE
  5
3058A
  8
0
 10
3677.6651313294960346
 20
194.0005733884580934
 30
0.0
 11
3677.9934147755780032
 21
193.8353975946332923
 31
0.0
  0
LINE
  5
3058B
  8
0
 10
3678.1098706092820976
 20
193.7917115192447
 30
0.0
 11
3678.4421023196769056
 21
193.6245491564957888
 31
0.0
  0
LINE
  5
3058C
  8
0
 10
3676.7608723247558373
 20
194.054880960602901
 30
0.0
 11
3677.0932992064258542
 21
193.8836277845381062
 31
0.0
  0
LINE
  5
3058D
  8
0
 10
3677.2397889640378708
 20
193.8081620576807893
 30
0.0
 11
3677.5404644008840478
 21
193.6532659696567009
 31
0.0
  0
LINE
  5
3058E
  8
0
 10
3677.6855518835000112
 20
193.5785226393929861
 30
0.0
 11
3677.9811522675499873
 21
193.4262410177614129
 31
0.0
  0
LINE
  5
3058F
  8
0
 10
3678.1280132387178128
 20
193.3505840563682057
 30
0.0
 11
3678.4098244951828747
 21
193.2054060476640132
 31
0.0
  0
LINE
  5
30590
  8
0
 10
3676.8060994946358733
 20
195.9237472982950976
 30
0.0
 11
3677.1060595552121413
 21
196.0081970233615039
 31
0.0
  0
LINE
  5
30591
  8
0
 10
3677.252991650183958
 20
196.073510869411507
 30
0.0
 11
3677.5448914352277825
 21
196.2337353527584867
 31
0.0
  0
LINE
  5
30592
  8
0
 10
3677.694790192185792
 20
196.2972732761718078
 30
0.0
 11
3677.9885057850729027
 21
196.4584944607445891
 31
0.0
  0
LINE
  5
30593
  8
0
 10
3677.0217645235547934
 20
193.759415953884286
 30
0.0
 11
3677.1015231347410008
 21
193.7976191574198879
 31
0.0
  0
LINE
  5
30594
  8
0
 10
3677.2515379715177914
 20
193.854565391818312
 30
0.0
 11
3677.558393247883032
 21
194.0015445631520095
 31
0.0
  0
LINE
  5
30595
  8
0
 10
3677.6744064782960777
 20
194.0198963748291874
 30
0.0
 11
3678.0101864485341139
 21
194.1807300497810047
 31
0.0
  0
LINE
  5
30596
  8
0
 10
3678.1172810967109399
 20
194.2469354831272881
 30
0.0
 11
3678.4120294170170382
 21
194.3881156002942987
 31
0.0
  0
LINE
  5
30597
  8
0
 10
3677.3731164779928804
 20
193.499836299496593
 30
0.0
 11
3677.5401809518530172
 21
193.5777914938701088
 31
0.0
  0
LINE
  5
30598
  8
0
 10
3677.6877602201338959
 20
193.6466545518175906
 30
0.0
 11
3678.0009172492191283
 21
193.7927790779218071
 31
0.0
  0
LINE
  5
30599
  8
0
 10
3678.1123455812480643
 20
193.8447734791332095
 30
0.0
 11
3678.4389780197739128
 21
193.9971858660742043
 31
0.0
  0
LINE
  5
3059A
  8
0
 10
3677.8534887137789156
 20
193.2955048195534005
 30
0.0
 11
3677.9839410052250059
 21
193.3563615638325075
 31
0.0
  0
LINE
  5
3059B
  8
0
 10
3678.1311928120530865
 20
193.4250553786623072
 30
0.0
 11
3678.443093141700956
 21
193.5705586763924089
 31
0.0
  0
LINE
  5
3059C
  8
0
 10
3676.7057752490859457
 20
195.4602496397710922
 30
0.0
 11
3676.7106483157322145
 21
195.7882082270392061
 31
0.0
  0
LINE
  5
3059D
  8
0
 10
3676.7123811280198424
 20
195.3022756293343036
 30
0.0
 11
3676.7098025189798136
 21
195.0194164915980082
 31
0.0
  0
LINE
  5
3059E
  8
0
 10
3676.723283045972039
 20
194.5720845718836927
 30
0.0
 11
3676.7234683761421365
 21
194.8610871070115138
 31
0.0
  0
LINE
  5
3059F
  8
0
 10
3676.7206924120027907
 20
194.4139210540772069
 30
0.0
 11
3676.7112769346567802
 21
194.1300267769507002
 31
0.0
  0
LINE
  5
305A0
  8
0
 10
3678.1292632751637939
 20
196.5510941093006068
 30
0.0
 11
3678.435248616429817
 21
196.7190501878187092
 31
0.0
  0
LINE
  5
305A1
  8
0
 10
3678.12932291252082
 20
196.4653577728867049
 30
0.0
 11
3678.4463869770620477
 21
196.2904141869973103
 31
0.0
  0
ARC
  5
305A2
  8
0
 10
3672.7872648146098982
 20
161.3697275137963913
 30
0.0
 40
0.0197
 50
90.0
 51
180.0
  0
LINE
  5
305A3
  8
0
 10
3672.4211081216599268
 20
159.6227814997214978
 30
0.0
 11
3672.4211081216599268
 21
161.5822546304999037
 31
0.0
  0
LINE
  5
305A4
  8
0
 10
3671.9545001943019997
 20
161.5881113936646045
 30
0.0
 11
3672.4111797084601676
 21
161.5920971501903978
 31
0.0
  0
ARC
  5
305A5
  8
0
 10
3671.9545342277901909
 20
161.5842115421646952
 30
0.0
 40
0.0039
 50
90.4999999986105905
 51
179.8600000277139088
  0
ARC
  5
305A6
  8
0
 10
3670.6986974665041998
 20
161.5672788533842947
 30
0.0
 40
0.0098729856480239
 50
90.6742529624148261
 51
179.5771823157693916
  0
ARC
  5
305A7
  8
0
 10
3672.4113030952930785
 20
161.5822928258066895
 30
0.0
 40
0.0098051007609499
 50
359.776806412817507
 51
90.7210258791113517
  0
LINE
  5
305A8
  8
0
 10
3670.6888247496849544
 20
161.5673517110201942
 30
0.0
 11
3670.6888246570588308
 21
159.7104335527963883
 31
0.0
  0
ARC
  5
305A9
  8
0
 10
3670.6986671767590451
 20
159.7104335527963883
 30
0.0
 40
0.0098425197000112
 50
180.0000000000212026
 51
225.000000196201313
  0
LINE
  5
305AA
  8
0
 10
3670.7759543320598823
 20
159.6272097507037984
 30
0.0
 11
3672.4111797108598694
 21
159.6129393545963921
 31
0.0
  0
ARC
  5
305AB
  8
0
 10
3672.4112315911002042
 20
159.6228158084853135
 30
0.0
 40
0.0098765901494104
 50
269.6990325138518756
 51
359.8009684790616234
  0
LINE
  5
305AC
  8
0
 10
3670.7622066894600721
 20
159.6329746152009932
 30
0.0
 11
3670.6917074643588421
 21
159.7034738403486926
 31
0.0
  0
ARC
  5
305AD
  8
0
 10
3670.7761261125001511
 20
159.6468940374757892
 30
0.0
 40
0.0196850363028569
 50
224.9999984240239996
 51
269.5000050284962754
  0
ARC
  5
305AE
  8
0
 10
3672.7872648146098982
 20
159.6374739705964032
 30
0.0
 40
0.0197
 50
180.0
 51
270.0
  0
LINE
  5
305AF
  8
0
 10
3672.7675648146100684
 20
161.3814860408886886
 30
0.0
 11
3672.7675648146100684
 21
159.6270839945572959
 31
0.0
  0
LINE
  5
305B0
  8
0
 10
3671.95063423943202
 20
161.584221071651001
 30
0.0
 11
3671.9501491438231824
 21
161.3856933482497027
 31
0.0
  0
LINE
  5
305B1
  8
0
 10
3671.9430674421341791
 20
161.5744421043870034
 30
0.0
 11
3671.9444124376150285
 21
161.3817888103693008
 31
0.0
  0
ARC
  5
305B2
  8
0
 10
3671.937766650634785
 20
161.4191960164922932
 30
0.0
 40
0.0379929671719032
 50
273.0462464996526819
 51
284.4482315343926189
  0
ARC
  5
305B3
  8
0
 10
3671.9462501025382153
 20
161.3862097625720935
 30
0.0
 40
0.0039333179630016
 50
284.6680522369265987
 51
352.4306509743552169
  0
LINE
  5
305B4
  8
0
 10
3671.9397856723880977
 20
161.3812567346635092
 30
0.0
 11
3671.170161543012
 21
161.3812567346635092
 31
0.0
  0
LINE
  5
305B5
  8
0
 10
3671.931164760448155
 20
161.5861592762468888
 30
0.0
 11
3671.1765476017599212
 21
161.5795740798737938
 31
0.0
  0
ARC
  5
305B6
  8
0
 10
3671.1766505710038473
 20
161.5677745291478118
 30
0.0
 40
0.0118
 50
90.4999811864740167
 51
179.5999999890426864
  0
ARC
  5
305B7
  8
0
 10
3671.931267729692081
 20
161.5743597255209067
 30
0.0
 40
0.0118
 50
0.399999973666745
 51
90.4999811864740167
  0
LINE
  5
305B8
  8
0
 10
3671.1648508585608397
 20
161.5678569080216107
 30
0.0
 11
3671.1635546916468229
 21
161.3821976950563055
 31
0.0
  0
LINE
  5
305B9
  8
0
 10
3671.1593155793680125
 20
161.5772472689866106
 30
0.0
 11
3671.1597836372388883
 21
161.3856924071741048
 31
0.0
  0
ARC
  5
305BA
  8
0
 10
3671.1554155910098416
 20
161.5772377394960131
 30
0.0
 40
0.0039
 50
0.1400000344016077
 51
90.5000000024408138
  0
LINE
  5
305BB
  8
0
 10
3671.1553815575221051
 20
161.5811375909960077
 30
0.0
 11
3670.69858128595979
 21
161.5771511553998891
 31
0.0
  0
ARC
  5
305BC
  8
0
 10
3671.1721661327651418
 20
161.4191967817700117
 30
0.0
 40
0.0379929671719032
 50
255.5517684656072959
 51
266.975548439581587
  0
ARC
  5
305BD
  8
0
 10
3671.1636826808608021
 20
161.386210527849812
 30
0.0
 40
0.0039333179630016
 50
187.5693490256446978
 51
255.3319477630730034
  0
LINE
  5
305BE
  8
0
 10
3672.4211081216599268
 20
161.5331305502072041
 30
0.0
 11
3671.9504993663458663
 21
161.52902360892719
 31
0.0
  0
LINE
  5
305BF
  8
0
 10
3671.9433849616320913
 20
161.5289615224444049
 30
0.0
 11
3671.1645318606938417
 21
161.522164572929114
 31
0.0
  0
LINE
  5
305C0
  8
0
 10
3671.1594502804450713
 20
161.5221202266403964
 30
0.0
 11
3670.6888247472238618
 21
161.5180131389419103
 31
0.0
  0
LINE
  5
305C1
  8
0
 10
3670.775949291059078
 20
161.4062035610963903
 30
0.0
 11
3671.1597264366719173
 21
161.4091020057674939
 31
0.0
  0
LINE
  5
305C2
  8
0
 10
3672.4211081216599268
 20
161.4185648486331104
 30
0.0
 11
3671.9502208607168541
 21
161.4150438338772915
 31
0.0
  0
LINE
  5
305C3
  8
0
 10
3670.6985812872599126
 20
161.3506860639963918
 30
0.0
 11
3670.6888247388778836
 21
161.3506860639963918
 31
0.0
  0
LINE
  5
305C4
  8
0
 10
3670.6985812872599126
 20
161.3506860639963918
 30
0.0
 11
3670.737687722811188
 21
161.3897170153518061
 31
0.0
  0
ARC
  5
305C5
  8
0
 10
3670.7759805841619709
 20
161.3534894125797905
 30
0.0
 40
0.0527141578049251
 50
90.0340129275526238
 51
136.5874876836770966
  0
LINE
  5
305C6
  8
0
 10
3670.7759492862310253
 20
161.4062041396865936
 30
0.0
 11
3670.7759543320598823
 21
159.6272097507037984
 31
0.0
  0
LINE
  5
305C7
  8
0
 10
3672.7596234504940185
 20
161.3893859325974915
 30
0.0
 11
3672.46042116182889
 21
161.3878192987116051
 31
0.0
  0
LINE
  5
305C8
  8
0
 10
3672.4604625259457862
 20
159.6191839945572895
 30
0.0
 11
3672.7596648146100051
 21
159.6191839945572895
 31
0.0
  0
ARC
  5
305C9
  8
0
 10
3672.4604625259457862
 20
159.6270839945572959
 30
0.0
 40
0.0079
 50
179.999999999947903
 51
270.0000000000259774
  0
ARC
  5
305CA
  8
0
 10
3672.7596648146100051
 20
159.6270839945572959
 30
0.0
 40
0.0079
 50
269.9999999999739089
 51
0.0000000000521102
  0
ARC
  5
305CB
  8
0
 10
3672.7596648146100051
 20
161.3814860408886886
 30
0.0
 40
0.0079
 50
0.0
 51
90.3000000094185253
  0
ARC
  5
305CC
  8
0
 10
3672.4604625259457862
 20
161.3799194070028875
 30
0.0
 40
0.0079
 50
90.3000000093924342
 51
179.9999999999739089
  0
LINE
  5
305CD
  8
0
 10
3676.1927616650091295
 20
177.6551755452964017
 30
0.0
 11
3676.9407931610098785
 21
177.6551755452964017
 31
0.0
  0
ARC
  5
305CE
  8
0
 10
3676.9316684859650195
 20
177.6734502395671029
 30
0.0
 40
0.0225173055491892
 50
234.2510232358168025
 51
260.8045227932692001
  0
ARC
  5
305CF
  8
0
 10
3676.2023401833957905
 20
177.6723818188768007
 30
0.0
 40
0.0213652209692483
 50
277.9571818286568146
 51
306.3568667296714807
  0
LINE
  5
305D0
  8
0
 10
3676.1533915863101356
 20
163.3953330255963863
 30
0.0
 11
3676.9801632398098263
 21
163.3953330255963863
 31
0.0
  0
LINE
  5
305D1
  8
0
 10
3677.02281460651011
 20
163.8008448365964114
 30
0.0
 11
3676.1107402196098519
 21
163.8008448365964114
 31
0.0
  0
LINE
  5
305D2
  8
0
 10
3676.0746514287598075
 20
164.0370653090963913
 30
0.0
 11
3677.0589033972601101
 21
164.0370653090963913
 31
0.0
  0
LINE
  5
305D3
  8
0
 10
3677.0589033972601101
 20
164.0961204271964107
 30
0.0
 11
3676.0746514287598075
 21
164.0961204271964107
 31
0.0
  0
LINE
  5
305D4
  8
0
 10
3676.0746514287598075
 20
164.115805466596413
 30
0.0
 11
3677.0589033972601101
 21
164.115805466596413
 31
0.0
  0
LINE
  5
305D5
  8
0
 10
3677.0589033972601101
 20
164.1551755452964017
 30
0.0
 11
3676.666180297560004
 21
164.1551755452964017
 31
0.0
  0
LINE
  5
305D6
  8
0
 10
3676.4673754817599729
 20
164.1551755452964017
 30
0.0
 11
3676.0746514287598075
 21
164.1551755452964017
 31
0.0
  0
LINE
  5
305D7
  8
0
 10
3676.4673754817599729
 20
164.1551755452964017
 30
0.0
 11
3676.666180297560004
 21
164.1551755452964017
 31
0.0
  0
LINE
  5
305D8
  8
0
 10
3676.0746514287598075
 20
164.7850968050964013
 30
0.0
 11
3676.4673745284599136
 21
164.7850968050964013
 31
0.0
  0
LINE
  5
305D9
  8
0
 10
3676.4673745284599136
 20
164.7850968050964013
 30
0.0
 11
3676.6661793442590351
 21
164.7850968050964013
 31
0.0
  0
LINE
  5
305DA
  8
0
 10
3676.6661793442590351
 20
164.7850968050964013
 30
0.0
 11
3677.0589033973101323
 21
164.7850968050964013
 31
0.0
  0
LINE
  5
305DB
  8
0
 10
3677.0589033972601101
 20
164.824466883896406
 30
0.0
 11
3676.0746514287598075
 21
164.824466883896406
 31
0.0
  0
LINE
  5
305DC
  8
0
 10
3677.0392183579101584
 20
167.2102936555963879
 30
0.0
 11
3676.0943364682098036
 21
167.2102936555963879
 31
0.0
  0
LINE
  5
305DD
  8
0
 10
3676.1927616650091295
 20
167.2142306634964086
 30
0.0
 11
3676.9407931610098785
 21
167.2142306634964086
 31
0.0
  0
LINE
  5
305DE
  8
0
 10
3676.8994545784098591
 20
167.2142306634964086
 30
0.0
 11
3676.9033915863101356
 21
167.2102936555963879
 31
0.0
  0
LINE
  5
305DF
  8
0
 10
3676.0746514287598075
 20
164.1650180649963886
 30
0.0
 11
3676.0746514287598075
 21
164.775254285496402
 31
0.0
  0
LINE
  5
305E0
  8
0
 10
3676.0746514288098297
 20
164.7850968051963889
 30
0.0
 11
3676.0746514288098297
 21
166.4957267264964003
 31
0.0
  0
LINE
  5
305E1
  8
0
 10
3676.0746514288098297
 20
166.5350968051963889
 30
0.0
 11
3676.0746514288098297
 21
167.1906110482152883
 31
0.0
  0
LINE
  5
305E2
  8
0
 10
3676.0746514288098297
 20
166.5350968051963889
 30
0.0
 11
3676.0746514288098297
 21
166.4957267264964003
 31
0.0
  0
LINE
  5
305E3
  8
0
 10
3676.0746514287598075
 20
164.1551755452964017
 30
0.0
 11
3676.0746514287598075
 21
164.115805466596413
 31
0.0
  0
LINE
  5
305E4
  8
0
 10
3676.0746514287598075
 20
164.0961204271964107
 30
0.0
 11
3676.0746514287598075
 21
164.0370653090963913
 31
0.0
  0
LINE
  5
305E5
  8
0
 10
3676.1107402196098519
 20
163.5055692460963996
 30
0.0
 11
3676.1107402196098519
 21
163.8008448366963989
 31
0.0
  0
LINE
  5
305E6
  8
0
 10
3676.1118053156101269
 20
163.5055692460963996
 30
0.0
 11
3676.1118053156101269
 21
163.8008448366963989
 31
0.0
  0
LINE
  5
305E7
  8
0
 10
3676.1140215074588014
 20
164.0961204271964107
 30
0.0
 11
3676.1140215074588014
 21
164.115805466596413
 31
0.0
  0
LINE
  5
305E8
  8
0
 10
3676.1171183635101443
 20
163.5055692460963996
 30
0.0
 11
3676.1171183635101443
 21
163.8008448366963989
 31
0.0
  0
LINE
  5
305E9
  8
0
 10
3676.1238640271599252
 20
164.0252542854937019
 30
0.0
 11
3676.1238640272099474
 21
163.8008448365964114
 31
0.0
  0
LINE
  5
305EA
  8
0
 10
3676.1238640272099474
 20
163.5055692460963996
 30
0.0
 11
3676.1238640272099474
 21
163.424860584596388
 31
0.0
  0
LINE
  5
305EB
  8
0
 10
3676.1266297567099173
 20
163.5055692460963996
 30
0.0
 11
3676.1266297567099173
 21
163.8008448365964114
 31
0.0
  0
LINE
  5
305EC
  8
0
 10
3676.1402506901099514
 20
163.5055692460963996
 30
0.0
 11
3676.1402506901099514
 21
163.8008448365964114
 31
0.0
  0
LINE
  5
305ED
  8
0
 10
3676.1578539885099417
 20
163.5055692460963996
 30
0.0
 11
3676.1578539885099417
 21
163.8008448365964114
 31
0.0
  0
LINE
  5
305EE
  8
0
 10
3676.1792752948099405
 20
163.5055692460963996
 30
0.0
 11
3676.1792752948099405
 21
163.8008448365964114
 31
0.0
  0
LINE
  5
305EF
  8
0
 10
3676.2022668425101983
 20
163.8008448365964114
 30
0.0
 11
3676.2022668425101983
 21
163.5055692460963996
 31
0.0
  0
LINE
  5
305F0
  8
0
 10
3676.204314604010051
 20
163.5055692460963996
 30
0.0
 11
3676.204314604010051
 21
163.8008448365964114
 31
0.0
  0
LINE
  5
305F1
  8
0
 10
3676.2282517494090825
 20
163.8008448365964114
 30
0.0
 11
3676.2282517494090825
 21
163.5055692460963996
 31
0.0
  0
LINE
  5
305F2
  8
0
 10
3676.232738130710004
 20
163.5055692460963996
 30
0.0
 11
3676.232738130710004
 21
163.8008448365964114
 31
0.0
  0
LINE
  5
305F3
  8
0
 10
3676.2518167830598941
 20
164.115805466596413
 30
0.0
 11
3676.2518167830598941
 21
164.0961204271964107
 31
0.0
  0
LINE
  5
305F4
  8
0
 10
3676.2573973792100333
 20
163.8008448365964114
 30
0.0
 11
3676.2573973792100333
 21
163.5055692460963996
 31
0.0
  0
LINE
  5
305F5
  8
0
 10
3676.2642804922102187
 20
163.5055692460963996
 30
0.0
 11
3676.2642804922102187
 21
163.8008448365964114
 31
0.0
  0
LINE
  5
305F6
  8
0
 10
3676.2894316071101457
 20
163.8008448365964114
 30
0.0
 11
3676.2894316071101457
 21
163.5055692460963996
 31
0.0
  0
LINE
  5
305F7
  8
0
 10
3676.29864718600993
 20
163.5055692460963996
 30
0.0
 11
3676.29864718600993
 21
163.8008448365964114
 31
0.0
  0
LINE
  5
305F8
  8
0
 10
3676.3240553379100675
 20
163.8008448365964114
 30
0.0
 11
3676.3240553379100675
 21
163.5055692460963996
 31
0.0
  0
LINE
  5
305F9
  8
0
 10
3676.3355173394102167
 20
163.5055692460963996
 30
0.0
 11
3676.3355173394102167
 21
163.8008448365964114
 31
0.0
  0
LINE
  5
305FA
  8
0
 10
3676.3609452994101048
 20
163.8008448365964114
 30
0.0
 11
3676.3609452994101048
 21
163.5055692460963996
 31
0.0
  0
LINE
  5
305FB
  8
0
 10
3676.3745467059097791
 20
163.5055692460963996
 30
0.0
 11
3676.3745467059097791
 21
163.8008448365964114
 31
0.0
  0
LINE
  5
305FC
  8
0
 10
3676.3997570599099163
 20
163.8008448365964114
 30
0.0
 11
3676.3997570599099163
 21
163.5055692460963996
 31
0.0
  0
LINE
  5
305FD
  8
0
 10
3676.4153708786097923
 20
163.5055692460963996
 30
0.0
 11
3676.4153708786097923
 21
163.8008448365964114
 31
0.0
  0
LINE
  5
305FE
  8
0
 10
3676.440128244510106
 20
163.8008448365964114
 30
0.0
 11
3676.440128244510106
 21
163.5055692460963996
 31
0.0
  0
LINE
  5
305FF
  8
0
 10
3676.4576086934098385
 20
163.5055692460963996
 30
0.0
 11
3676.4576086934098385
 21
163.8008448365964114
 31
0.0
  0
LINE
  5
30600
  8
0
 10
3676.4816819182101426
 20
163.8008448365964114
 30
0.0
 11
3676.4816819182101426
 21
163.5055692460963996
 31
0.0
  0
LINE
  5
30601
  8
0
 10
3676.4880372555589929
 20
164.775254285496402
 30
0.0
 11
3676.4880372555589929
 21
164.1650180649963886
 31
0.0
  0
LINE
  5
30602
  8
0
 10
3676.5008657871098876
 20
163.5055692460963996
 30
0.0
 11
3676.5008657871098876
 21
163.8008448365964114
 31
0.0
  0
LINE
  5
30603
  8
0
 10
3676.5240301056101089
 20
163.8008448365964114
 30
0.0
 11
3676.5240301056101089
 21
163.5055692460963996
 31
0.0
  0
LINE
  5
30604
  8
0
 10
3676.5447382799097795
 20
163.5055692460963996
 30
0.0
 11
3676.5447382799097795
 21
163.8008448365964114
 31
0.0
  0
LINE
  5
30605
  8
0
 10
3676.5667774130101861
 20
163.8008448365964114
 30
0.0
 11
3676.5667774130101861
 21
163.5055692460963996
 31
0.0
  0
LINE
  5
30606
  8
0
 10
3676.5888165462101824
 20
163.5055692460963996
 30
0.0
 11
3676.5888165462101824
 21
163.8008448365964114
 31
0.0
  0
LINE
  5
30607
  8
0
 10
3676.6095247205098531
 20
163.8008448365964114
 30
0.0
 11
3676.6095247205098531
 21
163.5055692460963996
 31
0.0
  0
LINE
  5
30608
  8
0
 10
3676.6326890390100743
 20
163.5055692460963996
 30
0.0
 11
3676.6326890390100743
 21
163.8008448365964114
 31
0.0
  0
LINE
  5
30609
  8
0
 10
3676.6455175704600151
 20
164.775254285496402
 30
0.0
 11
3676.6455175704600151
 21
164.1650180649963886
 31
0.0
  0
LINE
  5
3060A
  8
0
 10
3676.6518729079098193
 20
163.8008448365964114
 30
0.0
 11
3676.6518729079098193
 21
163.5055692460963996
 31
0.0
  0
LINE
  5
3060B
  8
0
 10
3676.6759461327101235
 20
163.5055692460963996
 30
0.0
 11
3676.6759461327101235
 21
163.8008448365964114
 31
0.0
  0
LINE
  5
3060C
  8
0
 10
3676.6934265816098559
 20
163.8008448365964114
 30
0.0
 11
3676.6934265816098559
 21
163.5055692460963996
 31
0.0
  0
LINE
  5
3060D
  8
0
 10
3676.7181839475101697
 20
163.5055692460963996
 30
0.0
 11
3676.7181839475101697
 21
163.8008448365964114
 31
0.0
  0
LINE
  5
3060E
  8
0
 10
3676.7337977662100457
 20
163.8008448365964114
 30
0.0
 11
3676.7337977662100457
 21
163.5055692460963996
 31
0.0
  0
LINE
  5
3060F
  8
0
 10
3676.7590081202101828
 20
163.5055692460963996
 30
0.0
 11
3676.7590081202101828
 21
163.8008448365964114
 31
0.0
  0
LINE
  5
30610
  8
0
 10
3676.7726095267098572
 20
163.8008448365964114
 30
0.0
 11
3676.7726095265829827
 21
163.5055692460963996
 31
0.0
  0
LINE
  5
30611
  8
0
 10
3676.7980374867102
 20
163.5055692460963996
 30
0.0
 11
3676.7980374867102
 21
163.8008448365964114
 31
0.0
  0
LINE
  5
30612
  8
0
 10
3676.8094994882098945
 20
163.8008448365964114
 30
0.0
 11
3676.8094994882098945
 21
163.5055692460963996
 31
0.0
  0
LINE
  5
30613
  8
0
 10
3676.8349076401100319
 20
163.5055692460963996
 30
0.0
 11
3676.8349076401100319
 21
163.8008448365964114
 31
0.0
  0
LINE
  5
30614
  8
0
 10
3676.8441232190098162
 20
163.8008448365964114
 30
0.0
 11
3676.8441232190098162
 21
163.5055692460963996
 31
0.0
  0
LINE
  5
30615
  8
0
 10
3676.869274333910198
 20
163.5055692460963996
 30
0.0
 11
3676.869274333910198
 21
163.8008448365964114
 31
0.0
  0
LINE
  5
30616
  8
0
 10
3676.8761574469099287
 20
163.8008448365964114
 30
0.0
 11
3676.8761574469099287
 21
163.5055692460963996
 31
0.0
  0
LINE
  5
30617
  8
0
 10
3676.8817380429600234
 20
164.115805466596413
 30
0.0
 11
3676.8817380429600234
 21
164.0961204271964107
 31
0.0
  0
LINE
  5
30618
  8
0
 10
3676.9008166954099579
 20
163.5055692460963996
 30
0.0
 11
3676.9008166954099579
 21
163.8008448365964114
 31
0.0
  0
LINE
  5
30619
  8
0
 10
3676.9053030767099699
 20
163.8008448365964114
 30
0.0
 11
3676.9053030767099699
 21
163.5055692460963996
 31
0.0
  0
LINE
  5
3061A
  8
0
 10
3676.929240222109911
 20
163.5055692460963996
 30
0.0
 11
3676.929240222109911
 21
163.8008448365964114
 31
0.0
  0
LINE
  5
3061B
  8
0
 10
3676.9312879836102184
 20
163.8008448365964114
 30
0.0
 11
3676.9312879836102184
 21
163.5055692460963996
 31
0.0
  0
LINE
  5
3061C
  8
0
 10
3676.9542795313091119
 20
163.5055692460963996
 30
0.0
 11
3676.9542795313091119
 21
163.8008448365964114
 31
0.0
  0
LINE
  5
3061D
  8
0
 10
3676.9757008376100202
 20
163.5055692460963996
 30
0.0
 11
3676.9757008376100202
 21
163.8008448365964114
 31
0.0
  0
LINE
  5
3061E
  8
0
 10
3676.9933041360100106
 20
163.5055692460963996
 30
0.0
 11
3676.9933041360100106
 21
163.8008448365964114
 31
0.0
  0
LINE
  5
3061F
  8
0
 10
3677.0069250694100447
 20
163.5055692460963996
 30
0.0
 11
3677.0069250694100447
 21
163.8008448365964114
 31
0.0
  0
LINE
  5
30620
  8
0
 10
3677.0096907988099701
 20
164.025254285496402
 30
0.0
 11
3677.0096907989100146
 21
163.8008448365964114
 31
0.0
  0
LINE
  5
30621
  8
0
 10
3677.0096907989100146
 20
163.5055692460963996
 30
0.0
 11
3677.0096907989100146
 21
163.424860584596388
 31
0.0
  0
LINE
  5
30622
  8
0
 10
3677.0164364626098177
 20
163.5055692460963996
 30
0.0
 11
3677.0164364626098177
 21
163.8008448366963989
 31
0.0
  0
LINE
  5
30623
  8
0
 10
3677.0195333185588424
 20
164.0961204271964107
 30
0.0
 11
3677.0195333185588424
 21
164.115805466596413
 31
0.0
  0
LINE
  5
30624
  8
0
 10
3677.0217495105098351
 20
163.5055692460963996
 30
0.0
 11
3677.0217495105098351
 21
163.8008448366963989
 31
0.0
  0
LINE
  5
30625
  8
0
 10
3677.02281460651011
 20
163.5055692460963996
 30
0.0
 11
3677.02281460651011
 21
163.8008448365964114
 31
0.0
  0
LINE
  5
30626
  8
0
 10
3677.0589033972601101
 20
164.1650180649963886
 30
0.0
 11
3677.0589033972601101
 21
164.775254285496402
 31
0.0
  0
LINE
  5
30627
  8
0
 10
3677.0589033973101323
 20
164.7850968050964013
 30
0.0
 11
3677.0589033973101323
 21
166.4957267264964003
 31
0.0
  0
LINE
  5
30628
  8
0
 10
3677.0589033973101323
 20
166.5350968051963889
 30
0.0
 11
3677.0589033973101323
 21
167.190608616196414
 31
0.0
  0
LINE
  5
30629
  8
0
 10
3677.0589033973101323
 20
166.5350968051963889
 30
0.0
 11
3677.0589033973101323
 21
166.4957267264964003
 31
0.0
  0
LINE
  5
3062A
  8
0
 10
3677.0589033972601101
 20
164.1551755452964017
 30
0.0
 11
3677.0589033972601101
 21
164.115805466596413
 31
0.0
  0
LINE
  5
3062B
  8
0
 10
3677.0589033972601101
 20
164.0961204271964107
 30
0.0
 11
3677.0589033972601101
 21
164.0370653090963913
 31
0.0
  0
LINE
  5
3062C
  8
0
 10
3676.2341002477101028
 20
167.2142306634964086
 30
0.0
 11
3676.2301632398098263
 21
167.2102936555963879
 31
0.0
  0
ARC
  5
3062D
  8
0
 10
3676.9801632398098263
 20
163.424860584596388
 30
0.0
 40
0.0295275591
 50
270.0
 51
0.0
  0
ARC
  5
3062E
  8
0
 10
3676.1533915863101356
 20
163.424860584596388
 30
0.0
 40
0.0295275591
 50
180.0
 51
270.0
  0
ARC
  5
3062F
  8
0
 10
3676.8637846200599597
 20
164.0735176361964136
 30
0.0
 40
0.0292992653
 50
50.4988003152007821
 51
52.1575283034965125
  0
ARC
  5
30630
  8
0
 10
3676.9978967659590126
 20
164.0252807150733076
 30
0.0
 40
0.0117940624141512
 50
359.8716045050824732
 51
90.0825416542027142
  0
ARC
  5
30631
  8
0
 10
3676.1356748979451368
 20
164.0252544383112934
 30
0.0
 40
0.0118108707861043
 50
89.9992586789056901
 51
180.0007413339394873
  0
ARC
  5
30632
  8
0
 10
3676.0844939484600218
 20
164.1650180649963886
 30
0.0
 40
0.0098425197
 50
180.0
 51
262.4999999999882903
  0
ARC
  5
30633
  8
0
 10
3677.0490608775598957
 20
164.1650180649963886
 30
0.0
 40
0.0098425197
 50
277.5000000000117097
 51
0.0
  0
ARC
  5
30634
  8
0
 10
3676.4978797752601167
 20
164.1650180649963886
 30
0.0
 40
0.0098425197
 50
180.0
 51
269.999999999895806
  0
ARC
  5
30635
  8
0
 10
3676.6356750507598008
 20
164.1650180649963886
 30
0.0
 40
0.0098425197
 50
270.0
 51
0.0
  0
ARC
  5
30636
  8
0
 10
3676.5667063471241818
 20
165.5429714598147086
 30
0.0
 40
0.8915707077700711
 50
303.508184866946408
 51
56.4918151330536134
  0
ARC
  5
30637
  8
0
 10
3676.5667774129601639
 20
165.5429708208963859
 30
0.0
 40
0.8915305920999999
 50
123.5058720536938068
 51
236.4933932668089085
  0
ARC
  5
30638
  8
0
 10
3677.0392183579101584
 20
167.1906086162964016
 30
0.0
 40
0.0196850394
 50
0.0
 51
90.0
  0
ARC
  5
30639
  8
0
 10
3676.0943364682098036
 20
167.1906086162964016
 30
0.0
 40
0.0196850394
 50
90.0
 51
180.0
  0
ARC
  5
3063A
  8
0
 10
3676.4978797752601167
 20
164.775254285496402
 30
0.0
 40
0.0098425197
 50
90.0
 51
180.0
  0
ARC
  5
3063B
  8
0
 10
3676.6356750507598008
 20
164.775254285496402
 30
0.0
 40
0.0098425197
 50
0.0
 51
89.9999999998957776
  0
ARC
  5
3063C
  8
0
 10
3676.0844939484600218
 20
164.775254285496402
 30
0.0
 40
0.0098425197
 50
90.0
 51
180.0
  0
ARC
  5
3063D
  8
0
 10
3677.0490608775598957
 20
164.775254285496402
 30
0.0
 40
0.0098425197
 50
0.0
 51
90.0
  0
LINE
  5
3063E
  8
0
 10
3677.02281460651011
 20
163.5055692460963996
 30
0.0
 11
3676.1107402196098519
 21
163.5055692460963996
 31
0.0
  0
ARC
  5
3063F
  8
0
 10
3673.6140215073291984
 20
160.50360128279371
 30
0.0
 40
1.3777776083445019
 50
40.0112846179918975
 51
140.0483134337764
  0
ARC
  5
30640
  8
0
 10
3673.6140215076097775
 20
160.5036007421963973
 30
0.0
 40
1.3777779556999989
 50
219.9347871939953052
 51
319.9886981558292973
  0
ARC
  5
30641
  8
0
 10
3673.6140215076097775
 20
160.5036007421963973
 30
0.0
 40
1.240700628199999
 50
225.4661754895159049
 51
314.4409026576976203
  0
ARC
  5
30642
  8
0
 10
3673.6140215076097775
 20
160.5036007421963973
 30
0.0
 40
1.240700628199999
 50
45.5590973423024295
 51
134.4486268144200949
  0
ARC
  5
30643
  8
0
 10
3676.5670345362800617
 20
163.6962993282890864
 30
0.0
 40
0.409928408292851
 50
77.2503634755345985
 51
102.7496365244654015
  0
ARC
  5
30644
  8
0
 10
3676.1688724138080033
 20
164.0798842980580901
 30
0.0
 40
0.0314401776216053
 50
112.0111013136899061
 51
148.9080242672496013
  0
ARC
  5
30645
  8
0
 10
3676.192144838089007
 20
164.0223151436246098
 30
0.0
 40
0.0935353728794088
 50
91.7783370398118166
 51
112.0111013136899061
  0
ARC
  5
30646
  8
0
 10
3676.9646824122110047
 20
164.0798842980580901
 30
0.0
 40
0.0314401776216053
 50
31.0919757327503987
 51
67.9888986863100655
  0
ARC
  5
30647
  8
0
 10
3676.9414099879300011
 20
164.0223151436246098
 30
0.0
 40
0.0935353728794088
 50
67.9888986863100655
 51
88.2216629601881834
  0
LINE
  5
30648
  8
0
 10
3676.1533915862601134
 20
159.266340291496391
 30
0.0
 11
3676.3097774129601021
 21
159.266340291496391
 31
0.0
  0
LINE
  5
30649
  8
0
 10
3676.8241249878587951
 20
159.266340291496391
 30
0.0
 11
3676.9801632397598041
 21
159.266340291496391
 31
0.0
  0
LINE
  5
3064A
  8
0
 10
3676.1111397276590651
 20
159.3765765119964044
 30
0.0
 11
3676.3097774129601021
 21
159.3765765119964044
 31
0.0
  0
LINE
  5
3064B
  8
0
 10
3676.8241249878587951
 20
159.3765765119964044
 30
0.0
 11
3676.9483503210599338
 21
159.3765765119964044
 31
0.0
  0
LINE
  5
3064C
  8
0
 10
3676.9485553165600322
 20
159.3765765119964044
 30
0.0
 11
3677.0229478017599831
 21
159.3765765119964044
 31
0.0
  0
LINE
  5
3064D
  8
0
 10
3676.9679644677598844
 20
159.6718521024963877
 30
0.0
 11
3676.9485553165600322
 21
159.6718521024963877
 31
0.0
  0
LINE
  5
3064E
  8
0
 10
3676.9483503210599338
 20
159.6718521024963877
 30
0.0
 11
3676.8241249878587951
 21
159.6718521024963877
 31
0.0
  0
LINE
  5
3064F
  8
0
 10
3676.3097774129601021
 20
159.6718521024963877
 30
0.0
 11
3676.1649910499818361
 21
159.6718521024963877
 31
0.0
  0
LINE
  5
30650
  8
0
 10
3676.1111397276590651
 20
159.3765765119964044
 30
0.0
 11
3676.1111397276590651
 21
159.6446938094707093
 31
0.0
  0
LINE
  5
30651
  8
0
 10
3676.1153938939601176
 20
159.3765765119964044
 30
0.0
 11
3676.1153938939601176
 21
159.6469463465867022
 31
0.0
  0
LINE
  5
30652
  8
0
 10
3676.1364664963589348
 20
159.3765765119964044
 30
0.0
 11
3676.1364664963589348
 21
159.6578300638379062
 31
0.0
  0
LINE
  5
30653
  8
0
 10
3676.15308818315998
 20
159.3765765119964044
 30
0.0
 11
3676.15308818315998
 21
159.6660987875852982
 31
0.0
  0
LINE
  5
30654
  8
0
 10
3676.1735723748588498
 20
159.3765765119964044
 30
0.0
 11
3676.1735723748588498
 21
159.6718521024963877
 31
0.0
  0
LINE
  5
30655
  8
0
 10
3676.1962935919600568
 20
159.6718521024963877
 30
0.0
 11
3676.1962935919600568
 21
159.3765765119964044
 31
0.0
  0
LINE
  5
30656
  8
0
 10
3676.1977278160597962
 20
159.3765765119964044
 30
0.0
 11
3676.1977278160597962
 21
159.6718521024963877
 31
0.0
  0
LINE
  5
30657
  8
0
 10
3676.2214492049588443
 20
159.6718521024963877
 30
0.0
 11
3676.2214492049588443
 21
159.3765765119964044
 31
0.0
  0
LINE
  5
30658
  8
0
 10
3676.2253289739592219
 20
159.3765765119964044
 30
0.0
 11
3676.2253289739592219
 21
159.6718521024963877
 31
0.0
  0
LINE
  5
30659
  8
0
 10
3676.2498290543599069
 20
159.6718521024963877
 30
0.0
 11
3676.2498290543599069
 21
159.3765765119964044
 31
0.0
  0
LINE
  5
3065A
  8
0
 10
3676.2561181438600215
 20
159.3765765119964044
 30
0.0
 11
3676.2561181438600215
 21
159.6718521024963877
 31
0.0
  0
LINE
  5
3065B
  8
0
 10
3676.2811681651601248
 20
159.6718521024963877
 30
0.0
 11
3676.2811681651601248
 21
159.3765765119964044
 31
0.0
  0
LINE
  5
3065C
  8
0
 10
3676.2898078556600012
 20
159.3765765119964044
 30
0.0
 11
3676.2898078556600012
 21
159.6718521024963877
 31
0.0
  0
LINE
  5
3065D
  8
0
 10
3676.8259117293600866
 20
159.3765765119964044
 30
0.0
 11
3676.8259117293600866
 21
159.6718521024963877
 31
0.0
  0
LINE
  5
3065E
  8
0
 10
3676.8356978150600298
 20
159.6718521024963877
 30
0.0
 11
3676.8356978150600298
 21
159.3765765119964044
 31
0.0
  0
LINE
  5
3065F
  8
0
 10
3676.8609353358588123
 20
159.3765765119964044
 30
0.0
 11
3676.8609353358588123
 21
159.6718521024963877
 31
0.0
  0
LINE
  5
30660
  8
0
 10
3676.868408452759013
 20
159.6718521024963877
 30
0.0
 11
3676.868408452759013
 21
159.3765765119964044
 31
0.0
  0
LINE
  5
30661
  8
0
 10
3676.8932124690591081
 20
159.3765765119964044
 30
0.0
 11
3676.8932124690591081
 21
159.6718521024963877
 31
0.0
  0
LINE
  5
30662
  8
0
 10
3676.8983028427592217
 20
159.6718521024963877
 30
0.0
 11
3676.8983028427592217
 21
159.3765765119964044
 31
0.0
  0
LINE
  5
30663
  8
0
 10
3676.9224417661598636
 20
159.3765765119964044
 30
0.0
 11
3676.9224417661598636
 21
159.6718521024963877
 31
0.0
  0
LINE
  5
30664
  8
0
 10
3676.9251018691588797
 20
159.6718521024963877
 30
0.0
 11
3676.9251018691588797
 21
159.3765765119964044
 31
0.0
  0
LINE
  5
30665
  8
0
 10
3676.9483503210599338
 20
159.3765765119964044
 30
0.0
 11
3676.9483503210599338
 21
159.6718521024963877
 31
0.0
  0
LINE
  5
30666
  8
0
 10
3676.9485553165600322
 20
159.6718521024963877
 30
0.0
 11
3676.9485553165600322
 21
159.3765765119964044
 31
0.0
  0
LINE
  5
30667
  8
0
 10
3676.9706962324598862
 20
159.3765765119964044
 30
0.0
 11
3676.9706962324598862
 21
159.6705447759318872
 31
0.0
  0
LINE
  5
30668
  8
0
 10
3676.989270862658941
 20
159.3765765119964044
 30
0.0
 11
3676.989270862658941
 21
159.6614676427153086
 31
0.0
  0
LINE
  5
30669
  8
0
 10
3677.0039007853588373
 20
159.3765765119964044
 30
0.0
 11
3677.0039007853588373
 21
159.654084334192703
 31
0.0
  0
LINE
  5
3066A
  8
0
 10
3677.0096907987590384
 20
159.2958678505964087
 30
0.0
 11
3677.0096907987590384
 21
159.3765765119964044
 31
0.0
  0
LINE
  5
3066B
  8
0
 10
3677.0144494049600326
 20
159.3765765119964044
 30
0.0
 11
3677.0144494049600326
 21
159.6486306678501137
 31
0.0
  0
LINE
  5
3066C
  8
0
 10
3677.0208182317601313
 20
159.3765765119964044
 30
0.0
 11
3677.0208182317601313
 21
159.645284527846087
 31
0.0
  0
LINE
  5
3066D
  8
0
 10
3677.0229478017599831
 20
159.3765765119964044
 30
0.0
 11
3677.0229478017599831
 21
159.6441566194694985
 31
0.0
  0
ARC
  5
3066E
  8
0
 10
3676.153391586160069
 20
159.2958678505964087
 30
0.0
 40
0.0295275591
 50
180.0
 51
270.0
  0
ARC
  5
3066F
  8
0
 10
3676.9801632397598041
 20
159.2958678505964087
 30
0.0
 40
0.0295275591
 50
270.0
 51
0.0
  0
ARC
  5
30670
  8
0
 10
3680.1891127861581481
 20
161.324255131023989
 30
0.0
 40
0.0480473169911216
 50
214.2705269445617091
 51
325.1251288000747763
  0
ARC
  5
30671
  8
0
 10
3680.188766922888135
 20
161.2586755487637902
 30
0.0
 40
0.0550754433463807
 50
43.7808349435870383
 51
135.6148208010606027
  0
LINE
  5
30672
  8
0
 10
3676.9407931610548985
 20
197.3402149154964036
 30
0.0
 11
3676.1927616650091295
 21
197.3402149154964036
 31
0.0
  0
ARC
  5
30673
  8
0
 10
3676.2031947359100741
 20
197.324466883896406
 30
0.0
 40
0.0196850393999804
 50
53.130102741635433
 51
90.0
  0
ARC
  5
30674
  8
0
 10
3676.9303600902098879
 20
197.3244668838962923
 30
0.0
 40
0.0196850394001186
 50
90.0
 51
126.8698972577190034
  0
LINE
  5
30675
  8
0
 10
3676.9407931610098785
 20
197.5843094035963929
 30
0.0
 11
3676.1927616650091295
 21
197.5843094035963929
 31
0.0
  0
ARC
  5
30676
  8
0
 10
3676.2031947359100741
 20
197.600057435096204
 30
0.0
 40
0.0196850393997956
 50
270.0
 51
306.8698977442970772
  0
ARC
  5
30677
  8
0
 10
3676.9303600901098434
 20
197.600057435096204
 30
0.0
 40
0.0196850393997956
 50
233.1301022557018996
 51
270.0
  0
LINE
  5
30679
  8
0
 10
3678.3762637200638892
 20
195.272101762202908
 30
0.0
 11
3678.4043266342218885
 21
195.2879376621573897
 31
0.0
  0
LINE
  5
3067A
  8
0
 10
3678.3748900443870298
 20
194.5055496658318077
 30
0.0
 11
3678.4039169921938992
 21
194.4924073464829064
 31
0.0
  0
LINE
  5
3067B
  8
0
 10
3678.1805482185391156
 20
194.5883491271688968
 30
0.0
 11
3678.15281247828716
 21
194.6009358608440891
 31
0.0
  0
LINE
  5
3067C
  8
0
 10
3678.0571838216387732
 20
194.7508237280308947
 30
0.0
 11
3678.0571838216387732
 21
194.7601241544558945
 31
0.0
  0
LINE
  5
3067D
  8
0
 10
3678.0571838216387732
 20
194.9767483408421072
 30
0.0
 11
3678.0571838216387732
 21
194.9913937022921004
 31
0.0
  0
LINE
  5
3067E
  8
0
 10
3678.154186153964929
 20
195.1595998291930982
 30
0.0
 11
3678.1827222461201927
 21
195.1716394765267069
 31
0.0
  0
LINE
  5
3067F
  8
0
 10
3676.3097774129601021
 20
163.3953330255963863
 30
0.0
 11
3676.3097774129601021
 21
157.6020943415470867
 31
0.0
  0
LINE
  5
30680
  8
0
 10
3676.8241249878587951
 20
163.3953330256964023
 30
0.0
 11
3676.8241249878587951
 21
157.6020943415470867
 31
0.0
  0
ARC
  5
30681
  8
0
 10
3676.5669512004101307
 20
157.6373248917433045
 30
0.0
 40
0.2595757088375242
 50
187.8004643570174039
 51
352.1995356429825961
  0
LINE
  5
30682
  8
0
 10
3676.1238640270598808
 20
159.2958678505964087
 30
0.0
 11
3676.1238640270598808
 21
159.3765765119964044
 31
0.0
  0
ARC
  5
30683
  8
0
 10
4025.537837459063212
 20
296.256953282228892
 30
0.0
 40
364.0989336115218862
 50
197.7701820621147135
 51
198.2718993002264938
  0
ARC
  5
30684
  8
0
 10
1086.7394328577599936
 20
-674.0589754691486633
 30
0.0
 40
2730.7433991214088564
 50
18.1047114149200006
 51
18.2718993002265506
  0
ARC
  5
30685
  8
0
 10
6277.828802988427924
 20
1023.1230428249200486
 30
0.0
 40
2730.7431798151660587
 50
198.1047114149199899
 51
198.2718993001379033
  0
ARC
  5
30686
  8
0
 10
3671.3653876512439638
 20
162.5356117047188889
 30
0.0
 40
14.1178844453267001
 50
5.0907230223325008
 51
18.2718993001379708
  0
ARC
  5
30687
  8
0
 10
3553.5927633797459748
 20
161.4224943879420096
 30
0.0
 40
131.856046317283699
 50
0.2818169517207779
 51
1.028090241083023
  0
ARC
  5
30688
  8
0
 10
3680.8883715774218217
 20
160.6568508333214993
 30
0.0
 40
4.5609980288151073
 50
317.8898150299643817
 51
358.2386797272159811
  0
ARC
  5
30689
  8
0
 10
3680.8984547307868525
 20
160.6497237134086902
 30
0.0
 40
4.5487388623813176
 50
288.5637042778780028
 51
317.8712480291038105
  0
ARC
  5
3068A
  8
0
 10
3680.8941465083589719
 20
160.6661423397013095
 30
0.0
 40
4.5656749358597084
 50
251.9935545186837942
 51
288.549361138697293
  0
ARC
  5
3068B
  8
0
 10
3680.9026977952421475
 20
160.6924504241071077
 30
0.0
 40
4.5933379041107161
 50
218.257772386687094
 51
251.9935545186837942
  0
ARC
  5
3068C
  8
0
 10
3680.904415509926821
 20
160.6938049390446963
 30
0.0
 40
4.5955254265575149
 50
207.3915367278939925
 51
218.257772386687094
  0
ARC
  5
3068D
  8
0
 10
3680.9036852568351605
 20
160.6934435177034004
 30
0.0
 40
4.08002017418222
 50
197.9814640198702875
 51
243.79584678709179
  0
ARC
  5
3068E
  8
0
 10
3680.8940288841131405
 20
160.6738227674370023
 30
0.0
 40
4.0581519466550979
 50
243.79584678709179
 51
284.8953516677818243
  0
ARC
  5
3068F
  8
0
 10
3680.9016409751038736
 20
160.6452050831564122
 30
0.0
 40
4.0285391828049022
 50
284.8953516677818243
 51
327.3672555985355075
  0
ARC
  5
30690
  8
0
 10
3680.8561273511609215
 20
160.6743489226522001
 30
0.0
 40
4.082584102500955
 50
327.3672555985355075
 51
2.527519823938396
  0
ARC
  5
30691
  8
0
 10
-150628.1219339923118241
 20
162.4106298265942883
 30
0.0
 40
154313.0566815735946875
 50
359.9994221739632962
 51
0.0001926086593869
  0
ARC
  5
30692
  8
0
 10
3674.012928111788824
 20
163.0681546057847129
 30
0.0
 40
10.9227002461052791
 50
359.2720135613636216
 51
10.8014733530585101
  0
ARC
  5
30693
  8
0
 10
3624.6045426741511619
 20
149.070121297511605
 30
0.0
 40
62.2412162662437893
 50
14.9388316779562391
 51
19.2368725020243012
  0
ARC
  5
30694
  8
0
 10
3723.3659726345417766
 20
197.4763241470965909
 30
0.0
 40
46.7229758929946186
 50
195.1370501908029098
 51
199.7482424522451083
  0
ARC
  5
30695
  8
0
 10
3604.0786150228559563
 20
154.6519173031979903
 30
0.0
 40
80.0185070851922404
 50
16.62836826169044
 51
19.748242452245119
  0
ARC
  5
30696
  8
0
 10
3785.2977862472398556
 20
208.7734121774689129
 30
0.0
 40
109.1098203189228997
 50
196.6283682616904116
 51
199.7482440706945113
  0
ARC
  5
30697
  8
0
 10
3640.2173155868858885
 20
156.6892200474958088
 30
0.0
 40
45.0365582855115534
 50
16.628362725778981
 51
19.7482440706945113
  0
LINE
  5
30698
  8
0
 10
3678.2444749395590406
 20
185.8302760289184903
 30
0.0
 11
3678.2444749395590406
 21
185.5158077295538135
 31
0.0
  0
LINE
  5
30699
  8
0
 10
3678.7591604554600053
 20
185.8514403375864958
 30
0.0
 11
3678.7591604554600053
 21
185.5491882796328866
 31
0.0
  0
ARC
  5
3069A
  8
0
 10
3682.2671907249928154
 20
185.7235513393756037
 30
0.0
 40
4.0280764265084974
 50
182.9562783292147969
 51
186.384760406066988
  0
ARC
  5
3069B
  8
0
 10
3680.9013957808688247
 20
185.6041913973282078
 30
0.0
 40
2.14294132733164
 50
181.4707787822397052
 51
192.6733073598686019
  0
ARC
  5
3069C
  8
0
 10
3676.5817163401570724
 20
163.1629413554404948
 30
0.0
 40
0.9433393610307657
 50
92.4694883366251048
 51
98.4168048958690349
  0
ARC
  5
3069D
  8
0
 10
3676.5472241904258226
 20
163.1172520417530052
 30
0.0
 40
0.9892512748643232
 50
81.6914732860315667
 51
87.4958283247046751
  0
LINE
  5
3069E
  8
0
 10
3678.370010371466833
 20
187.4079959935696991
 30
0.0
 11
3678.6316252704677936
 21
187.4079959935696991
 31
0.0
  0
LINE
  5
3069F
  8
0
 10
3678.3978051443768891
 20
187.9375945311136888
 30
0.0
 11
3678.6038304975581923
 21
187.9375945311136888
 31
0.0
  0
LINE
  5
306A0
  8
0
 10
3678.4500620607600467
 20
187.7028414235963965
 30
0.0
 11
3678.5401619677240888
 21
187.7028414235963965
 31
0.0
  0
ARC
  5
306A1
  8
0
 10
3678.2460629243901167
 20
189.4285177108114055
 30
0.0
 40
1.486381515784081
 50
261.5925477554570762
 51
269.030772685569616
  0
ARC
  5
306A2
  8
0
 10
3678.0705893104241113
 20
179.056401359138107
 30
0.0
 40
8.8872190453444873
 50
87.8899670825058053
 51
89.0307726855695449
  0
LINE
  5
306A3
  8
0
 10
3678.0589033972601101
 20
187.9539664835328949
 30
0.0
 11
3678.0589033972601101
 21
187.7260666636277051
 31
0.0
  0
ARC
  5
306A4
  8
0
 10
3678.6140817857331058
 20
195.8340634138581891
 30
0.0
 40
8.4296015935813191
 50
266.6959715382612899
 51
268.3408211592105204
  0
ARC
  5
306A5
  8
0
 10
3678.1389855966081086
 20
187.985378754524703
 30
0.0
 40
0.271396240095219
 50
252.8379754545159983
 51
268.0315723235424912
  0
ARC
  5
306A6
  8
0
 10
3678.3830748797308843
 20
191.2495615881834965
 30
0.0
 40
3.5444892886147921
 50
265.9001703448104195
 51
268.7921231066123937
  0
ARC
  5
306A7
  8
0
 10
3679.1299231615239478
 20
225.4957934056064062
 30
0.0
 40
37.7988630018364375
 50
268.7545670046566215
 51
268.9867067961291127
  0
LINE
  5
306A8
  8
0
 10
3678.0456579921587945
 20
187.7265418314964052
 30
0.0
 11
3678.0456579921587945
 21
187.4316709058963966
 31
0.0
  0
ARC
  5
306A9
  8
0
 10
3678.1401156730398725
 20
187.7577743587316093
 30
0.0
 40
0.3395080491362254
 50
253.8460462363150896
 51
267.9968352652784915
  0
LINE
  5
306AA
  8
0
 10
3678.0589033972601101
 20
187.7314286678964095
 30
0.0
 11
3678.0535312113602231
 21
187.731131741496398
 31
0.0
  0
LINE
  5
306AB
  8
0
 10
3678.0535312113602231
 20
187.731131741496398
 30
0.0
 11
3678.0536568842680936
 21
187.7292624605919116
 31
0.0
  0
LINE
  5
306AC
  8
0
 10
3678.0536568842680936
 20
187.7292624605919116
 30
0.0
 11
3678.0474735616589896
 21
187.7288467519964001
 31
0.0
  0
LINE
  5
306AD
  8
0
 10
3678.0474735616589896
 20
187.7288467519964001
 30
0.0
 11
3678.0474735616589896
 21
187.7265418314964052
 31
0.0
  0
LINE
  5
306AE
  8
0
 10
3678.0474735616589896
 20
187.7265418314964052
 30
0.0
 11
3678.0456579921587945
 21
187.7265418314964052
 31
0.0
  0
ARC
  5
306AF
  8
0
 10
3678.0324894824811963
 20
187.9954209187899039
 30
0.0
 40
0.0374993318342075
 50
186.5196228994994101
 51
264.2562371981771889
  0
LINE
  5
306B0
  8
0
 10
3678.0589033972601101
 20
187.4281226005217036
 30
0.0
 11
3678.0589033972601101
 21
187.3489277510647923
 31
0.0
  0
ARC
  5
306B1
  8
0
 10
3678.0901814807020855
 20
187.3516547334280915
 30
0.0
 40
0.0313967344897398
 50
184.9827379021434126
 51
219.3718753256914056
  0
ARC
  5
306B2
  8
0
 10
3678.0930869814937978
 20
187.3540389511422859
 30
0.0
 40
0.0351552486860783
 50
219.371875325692713
 51
248.8131552135330082
  0
ARC
  5
306B3
  8
0
 10
3678.1467157612310075
 20
187.543786307304913
 30
0.0
 40
0.2322029491878505
 50
253.4008820754521025
 51
265.0219251552055084
  0
ARC
  5
306B4
  8
0
 10
3678.3143254094920849
 20
189.2826905847487069
 30
0.0
 40
1.9791576496630841
 50
264.556271108009696
 51
267.9772039979184797
  0
ARC
  5
306B5
  8
0
 10
3678.6413126578318042
 20
198.3173820942805889
 30
0.0
 40
11.0197638332566896
 50
267.9362073699159055
 51
268.7890981207536925
  0
LINE
  5
306B6
  8
0
 10
3678.4728852876601195
 20
187.7028414235963965
 30
0.0
 11
3678.4728852876601195
 21
187.4079959935696991
 31
0.0
  0
LINE
  5
306B7
  8
0
 10
3678.4500620607600467
 20
187.7030449858993109
 30
0.0
 11
3678.4500620607600467
 21
187.4079959935696991
 31
0.0
  0
LINE
  5
306B8
  8
0
 10
3678.430364337958963
 20
187.7034044670386095
 30
0.0
 11
3678.430364337958963
 21
187.4079959935696991
 31
0.0
  0
LINE
  5
306B9
  8
0
 10
3678.4065611518590231
 20
187.703852576448412
 30
0.0
 11
3678.4065611518590231
 21
187.4079959935696991
 31
0.0
  0
LINE
  5
306BA
  8
0
 10
3678.3885105204599313
 20
187.7042023895182012
 30
0.0
 11
3678.3885105204599313
 21
187.4079959935696991
 31
0.0
  0
LINE
  5
306BB
  8
0
 10
3678.3639496192599836
 20
187.7046922207487114
 30
0.0
 11
3678.3639496192599836
 21
187.4081737322991046
 31
0.0
  0
LINE
  5
306BC
  8
0
 10
3678.3458989878599823
 20
187.7050623948582881
 30
0.0
 11
3678.3458989878599823
 21
187.4087289389881903
 31
0.0
  0
LINE
  5
306BD
  8
0
 10
3678.3226253150601224
 20
187.7055524111551961
 30
0.0
 11
3678.3226253150601224
 21
187.409501932557788
 31
0.0
  0
LINE
  5
306BE
  8
0
 10
3678.30835751595896
 20
187.7058599031292943
 30
0.0
 11
3678.30835751595896
 21
187.4100076390321874
 31
0.0
  0
LINE
  5
306BF
  8
0
 10
3678.2829740734600819
 20
187.706486067440494
 30
0.0
 11
3678.2829740734600819
 21
187.4109671476755068
 31
0.0
  0
LINE
  5
306C0
  8
0
 10
3678.2708066960599353
 20
187.7068507374310116
 30
0.0
 11
3678.2708066960599353
 21
187.4114542433387101
 31
0.0
  0
LINE
  5
306C1
  8
0
 10
3678.2453661071590432
 20
187.7077484069073989
 30
0.0
 11
3678.2453661071590432
 21
187.412529600182495
 31
0.0
  0
LINE
  5
306C2
  8
0
 10
3678.2354127550602243
 20
187.7081494102463068
 30
0.0
 11
3678.2354127550602243
 21
187.4129712761532005
 31
0.0
  0
LINE
  5
306C3
  8
0
 10
3678.2025061566600925
 20
187.7096746897991864
 30
0.0
 11
3678.2025061566600925
 21
187.4145154136350868
 31
0.0
  0
LINE
  5
306C4
  8
0
 10
3678.2101525517600749
 20
187.7092929280966018
 30
0.0
 11
3678.2101525517600749
 21
187.4141451125651088
 31
0.0
  0
LINE
  5
306C5
  8
0
 10
3678.1723941409600229
 20
187.7113391611142958
 30
0.0
 11
3678.1723941409600229
 21
187.4160413747468965
 31
0.0
  0
LINE
  5
306C6
  8
0
 10
3678.1776621867588801
 20
187.711029414715199
 30
0.0
 11
3678.1776621867588801
 21
187.4157666169913057
 31
0.0
  0
LINE
  5
306C7
  8
0
 10
3678.1453578556588582
 20
187.713052725820603
 30
0.0
 11
3678.1453578556588582
 21
187.4175034928522052
 31
0.0
  0
LINE
  5
306C8
  8
0
 10
3678.1216497313589571
 20
187.7145367583092934
 30
0.0
 11
3678.1216497313589571
 21
187.4187688655221962
 31
0.0
  0
LINE
  5
306C9
  8
0
 10
3678.0994199128599575
 20
187.7168820584419109
 30
0.0
 11
3678.0994199128599575
 21
187.4207141704393109
 31
0.0
  0
LINE
  5
306CA
  8
0
 10
3678.0805607121587855
 20
187.7203458282399993
 30
0.0
 11
3678.0805607121587855
 21
187.4235305524121884
 31
0.0
  0
LINE
  5
306CB
  8
0
 10
3678.065634665860216
 20
187.7240828301474096
 30
0.0
 11
3678.065634665860216
 21
187.4265368382154122
 31
0.0
  0
LINE
  5
306CC
  8
0
 10
3678.0547811343599278
 20
187.7312008260634002
 30
0.0
 11
3678.0547811343599278
 21
187.4291655762309858
 31
0.0
  0
ARC
  5
306CD
  8
0
 10
3678.7555727175440552
 20
189.4285177108114055
 30
0.0
 40
1.486381515784081
 50
270.969227314430384
 51
278.4074522445429238
  0
ARC
  5
306CE
  8
0
 10
3678.93104633151097
 20
179.056401359138107
 30
0.0
 40
8.8872190453444873
 50
90.9692273144304693
 51
92.1100329174941947
  0
LINE
  5
306CF
  8
0
 10
3678.9447301688592233
 20
187.9539664835328949
 30
0.0
 11
3678.9447301688592233
 21
187.7260666636277051
 31
0.0
  0
ARC
  5
306D0
  8
0
 10
3678.3875538562019756
 20
195.8340634138581891
 30
0.0
 40
8.4296015935813191
 50
271.6591788407894796
 51
273.3040284617385964
  0
ARC
  5
306D1
  8
0
 10
3678.8653849115339654
 20
187.9822766612182932
 30
0.0
 40
0.268214900267583
 50
271.4073060305738068
 51
287.207145269347393
  0
ARC
  5
306D2
  8
0
 10
3678.6185607622028328
 20
191.2495615881834965
 30
0.0
 40
3.5444892886147921
 50
271.2078768933876063
 51
274.0998296551896942
  0
ARC
  5
306D3
  8
0
 10
3677.8717124804111336
 20
225.4957934056064062
 30
0.0
 40
37.7988630018364375
 50
271.0132932038708873
 51
271.2454329953433785
  0
LINE
  5
306D4
  8
0
 10
3678.9576000406600542
 20
187.7265418314964052
 30
0.0
 11
3678.9576000406600542
 21
187.4308577804964102
 31
0.0
  0
ARC
  5
306D5
  8
0
 10
3678.8518514194420277
 20
187.8574409956682132
 30
0.0
 40
0.4394951767149093
 50
272.808707564449719
 51
283.9227723942673833
  0
LINE
  5
306D6
  8
0
 10
3678.9447301688592233
 20
187.7313182405123086
 30
0.0
 11
3678.9481044305748583
 21
187.731131741496398
 31
0.0
  0
LINE
  5
306D7
  8
0
 10
3678.9481044305748583
 20
187.731131741496398
 30
0.0
 11
3678.9479787576660783
 21
187.7292624605919116
 31
0.0
  0
LINE
  5
306D8
  8
0
 10
3678.9479787576660783
 20
187.7292624605919116
 30
0.0
 11
3678.9541620802751822
 21
187.7288467519964001
 31
0.0
  0
LINE
  5
306D9
  8
0
 10
3678.9541620802751822
 20
187.7288467519964001
 30
0.0
 11
3678.9541620802751822
 21
187.7265418314964052
 31
0.0
  0
LINE
  5
306DA
  8
0
 10
3678.9541620802751822
 20
187.7265418314964052
 30
0.0
 11
3678.9576000406600542
 21
187.7265418314964052
 31
0.0
  0
ARC
  5
306DB
  8
0
 10
3678.969146159453885
 20
187.9954209187899039
 30
0.0
 40
0.0374993318342075
 50
275.7437628018228111
 51
353.4803771005005046
  0
LINE
  5
306DC
  8
0
 10
3678.9447301688592233
 20
187.427871969477593
 30
0.0
 11
3678.9447301688592233
 21
187.3489277510647923
 31
0.0
  0
ARC
  5
306DD
  8
0
 10
3678.9128997412622084
 20
187.3518047325771079
 30
0.0
 40
0.0319601805953564
 50
315.591745461143887
 51
354.8353754262212192
  0
ARC
  5
306DE
  8
0
 10
3678.9081314022000697
 20
187.3576006504447093
 30
0.0
 40
0.0394305277037455
 50
285.986055829968393
 51
314.4237968106622816
  0
ARC
  5
306DF
  8
0
 10
3678.8306972576319822
 20
187.7187230623748064
 30
0.0
 40
0.4086797849880868
 50
276.2331088734189279
 51
282.4768742422384094
  0
ARC
  5
306E0
  8
0
 10
3678.6873102324429965
 20
189.2826905847487069
 30
0.0
 40
1.9791576496630841
 50
272.0227960020815203
 51
275.4437288919901903
  0
ARC
  5
306E1
  8
0
 10
3678.3603229841041866
 20
198.317382094247904
 30
0.0
 40
11.0197638332239691
 50
271.2109018792463075
 51
272.0637926300839808
  0
LINE
  5
306E2
  8
0
 10
3678.4940461894589134
 20
187.7028414235963965
 30
0.0
 11
3678.4940461894589134
 21
187.4079959935696991
 31
0.0
  0
LINE
  5
306E3
  8
0
 10
3678.5168694163589862
 20
187.7028414235963965
 30
0.0
 11
3678.5168694163589862
 21
187.4079959935696991
 31
0.0
  0
LINE
  5
306E4
  8
0
 10
3678.5365671391600699
 20
187.7028414235963965
 30
0.0
 11
3678.5365671391600699
 21
187.4079959935696991
 31
0.0
  0
LINE
  5
306E5
  8
0
 10
3678.5603703252600098
 20
187.7032042563521088
 30
0.0
 11
3678.5603703252600098
 21
187.4079959935696991
 31
0.0
  0
LINE
  5
306E6
  8
0
 10
3678.5784209566600111
 20
187.7035374877440006
 30
0.0
 11
3678.5784209566600111
 21
187.4079959935696991
 31
0.0
  0
LINE
  5
306E7
  8
0
 10
3678.6029818578599588
 20
187.7040047560967082
 30
0.0
 11
3678.6029818578599588
 21
187.4081737322991046
 31
0.0
  0
LINE
  5
306E8
  8
0
 10
3678.6210324892590506
 20
187.7043583474356012
 30
0.0
 11
3678.6210324892590506
 21
187.4087289389881903
 31
0.0
  0
LINE
  5
306E9
  8
0
 10
3678.6443061620589106
 20
187.7048269819399877
 30
0.0
 11
3678.6443061620589106
 21
187.409501932557788
 31
0.0
  0
LINE
  5
306EA
  8
0
 10
3678.6585739611600729
 20
187.7051213655153958
 30
0.0
 11
3678.6585739611600729
 21
187.4100076390321874
 31
0.0
  0
LINE
  5
306EB
  8
0
 10
3678.6839574036598606
 20
187.7056584175402065
 30
0.0
 11
3678.6839574036598606
 21
187.4109671476755068
 31
0.0
  0
LINE
  5
306EC
  8
0
 10
3678.6961247810600071
 20
187.7059210674642031
 30
0.0
 11
3678.6961247810600071
 21
187.4114542433387101
 31
0.0
  0
LINE
  5
306ED
  8
0
 10
3678.7215653699599898
 20
187.7065692980584117
 30
0.0
 11
3678.7215653699599898
 21
187.412529600182495
 31
0.0
  0
LINE
  5
306EE
  8
0
 10
3678.7315187220588086
 20
187.7068726635939129
 30
0.0
 11
3678.7315187220588086
 21
187.4129712761532005
 31
0.0
  0
LINE
  5
306EF
  8
0
 10
3678.7644253204598499
 20
187.708074916212297
 30
0.0
 11
3678.7644253204598499
 21
187.4145154136350868
 31
0.0
  0
LINE
  5
306F0
  8
0
 10
3678.7567789253598676
 20
187.7077682491421058
 30
0.0
 11
3678.7567789253598676
 21
187.4141451125651088
 31
0.0
  0
LINE
  5
306F1
  8
0
 10
3678.8292415009750584
 20
187.7113391611142958
 30
0.0
 11
3678.8292415009750584
 21
187.4160413747468965
 31
0.0
  0
LINE
  5
306F2
  8
0
 10
3678.823973455174837
 20
187.711029414715199
 30
0.0
 11
3678.823973455174837
 21
187.4157666169913057
 31
0.0
  0
LINE
  5
306F3
  8
0
 10
3678.856277786274859
 20
187.713052725820603
 30
0.0
 11
3678.856277786274859
 21
187.4175034928522052
 31
0.0
  0
LINE
  5
306F4
  8
0
 10
3678.9168662542588208
 20
187.7190488054039008
 30
0.0
 11
3678.9168662542588208
 21
187.4227812648333895
 31
0.0
  0
LINE
  5
306F5
  8
0
 10
3678.9360009760748653
 20
187.723524648367686
 30
0.0
 11
3678.9360009760739558
 21
187.4260770397397096
 31
0.0
  0
LINE
  5
306F6
  8
0
 10
3678.9468545075751535
 20
187.7312008260634002
 30
0.0
 11
3678.9468545075751535
 21
187.4283367850142099
 31
0.0
  0
LINE
  5
306F7
  8
0
 10
3678.7898327290599809
 20
187.7092127027665072
 30
0.0
 11
3678.7898327290599809
 21
187.4140661018064122
 31
0.0
  0
LINE
  5
306F8
  8
0
 10
3678.7813639492587754
 20
187.7088131589119939
 30
0.0
 11
3678.7813639492587754
 21
187.4136657607118082
 31
0.0
  0
LINE
  5
306F9
  8
0
 10
3678.7452677199598838
 20
187.7073377578813052
 30
0.0
 11
3678.7452677199598838
 21
187.4120551130914976
 31
0.0
  0
LINE
  5
306FA
  8
0
 10
3678.7068984548600383
 20
187.7061732706036992
 30
0.0
 11
3678.7068984548600383
 21
187.4105129715674991
 31
0.0
  0
LINE
  5
306FB
  8
0
 10
3678.6666143974589431
 20
187.705289635824812
 30
0.0
 11
3678.6666143974589431
 21
187.4090822126435114
 31
0.0
  0
LINE
  5
306FC
  8
0
 10
3678.8148501219588979
 20
187.7105116020501043
 30
0.0
 11
3678.8148501219588979
 21
187.4152986037582025
 31
0.0
  0
LINE
  5
306FD
  8
0
 10
3678.8454135867600598
 20
187.7123392156013892
 30
0.0
 11
3678.8454135867600598
 21
187.4169054912788113
 31
0.0
  0
LINE
  5
306FE
  8
0
 10
3678.8727689807601564
 20
187.7141634234862124
 30
0.0
 11
3678.8727689807601564
 21
187.4184381067636878
 31
0.0
  0
LINE
  5
306FF
  8
0
 10
3678.8966608940600054
 20
187.7158771927487066
 30
0.0
 11
3678.8966608940600054
 21
187.4202360993778882
 31
0.0
  0
LINE
  5
30700
  8
0
 10
3678.9536588286591723
 20
187.4299000481740904
 30
0.0
 11
3678.9536588286591723
 21
187.7288805859130889
 31
0.0
  0
LINE
  5
30701
  8
0
 10
3675.7793758382740634
 20
187.2977520538424017
 30
0.0
 11
3675.7780615904739534
 21
187.2977618649971987
 31
0.0
  0
ARC
  5
30702
  8
0
 10
3675.7597177833299611
 20
187.2907714481152084
 30
0.0
 40
0.0196033614537006
 50
20.8604022559534812
 51
90.0788692537713445
  0
LINE
  5
30703
  8
0
 10
3675.7793758381599218
 20
185.7249174087963866
 30
0.0
 11
3675.7780615904739534
 21
185.7249075966956013
 31
0.0
  0
ARC
  5
30704
  8
0
 10
3675.7597139889680875
 20
185.7319032080928878
 30
0.0
 40
0.0196087571384456
 50
269.4302912672677053
 51
339.1293625209968923
  0
ARC
  5
30705
  8
0
 10
3678.0138119830849064
 20
185.7897428458392142
 30
0.0
 40
0.0600994964902675
 50
272.4522376920722877
 51
292.0854009167259733
  0
ARC
  5
30706
  8
0
 10
3679.6619785866651
 20
182.4920887858802985
 30
0.0
 40
3.6266803910933421
 50
113.0076672579946973
 51
116.6298778885945069
  0
ARC
  5
30707
  8
0
 10
3678.512501958788107
 20
185.2036680039225018
 30
0.0
 40
0.6815248344893829
 50
86.0509495533205069
 51
113.1584646606061
  0
ARC
  5
30708
  8
0
 10
3678.4940252139349468
 20
185.1791439984619956
 30
0.0
 40
0.707461266254067
 50
71.7579585522237124
 51
84.6947683527664026
  0
LINE
  5
30709
  8
0
 10
3678.7591662056897803
 20
187.3048377789693859
 30
0.0
 11
3678.7591662056897803
 21
187.1740909413184113
 31
0.0
  0
LINE
  5
3070A
  8
0
 10
3678.9962805097488854
 20
187.171443540720901
 30
0.0
 11
3678.6575108582310349
 21
187.1750989333482948
 31
0.0
  0
ARC
  5
3070B
  8
0
 10
3678.5084105166802146
 20
187.7432772816152919
 30
0.0
 40
0.5874151643141921
 50
265.2261618211759924
 51
284.7036528378724256
  0
ARC
  5
3070C
  8
0
 10
3678.5109658110418422
 20
187.7738750163107113
 30
0.0
 40
0.6181194131695913
 50
244.957866139258698
 51
265.2261618211761061
  0
LINE
  5
3070D
  8
0
 10
3678.2444676551531302
 20
187.3047661937825978
 30
0.0
 11
3678.2444676551531302
 21
187.2316481958837073
 31
0.0
  0
ARC
  5
3070E
  8
0
 10
3678.2871466951719412
 20
187.2337468017871913
 30
0.0
 40
0.0427306050000448
 50
182.8150701652982093
 51
207.7348203409061966
  0
ARC
  5
3070F
  8
0
 10
3678.1070915486038757
 20
187.2131753730213006
 30
0.0
 40
0.0793121936340181
 50
68.9081505788361142
 51
84.7400303728275333
  0
ARC
  5
30710
  8
0
 10
3680.5621686275471802
 20
193.5783521758692984
 30
0.0
 40
6.7429219855086053
 50
248.9081505788361142
 51
249.8961050151052916
  0
LINE
  5
30711
  8
0
 10
3678.4084358295672246
 20
187.300079188232786
 30
0.0
 11
3678.5931998123669473
 21
187.300079188232786
 31
0.0
  0
ARC
  5
30712
  8
0
 10
3678.4870751392259081
 20
187.7791719383924089
 30
0.0
 40
0.6132712300601231
 50
232.5733548957288974
 51
247.1901072591755906
  0
ARC
  5
30713
  8
0
 10
3678.993387731869916
 20
187.1467574834790923
 30
0.0
 40
0.0248549710522011
 50
3.86858091176203
 51
83.3164093862099691
  0
LINE
  5
30714
  8
0
 10
3672.4525625259448134
 20
161.3799194070028875
 30
0.0
 11
3672.4525625259448134
 21
159.6270839945572959
 31
0.0
  0
LINE
  5
30715
  8
0
 10
3672.4211081216599268
 20
159.6768290887121111
 30
0.0
 11
3672.4447301688592233
 21
159.6768290885964063
 31
0.0
  0
ARC
  5
30716
  8
0
 10
3683.5911654144038039
 20
160.5242527545460973
 30
0.0
 40
12.9147601614417393
 50
177.4870673463861976
 51
182.512926937626105
  0
LINE
  5
30717
  8
0
 10
3672.4211081216599268
 20
161.3303723956964006
 30
0.0
 11
3672.4447301688592233
 21
161.3303723957963882
 31
0.0
  0
ARC
  5
30718
  8
0
 10
3672.4447301688592233
 20
161.3382464114964137
 30
0.0
 40
0.0078740157000047
 50
270.0000218172413042
 51
354.1036457667589161
  0
ARC
  5
30719
  8
0
 10
3672.4447413708421664
 20
159.6689674913513102
 30
0.0
 40
0.0078616052259237
 50
5.8147135595261119
 51
90.0816406443857858
  0
ARC
  5
3071A
  8
0
 10
3677.8763436417048069
 20
192.854210607674986
 30
0.0
 40
0.3169501764142856
 50
60.8614308309707184
 51
79.8522546987590829
  0
ARC
  5
3071B
  8
0
 10
3678.4908698128160722
 20
192.6334118905355979
 30
0.0
 40
0.3933781291395472
 50
233.7817374942981132
 51
271.1843581306299029
  0
ARC
  5
3071C
  8
0
 10
3678.4917145307817918
 20
195.473716678784001
 30
0.0
 40
2.269788337528897
 50
245.0006115009587973
 51
268.7291283160727744
  0
ARC
  5
3071D
  8
0
 10
3678.3751109133218051
 20
195.2236524463152136
 30
0.0
 40
1.9938743582436309
 50
219.4563359303502921
 51
245.0006115009587973
  0
ARC
  5
3071E
  8
0
 10
3678.0718449343457905
 20
194.974047183774303
 30
0.0
 40
1.6010982883365801
 50
183.6250564592039041
 51
219.4563359303502921
  0
ARC
  5
3071F
  8
0
 10
3677.9907410518658253
 20
194.9689089504566937
 30
0.0
 40
1.5198318057310509
 50
146.7171255192914998
 51
183.6250564592039041
  0
ARC
  5
30720
  8
0
 10
3678.3850333556561054
 20
194.7100759886589003
 30
0.0
 40
1.991489438916205
 50
115.656867236757904
 51
146.7171255192914998
  0
ARC
  5
30721
  8
0
 10
3678.4487236306090381
 20
194.5774820193491053
 30
0.0
 40
2.1385867258414408
 50
96.7478800295909451
 51
115.656867236757904
  0
ARC
  5
30722
  8
0
 10
3678.5227607204919877
 20
193.9517474517301991
 30
0.0
 40
2.7686861146617092
 50
90.5017317303424988
 51
96.7478800295909451
  0
ARC
  5
30723
  8
0
 10
3690.7651222811168736
 20
192.7106847420120062
 30
0.0
 40
11.9186598782161006
 50
179.156951230170705
 51
180.5599048103727
  0
ARC
  5
30724
  8
0
 10
3679.1725568512351856
 20
192.8800188261006952
 30
0.0
 40
0.3248602475575164
 50
129.4000567922429923
 51
178.9363411236778063
  0
ARC
  5
30725
  8
0
 10
3678.5603478622160765
 20
195.3692650541231046
 30
0.0
 40
2.2600891871632811
 50
282.8983670979976068
 51
309.7367670906864987
  0
ARC
  5
30726
  8
0
 10
3678.9055197367338224
 20
194.9976268911709951
 30
0.0
 40
1.7538695670691991
 50
308.8266052975649814
 51
358.0201792311747226
  0
ARC
  5
30727
  8
0
 10
3678.7957149010649118
 20
195.2997276812394034
 30
0.0
 40
1.8626312938957801
 50
354.2553062705603111
 51
54.6927407585878385
  0
ARC
  5
30728
  8
0
 10
3678.8395582847019796
 20
194.9378504368148128
 30
0.0
 40
1.8187842407134731
 50
359.9743136722648273
 51
64.1588245987476995
  0
ARC
  5
30729
  8
0
 10
3678.461243967271912
 20
192.5843833422518117
 30
0.0
 40
0.3859127854608432
 50
315.9462358618010853
 51
1.4598876881064879
  0
ARC
  5
3072A
  8
0
 10
3678.5017991273562075
 20
194.4175973591150068
 30
0.0
 40
2.4354612365979058
 50
62.3419099037333169
 51
90.1125345477782247
  0
ARC
  5
3072B
  8
0
 10
3679.3811720520320705
 20
194.005750236853288
 30
0.0
 40
0.0192984899190496
 50
99.3118873504307942
 51
189.7556834185052139
  0
ARC
  5
3072C
  8
0
 10
3679.3836735004529146
 20
194.0013046253963864
 30
0.0
 40
0.0241536911818787
 50
22.4230776510615613
 51
103.464732091449406
  0
ARC
  5
3072D
  8
0
 10
3679.3875476434668599
 20
194.004451686539312
 30
0.0
 40
0.0194248467807419
 50
281.1623326051868048
 51
18.1973016530019116
  0
ARC
  5
3072E
  8
0
 10
3679.3843443159030357
 20
194.0069297561074109
 30
0.0
 40
0.0226333759500226
 50
191.3378806680146056
 51
287.9192992649084886
  0
ARC
  5
3072F
  8
0
 10
3679.3835307182698671
 20
194.0059552219663885
 30
0.0
 40
0.0522847693122655
 50
96.3316742982766812
 51
182.3667374927979097
  0
ARC
  5
30730
  8
0
 10
3679.3869803222428345
 20
194.0048635058041953
 30
0.0
 40
0.0538519689245516
 50
9.2879466961371122
 51
99.8536107418127017
  0
ARC
  5
30731
  8
0
 10
3679.3861370912409257
 20
194.0141443255238016
 30
0.0
 40
0.0539924002082997
 50
267.4134231027136934
 51
359.3746159997677978
  0
ARC
  5
30732
  8
0
 10
3679.3822592691599311
 20
194.0117765021086882
 30
0.0
 40
0.0515897022303617
 50
188.8988186660695874
 51
271.6008140400850834
  0
LINE
  5
30733
  8
0
 10
3679.3312625839289467
 20
194.0046364215249923
 30
0.0
 11
3679.3298566744770142
 21
194.0603569549882081
 31
0.0
  0
LINE
  5
30734
  8
0
 10
3679.4401262752221555
 20
194.0135550096433974
 30
0.0
 11
3679.4409329220679865
 21
194.0615434773928882
 31
0.0
  0
ARC
  5
30735
  8
0
 10
3679.3672733299467836
 20
194.0335435364411865
 30
0.0
 40
0.0466869474058104
 50
158.2133840497203039
 51
219.5809946408471092
  0
ARC
  5
30736
  8
0
 10
3679.3881590237579076
 20
194.017274402078101
 30
0.0
 40
0.0724932431122075
 50
92.6133845199988741
 51
152.3900050833823059
  0
ARC
  5
30737
  8
0
 10
3679.3863030768120552
 20
194.0226436315168996
 30
0.0
 40
0.0670642826098466
 50
33.3864235002422731
 51
91.2384472238465349
  0
ARC
  5
30738
  8
0
 10
3679.4070822160319949
 20
194.038164811419108
 30
0.0
 40
0.0412013615210623
 50
323.3228355864023911
 51
31.2646143211150083
  0
LINE
  5
30739
  8
0
 10
3678.9403329154720268
 20
193.462460162111114
 30
0.0
 11
3678.9403329154720268
 21
193.747176339499191
 31
0.0
  0
LINE
  5
3073A
  8
0
 10
3678.9403329154720268
 20
193.8765998131709125
 30
0.0
 11
3678.9403329154720268
 21
194.1574938092383888
 31
0.0
  0
LINE
  5
3073B
  8
0
 10
3678.9403329154720268
 20
194.2869506218960112
 30
0.0
 11
3678.9403329154720268
 21
194.5344529466032952
 31
0.0
  0
LINE
  5
3073C
  8
0
 10
3678.9398481866810471
 20
195.2080178886781141
 30
0.0
 11
3678.9398481866810471
 21
195.4976798414438122
 31
0.0
  0
LINE
  5
3073D
  8
0
 10
3678.9398481866810471
 20
195.62707740613331
 30
0.0
 11
3678.9398481866810471
 21
195.9583977913256945
 31
0.0
  0
LINE
  5
3073E
  8
0
 10
3678.9398481866810471
 20
196.0878250642215903
 30
0.0
 11
3678.9398481866810471
 21
196.4131828546071858
 31
0.0
  0
LINE
  5
3073F
  8
0
 10
3678.9398481866810471
 20
196.5898878232937932
 30
0.0
 11
3678.9398481866810471
 21
196.6799210224922092
 31
0.0
  0
LINE
  5
30740
  8
0
 10
3679.3843975081131248
 20
196.352917125308494
 30
0.0
 11
3679.3843929914200999
 21
196.5458609723617087
 31
0.0
  0
LINE
  5
30741
  8
0
 10
3679.3844008382570792
 20
196.1946526801010009
 30
0.0
 11
3679.3844089703161444
 21
195.8472677896122889
 31
0.0
  0
LINE
  5
30742
  8
0
 10
3679.3844120014009604
 20
195.712812741960704
 30
0.0
 11
3679.3844193136560534
 21
195.4004482056272991
 31
0.0
  0
LINE
  5
30743
  8
0
 10
3679.3844227194899759
 20
195.2709656022190927
 30
0.0
 11
3679.3844301425488084
 21
194.9538677611218986
 31
0.0
  0
LINE
  5
30744
  8
0
 10
3679.3849187877690383
 20
194.8243700938753875
 30
0.0
 11
3679.3849260431147741
 21
194.5144365971831917
 31
0.0
  0
LINE
  5
30745
  8
0
 10
3679.3849290755802031
 20
194.3848959671634873
 30
0.0
 11
3679.3849359860710138
 21
194.0896939787558892
 31
0.0
  0
LINE
  5
30746
  8
0
 10
3679.3849395522538543
 20
193.9601652075184859
 30
0.0
 11
3679.3849459909220059
 21
193.6851185683279937
 31
0.0
  0
LINE
  5
30747
  8
0
 10
3679.3849500456340138
 20
193.526818280759187
 30
0.0
 11
3679.3849534519681583
 21
193.3813066688504989
 31
0.0
  0
LINE
  5
30748
  8
0
 10
3679.8290147500738385
 20
196.1339228811237945
 30
0.0
 11
3679.8290147500738385
 21
196.2864331829383957
 31
0.0
  0
LINE
  5
30749
  8
0
 10
3679.8290147500738385
 20
195.9755428525413095
 30
0.0
 11
3679.8290147500738385
 21
195.6589704073537916
 31
0.0
  0
LINE
  5
3074A
  8
0
 10
3679.8290147500738385
 20
195.5294848970615078
 30
0.0
 11
3679.8290147500738385
 21
195.1920785004716095
 31
0.0
  0
LINE
  5
3074B
  8
0
 10
3679.8290147500738385
 20
195.0625929901792972
 30
0.0
 11
3679.8290147500738385
 21
194.759228132342713
 31
0.0
  0
LINE
  5
3074C
  8
0
 10
3679.8294994788661825
 20
194.6296815097028059
 30
0.0
 11
3679.8294994788661825
 21
194.321185675489005
 31
0.0
  0
LINE
  5
3074D
  8
0
 10
3679.8294994788661825
 20
194.1916568556686968
 30
0.0
 11
3679.8294994788661825
 21
193.9187708272343116
 31
0.0
  0
LINE
  5
3074E
  8
0
 10
3679.8294994788661825
 20
193.7604703835303894
 30
0.0
 11
3679.8294994788661825
 21
193.6370556471013913
 31
0.0
  0
ARC
  5
3074F
  8
0
 10
3679.825732543722097
 20
194.2372418724640966
 30
0.0
 40
0.0192984899190496
 50
99.3118873504307942
 51
189.7556834185052139
  0
ARC
  5
30750
  8
0
 10
3679.8282339921429411
 20
194.232796261007195
 30
0.0
 40
0.0241536911818787
 50
22.4230776510615613
 51
103.464732091449406
  0
ARC
  5
30751
  8
0
 10
3679.8321081351568864
 20
194.2359433221498932
 30
0.0
 40
0.0194248467807419
 50
281.1623326051868048
 51
18.1973016530019116
  0
ARC
  5
30752
  8
0
 10
3679.8289048075948813
 20
194.238421391718191
 30
0.0
 40
0.0226333759500226
 50
191.3378806680146056
 51
287.9192992649084886
  0
ARC
  5
30753
  8
0
 10
3679.8280912099598936
 20
194.2374468575771971
 30
0.0
 40
0.0522847693122655
 50
96.3316742982766812
 51
182.3667374927979097
  0
ARC
  5
30754
  8
0
 10
3679.8315408139328611
 20
194.2363551414148901
 30
0.0
 40
0.0538519689245516
 50
9.2879466961371122
 51
99.8536107418127017
  0
ARC
  5
30755
  8
0
 10
3679.8306975829300427
 20
194.2456359611346102
 30
0.0
 40
0.0539924002082997
 50
267.4134231027136934
 51
359.3746159997677978
  0
ARC
  5
30756
  8
0
 10
3679.8268197608508672
 20
194.2432681377194967
 30
0.0
 40
0.0515897022303617
 50
188.8988186660695874
 51
271.6008140400850834
  0
LINE
  5
30757
  8
0
 10
3679.7758230756189732
 20
194.2361280571356872
 30
0.0
 11
3679.7744171661670407
 21
194.2918485905987893
 31
0.0
  0
LINE
  5
30758
  8
0
 10
3679.8846867669121821
 20
194.2450466452542059
 30
0.0
 11
3679.8854934137589225
 21
194.2930351130036115
 31
0.0
  0
ARC
  5
30759
  8
0
 10
3679.8118338216368102
 20
194.2650351720519097
 30
0.0
 40
0.0466869474058104
 50
158.2133840497203039
 51
219.5809946408471092
  0
ARC
  5
3075A
  8
0
 10
3679.8327195154479341
 20
194.2487660376889096
 30
0.0
 40
0.0724932431122075
 50
92.6133845199988741
 51
152.3900050833823059
  0
ARC
  5
3075B
  8
0
 10
3679.8308635685020818
 20
194.2541352671275945
 30
0.0
 40
0.0670642826098466
 50
33.3864235002422731
 51
91.2384472238465349
  0
ARC
  5
3075C
  8
0
 10
3679.8516427077229309
 20
194.2696564470296892
 30
0.0
 40
0.0412013615210623
 50
323.3228355864023911
 51
31.2646143211150083
  0
ARC
  5
3075D
  8
0
 10
3678.9378044966329071
 20
193.7927196419541076
 30
0.0
 40
0.0192984899190496
 50
99.3118873504307942
 51
189.7556834185052139
  0
ARC
  5
3075E
  8
0
 10
3678.9403059450542059
 20
193.788274030497405
 30
0.0
 40
0.0241536911818787
 50
22.4230776510615613
 51
103.464732091449406
  0
ARC
  5
3075F
  8
0
 10
3678.9441800880681512
 20
193.7914210916401032
 30
0.0
 40
0.0194248467807419
 50
281.1623326051868048
 51
18.1973016530019116
  0
ARC
  5
30760
  8
0
 10
3678.9409767605047819
 20
193.7938991612082873
 30
0.0
 40
0.0226333759500226
 50
191.3378806680146056
 51
287.9192992649084886
  0
ARC
  5
30761
  8
0
 10
3678.9401631628711584
 20
193.7929246270672081
 30
0.0
 40
0.0522847693122655
 50
96.3316742982766812
 51
182.3667374927979097
  0
ARC
  5
30762
  8
0
 10
3678.9436127668441259
 20
193.7918329109049864
 30
0.0
 40
0.0538519689245516
 50
9.2879466961371122
 51
99.8536107418127017
  0
ARC
  5
30763
  8
0
 10
3678.9427695358408528
 20
193.8011137306247917
 30
0.0
 40
0.0539924002082997
 50
267.4134231027136934
 51
359.3746159997677978
  0
ARC
  5
30764
  8
0
 10
3678.9388917137612225
 20
193.7987459072097067
 30
0.0
 40
0.0515897022303617
 50
188.8988186660695874
 51
271.6008140400850834
  0
LINE
  5
30765
  8
0
 10
3678.8878950285297833
 20
193.7916058266258119
 30
0.0
 11
3678.8864891190778508
 21
193.8473263600889993
 31
0.0
  0
LINE
  5
30766
  8
0
 10
3678.9967587198239016
 20
193.8005244147443875
 30
0.0
 11
3678.9975653666701874
 21
193.8485128824935941
 31
0.0
  0
ARC
  5
30767
  8
0
 10
3678.923905774548075
 20
193.8205129415420913
 30
0.0
 40
0.0466869474058104
 50
158.2133840497203039
 51
219.5809946408471092
  0
ARC
  5
30768
  8
0
 10
3678.9447914683591989
 20
193.8042438071790912
 30
0.0
 40
0.0724932431122075
 50
92.6133845199988741
 51
152.3900050833823059
  0
ARC
  5
30769
  8
0
 10
3678.9429355214119823
 20
193.8096130366178045
 30
0.0
 40
0.0670642826098466
 50
33.3864235002422731
 51
91.2384472238465349
  0
ARC
  5
3076A
  8
0
 10
3678.9637146606328315
 20
193.8251342165198992
 30
0.0
 40
0.0412013615210623
 50
323.3228355864023911
 51
31.2646143211150083
  0
ARC
  5
3076B
  8
0
 10
3679.3808434750808374
 20
194.4304871159918093
 30
0.0
 40
0.0192984899190496
 50
99.3118873504307942
 51
189.7556834185052139
  0
ARC
  5
3076C
  8
0
 10
3679.3833449235021362
 20
194.426041504534993
 30
0.0
 40
0.0241536911818787
 50
22.4230776510615613
 51
103.464732091449406
  0
ARC
  5
3076D
  8
0
 10
3679.3872190665160815
 20
194.4291885656776913
 30
0.0
 40
0.0194248467807419
 50
281.1623326051868048
 51
18.1973016530019116
  0
ARC
  5
3076E
  8
0
 10
3679.3840157389531669
 20
194.431666635245989
 30
0.0
 40
0.0226333759500226
 50
191.3378806680146056
 51
287.9192992649084886
  0
ARC
  5
3076F
  8
0
 10
3679.3832021413181792
 20
194.4306921011049099
 30
0.0
 40
0.0522847693122655
 50
96.3316742982766812
 51
182.3667374927979097
  0
ARC
  5
30770
  8
0
 10
3679.3866517452920561
 20
194.4296003849426882
 30
0.0
 40
0.0538519689245516
 50
9.2879466961371122
 51
99.8536107418127017
  0
ARC
  5
30771
  8
0
 10
3679.385808514288783
 20
194.4388812046624082
 30
0.0
 40
0.0539924002082997
 50
267.4134231027136934
 51
359.3746159997677978
  0
ARC
  5
30772
  8
0
 10
3679.3819306922091528
 20
194.4365133812472948
 30
0.0
 40
0.0515897022303617
 50
188.8988186660695874
 51
271.6008140400850834
  0
LINE
  5
30773
  8
0
 10
3679.3309340069781683
 20
194.4293733006635136
 30
0.0
 11
3679.3295280975248716
 21
194.4850938341265874
 31
0.0
  0
LINE
  5
30774
  8
0
 10
3679.4397976982709224
 20
194.4382918887820892
 30
0.0
 11
3679.4406043451172081
 21
194.4862803565314096
 31
0.0
  0
ARC
  5
30775
  8
0
 10
3679.3669447529960053
 20
194.458280415579793
 30
0.0
 40
0.0466869474058104
 50
158.2133840497203039
 51
219.5809946408471092
  0
ARC
  5
30776
  8
0
 10
3679.3878304468071292
 20
194.4420112812167076
 30
0.0
 40
0.0724932431122075
 50
92.6133845199988741
 51
152.3900050833823059
  0
ARC
  5
30777
  8
0
 10
3679.3859744998608221
 20
194.4473805106553925
 30
0.0
 40
0.0670642826098466
 50
33.3864235002422731
 51
91.2384472238465349
  0
ARC
  5
30778
  8
0
 10
3679.4067536390812165
 20
194.4629016905576009
 30
0.0
 40
0.0412013615210623
 50
323.3228355864023911
 51
31.2646143211150083
  0
ARC
  5
30779
  8
0
 10
3679.8249192379780652
 20
194.6752784500137921
 30
0.0
 40
0.0192984899190496
 50
99.3118873504307942
 51
189.7556834185052139
  0
ARC
  5
3077A
  8
0
 10
3679.8274206863989093
 20
194.6708328385570894
 30
0.0
 40
0.0241536911818787
 50
22.4230776510615613
 51
103.464732091449406
  0
ARC
  5
3077B
  8
0
 10
3679.8312948294128546
 20
194.6739798996997877
 30
0.0
 40
0.0194248467807419
 50
281.1623326051868048
 51
18.1973016530019116
  0
ARC
  5
3077C
  8
0
 10
3679.82809150184994
 20
194.6764579692681139
 30
0.0
 40
0.0226333759500226
 50
191.3378806680146056
 51
287.9192992649084886
  0
ARC
  5
3077D
  8
0
 10
3679.8272779042158618
 20
194.6754834351270063
 30
0.0
 40
0.0522847693122655
 50
96.3316742982766812
 51
182.3667374927979097
  0
ARC
  5
3077E
  8
0
 10
3679.8307275081901935
 20
194.674391718964813
 30
0.0
 40
0.0538519689245516
 50
9.2879466961371122
 51
99.8536107418127017
  0
ARC
  5
3077F
  8
0
 10
3679.8298842771860109
 20
194.6836725386845046
 30
0.0
 40
0.0539924002082997
 50
267.4134231027136934
 51
359.3746159997677978
  0
ARC
  5
30780
  8
0
 10
3679.8260064551068353
 20
194.6813047152693059
 30
0.0
 40
0.0515897022303617
 50
188.8988186660695874
 51
271.6008140400850834
  0
LINE
  5
30781
  8
0
 10
3679.7750097698749414
 20
194.6741646346854964
 30
0.0
 11
3679.7736038604230089
 21
194.7298851681487122
 31
0.0
  0
LINE
  5
30782
  8
0
 10
3679.8838734611681502
 20
194.6830832228039867
 30
0.0
 11
3679.8846801080158002
 21
194.7310716905533923
 31
0.0
  0
ARC
  5
30783
  8
0
 10
3679.8110205158941426
 20
194.7030717496018042
 30
0.0
 40
0.0466869474058104
 50
158.2133840497203039
 51
219.5809946408471092
  0
ARC
  5
30784
  8
0
 10
3679.8319062097048118
 20
194.686802615238804
 30
0.0
 40
0.0724932431122075
 50
92.6133845199988741
 51
152.3900050833823059
  0
ARC
  5
30785
  8
0
 10
3679.8300502627580499
 20
194.6921718446774037
 30
0.0
 40
0.0670642826098466
 50
33.3864235002422731
 51
91.2384472238465349
  0
ARC
  5
30786
  8
0
 10
3679.8508294019779896
 20
194.707693024579612
 30
0.0
 40
0.0412013615210623
 50
323.3228355864023911
 51
31.2646143211150083
  0
ARC
  5
30787
  8
0
 10
3678.9374759196812192
 20
194.2030509525575042
 30
0.0
 40
0.0192984899190496
 50
99.3118873504307942
 51
189.7556834185052139
  0
ARC
  5
30788
  8
0
 10
3678.9399773681029728
 20
194.1986053411008015
 30
0.0
 40
0.0241536911818787
 50
22.4230776510615613
 51
103.464732091449406
  0
ARC
  5
30789
  8
0
 10
3678.9438515111169181
 20
194.2017524022434998
 30
0.0
 40
0.0194248467807419
 50
281.1623326051868048
 51
18.1973016530019116
  0
ARC
  5
3078A
  8
0
 10
3678.9406481835540035
 20
194.2042304718115986
 30
0.0
 40
0.0226333759500226
 50
191.3378806680146056
 51
287.9192992649084886
  0
ARC
  5
3078B
  8
0
 10
3678.9398345859199253
 20
194.2032559376706047
 30
0.0
 40
0.0522847693122655
 50
96.3316742982766812
 51
182.3667374927979097
  0
ARC
  5
3078C
  8
0
 10
3678.9432841898919833
 20
194.2021642215082977
 30
0.0
 40
0.0538519689245516
 50
9.2879466961371122
 51
99.8536107418127017
  0
ARC
  5
3078D
  8
0
 10
3678.9424409588900744
 20
194.2114450412279893
 30
0.0
 40
0.0539924002082997
 50
267.4134231027136934
 51
359.3746159997677978
  0
ARC
  5
3078E
  8
0
 10
3678.9385631368099894
 20
194.2090772178129896
 30
0.0
 40
0.0515897022303617
 50
188.8988186660695874
 51
271.6008140400850834
  0
LINE
  5
3078F
  8
0
 10
3678.8875664515790049
 20
194.2019371372290948
 30
0.0
 11
3678.8861605421270724
 21
194.2576576706923959
 31
0.0
  0
LINE
  5
30790
  8
0
 10
3678.9964301428722138
 20
194.2108557253476988
 30
0.0
 11
3678.9972367897189542
 21
194.2588441930969907
 31
0.0
  0
ARC
  5
30791
  8
0
 10
3678.9235771975968419
 20
194.2308442521454879
 30
0.0
 40
0.0466869474058104
 50
158.2133840497203039
 51
219.5809946408471092
  0
ARC
  5
30792
  8
0
 10
3678.9444628914079658
 20
194.2145751177822888
 30
0.0
 40
0.0724932431122075
 50
92.6133845199988741
 51
152.3900050833823059
  0
ARC
  5
30793
  8
0
 10
3678.9426069444621135
 20
194.2199443472210874
 30
0.0
 40
0.0670642826098466
 50
33.3864235002422731
 51
91.2384472238465349
  0
ARC
  5
30794
  8
0
 10
3678.9633860836820531
 20
194.2354655271232957
 30
0.0
 40
0.0412013615210623
 50
323.3228355864023911
 51
31.2646143211150083
  0
ARC
  5
30795
  8
0
 10
3679.3812819945110277
 20
194.8699520651105104
 30
0.0
 40
0.0192984899190496
 50
99.3118873504307942
 51
189.7556834185052139
  0
ARC
  5
30796
  8
0
 10
3679.3837834429327813
 20
194.8655064536538077
 30
0.0
 40
0.0241536911818787
 50
22.4230776510615613
 51
103.464732091449406
  0
ARC
  5
30797
  8
0
 10
3679.3876575859471814
 20
194.868653514796506
 30
0.0
 40
0.0194248467807419
 50
281.1623326051868048
 51
18.1973016530019116
  0
ARC
  5
30798
  8
0
 10
3679.3844542583829025
 20
194.8711315843646901
 30
0.0
 40
0.0226333759500226
 50
191.3378806680146056
 51
287.9192992649084886
  0
ARC
  5
30799
  8
0
 10
3679.3836406607488243
 20
194.8701570502236962
 30
0.0
 40
0.0522847693122655
 50
96.3316742982766812
 51
182.3667374927979097
  0
ARC
  5
3079A
  8
0
 10
3679.3870902647217918
 20
194.8690653340613892
 30
0.0
 40
0.0538519689245516
 50
9.2879466961371122
 51
99.8536107418127017
  0
ARC
  5
3079B
  8
0
 10
3679.3862470337189734
 20
194.8783461537811093
 30
0.0
 40
0.0539924002082997
 50
267.4134231027136934
 51
359.3746159997677978
  0
ARC
  5
3079C
  8
0
 10
3679.3823692116397979
 20
194.8759783303661095
 30
0.0
 40
0.0515897022303617
 50
188.8988186660695874
 51
271.6008140400850834
  0
LINE
  5
3079D
  8
0
 10
3679.3313725264088134
 20
194.8688382497821863
 30
0.0
 11
3679.3299666169559714
 21
194.9245587832454021
 31
0.0
  0
LINE
  5
3079E
  8
0
 10
3679.4402362177011128
 20
194.877756837900705
 30
0.0
 11
3679.4410428645478532
 21
194.9257453056499969
 31
0.0
  0
ARC
  5
3079F
  8
0
 10
3679.3673832724261956
 20
194.8977453646984941
 30
0.0
 40
0.0466869474058104
 50
158.2133840497203039
 51
219.5809946408471092
  0
ARC
  5
307A0
  8
0
 10
3679.3882689662368648
 20
194.8814762303354087
 30
0.0
 40
0.0724932431122075
 50
92.6133845199988741
 51
152.3900050833823059
  0
ARC
  5
307A1
  8
0
 10
3679.3864130192910125
 20
194.8868454597742073
 30
0.0
 40
0.0670642826098466
 50
33.3864235002422731
 51
91.2384472238465349
  0
ARC
  5
307A2
  8
0
 10
3679.4071921585118616
 20
194.9023666396763019
 30
0.0
 40
0.0412013615210623
 50
323.3228355864023911
 51
31.2646143211150083
  0
ARC
  5
307A3
  8
0
 10
3679.8258424862010543
 20
195.1081615296587017
 30
0.0
 40
0.0192984899190496
 50
99.3118873504307942
 51
189.7556834185052139
  0
ARC
  5
307A4
  8
0
 10
3679.8283439346218984
 20
195.1037159182019138
 30
0.0
 40
0.0241536911818787
 50
22.4230776510615613
 51
103.464732091449406
  0
ARC
  5
307A5
  8
0
 10
3679.8322180776372079
 20
195.1068629793446974
 30
0.0
 40
0.0194248467807419
 50
281.1623326051868048
 51
18.1973016530019116
  0
ARC
  5
307A6
  8
0
 10
3679.8290147500738385
 20
195.1093410489129099
 30
0.0
 40
0.0226333759500226
 50
191.3378806680146056
 51
287.9192992649084886
  0
ARC
  5
307A7
  8
0
 10
3679.8282011524388508
 20
195.1083665147716886
 30
0.0
 40
0.0522847693122655
 50
96.3316742982766812
 51
182.3667374927979097
  0
ARC
  5
307A8
  8
0
 10
3679.8316507564118183
 20
195.107274798609609
 30
0.0
 40
0.0538519689245516
 50
9.2879466961371122
 51
99.8536107418127017
  0
ARC
  5
307A9
  8
0
 10
3679.8308075254099094
 20
195.1165556183293006
 30
0.0
 40
0.0539924002082997
 50
267.4134231027136934
 51
359.3746159997677978
  0
ARC
  5
307AA
  8
0
 10
3679.8269297033298244
 20
195.1141877949141019
 30
0.0
 40
0.0515897022303617
 50
188.8988186660695874
 51
271.6008140400850834
  0
LINE
  5
307AB
  8
0
 10
3679.77593301809884
 20
195.1070477143302924
 30
0.0
 11
3679.7745271086469074
 21
195.1627682477935934
 31
0.0
  0
LINE
  5
307AC
  8
0
 10
3679.8847967093920488
 20
195.1159663024488964
 30
0.0
 11
3679.8856033562378798
 21
195.1639547701981883
 31
0.0
  0
ARC
  5
307AD
  8
0
 10
3679.8119437641171316
 20
195.1359548292467139
 30
0.0
 40
0.0466869474058104
 50
158.2133840497203039
 51
219.5809946408471092
  0
ARC
  5
307AE
  8
0
 10
3679.8328294579268913
 20
195.1196856948836
 30
0.0
 40
0.0724932431122075
 50
92.6133845199988741
 51
152.3900050833823059
  0
ARC
  5
307AF
  8
0
 10
3679.830973510981039
 20
195.1250549243223134
 30
0.0
 40
0.0670642826098466
 50
33.3864235002422731
 51
91.2384472238465349
  0
ARC
  5
307B0
  8
0
 10
3679.8517526502018882
 20
195.1405761042244933
 30
0.0
 40
0.0412013615210623
 50
323.3228355864023911
 51
31.2646143211150083
  0
ARC
  5
307B1
  8
0
 10
3679.3812819945110277
 20
195.3165330846694872
 30
0.0
 40
0.0192984899190496
 50
99.3118873504307942
 51
189.7556834185052139
  0
ARC
  5
307B2
  8
0
 10
3679.3837834429327813
 20
195.3120874732128129
 30
0.0
 40
0.0241536911818787
 50
22.4230776510615613
 51
103.464732091449406
  0
ARC
  5
307B3
  8
0
 10
3679.3876575859471814
 20
195.3152345343555112
 30
0.0
 40
0.0194248467807419
 50
281.1623326051868048
 51
18.1973016530019116
  0
ARC
  5
307B4
  8
0
 10
3679.3844542583829025
 20
195.3177126039236953
 30
0.0
 40
0.0226333759500226
 50
191.3378806680146056
 51
287.9192992649084886
  0
ARC
  5
307B5
  8
0
 10
3679.3836406607488243
 20
195.3167380697825877
 30
0.0
 40
0.0522847693122655
 50
96.3316742982766812
 51
182.3667374927979097
  0
ARC
  5
307B6
  8
0
 10
3679.3870902647217918
 20
195.3156463536203944
 30
0.0
 40
0.0538519689245516
 50
9.2879466961371122
 51
99.8536107418127017
  0
ARC
  5
307B7
  8
0
 10
3679.3862470337189734
 20
195.324927173340086
 30
0.0
 40
0.0539924002082997
 50
267.4134231027136934
 51
359.3746159997677978
  0
ARC
  5
307B8
  8
0
 10
3679.3823692116397979
 20
195.322559349925001
 30
0.0
 40
0.0515897022303617
 50
188.8988186660695874
 51
271.6008140400850834
  0
LINE
  5
307B9
  8
0
 10
3679.3313725264088134
 20
195.3154192693411062
 30
0.0
 11
3679.3299666169559714
 21
195.3711398028044073
 31
0.0
  0
LINE
  5
307BA
  8
0
 10
3679.4402362177011128
 20
195.3243378574597102
 30
0.0
 11
3679.4410428645478532
 21
195.3723263252090021
 31
0.0
  0
ARC
  5
307BB
  8
0
 10
3679.3673832724261956
 20
195.3443263842574993
 30
0.0
 40
0.0466869474058104
 50
158.2133840497203039
 51
219.5809946408471092
  0
ARC
  5
307BC
  8
0
 10
3679.3882689662368648
 20
195.3280572498944139
 30
0.0
 40
0.0724932431122075
 50
92.6133845199988741
 51
152.3900050833823059
  0
ARC
  5
307BD
  8
0
 10
3679.3864130192910125
 20
195.3334264793330988
 30
0.0
 40
0.0670642826098466
 50
33.3864235002422731
 51
91.2384472238465349
  0
ARC
  5
307BE
  8
0
 10
3679.4071921585118616
 20
195.3489476592353071
 30
0.0
 40
0.0412013615210623
 50
323.3228355864023911
 51
31.2646143211150083
  0
ARC
  5
307BF
  8
0
 10
3679.8258424862010543
 20
195.5750534365409123
 30
0.0
 40
0.0192984899190496
 50
99.3118873504307942
 51
189.7556834185052139
  0
ARC
  5
307C0
  8
0
 10
3679.8283439346218984
 20
195.570607825084096
 30
0.0
 40
0.0241536911818787
 50
22.4230776510615613
 51
103.464732091449406
  0
ARC
  5
307C1
  8
0
 10
3679.8322180776372079
 20
195.573754886226908
 30
0.0
 40
0.0194248467807419
 50
281.1623326051868048
 51
18.1973016530019116
  0
ARC
  5
307C2
  8
0
 10
3679.8290147500738385
 20
195.576232955795092
 30
0.0
 40
0.0226333759500226
 50
191.3378806680146056
 51
287.9192992649084886
  0
ARC
  5
307C3
  8
0
 10
3679.8282011524388508
 20
195.5752584216538992
 30
0.0
 40
0.0522847693122655
 50
96.3316742982766812
 51
182.3667374927979097
  0
ARC
  5
307C4
  8
0
 10
3679.8316507564118183
 20
195.5741667054917912
 30
0.0
 40
0.0538519689245516
 50
9.2879466961371122
 51
99.8536107418127017
  0
ARC
  5
307C5
  8
0
 10
3679.8308075254099094
 20
195.5834475252115112
 30
0.0
 40
0.0539924002082997
 50
267.4134231027136934
 51
359.3746159997677978
  0
ARC
  5
307C6
  8
0
 10
3679.8269297033298244
 20
195.5810797017963125
 30
0.0
 40
0.0515897022303617
 50
188.8988186660695874
 51
271.6008140400850834
  0
LINE
  5
307C7
  8
0
 10
3679.77593301809884
 20
195.573939621212503
 30
0.0
 11
3679.7745271086469074
 21
195.6296601546758041
 31
0.0
  0
LINE
  5
307C8
  8
0
 10
3679.8847967093920488
 20
195.582858209331107
 30
0.0
 11
3679.8856033562378798
 21
195.6308466770803989
 31
0.0
  0
ARC
  5
307C9
  8
0
 10
3679.8119437641171316
 20
195.6028467361288961
 30
0.0
 40
0.0466869474058104
 50
158.2133840497203039
 51
219.5809946408471092
  0
ARC
  5
307CA
  8
0
 10
3679.8328294579268913
 20
195.5865776017658106
 30
0.0
 40
0.0724932431122075
 50
92.6133845199988741
 51
152.3900050833823059
  0
ARC
  5
307CB
  8
0
 10
3679.830973510981039
 20
195.5919468312044955
 30
0.0
 40
0.0670642826098466
 50
33.3864235002422731
 51
91.2384472238465349
  0
ARC
  5
307CC
  8
0
 10
3679.8517526502018882
 20
195.6074680111067039
 30
0.0
 40
0.0412013615210623
 50
323.3228355864023911
 51
31.2646143211150083
  0
ARC
  5
307CD
  8
0
 10
3679.3812819945110277
 20
195.7786907483151992
 30
0.0
 40
0.0192984899190496
 50
99.3118873504307942
 51
189.7556834185052139
  0
ARC
  5
307CE
  8
0
 10
3679.3837834429327813
 20
195.7742451368584113
 30
0.0
 40
0.0241536911818787
 50
22.4230776510615613
 51
103.464732091449406
  0
ARC
  5
307CF
  8
0
 10
3679.3876575859471814
 20
195.7773921980011096
 30
0.0
 40
0.0194248467807419
 50
281.1623326051868048
 51
18.1973016530019116
  0
ARC
  5
307D0
  8
0
 10
3679.3844542583829025
 20
195.7798702675692937
 30
0.0
 40
0.0226333759500226
 50
191.3378806680146056
 51
287.9192992649084886
  0
ARC
  5
307D1
  8
0
 10
3679.3836406607488243
 20
195.7788957334281861
 30
0.0
 40
0.0522847693122655
 50
96.3316742982766812
 51
182.3667374927979097
  0
ARC
  5
307D2
  8
0
 10
3679.3870902647217918
 20
195.7778040172659928
 30
0.0
 40
0.0538519689245516
 50
9.2879466961371122
 51
99.8536107418127017
  0
ARC
  5
307D3
  8
0
 10
3679.3862470337189734
 20
195.7870848369857129
 30
0.0
 40
0.0539924002082997
 50
267.4134231027136934
 51
359.3746159997677978
  0
ARC
  5
307D4
  8
0
 10
3679.3823692116397979
 20
195.7847170135707131
 30
0.0
 40
0.0515897022303617
 50
188.8988186660695874
 51
271.6008140400850834
  0
LINE
  5
307D5
  8
0
 10
3679.3313725264088134
 20
195.7775769329867899
 30
0.0
 11
3679.3299666169559714
 21
195.8332974664500057
 31
0.0
  0
LINE
  5
307D6
  8
0
 10
3679.4402362177011128
 20
195.7864955211053939
 30
0.0
 11
3679.4410428645478532
 21
195.8344839888546005
 31
0.0
  0
ARC
  5
307D7
  8
0
 10
3679.3673832724261956
 20
195.8064840479030977
 30
0.0
 40
0.0466869474058104
 50
158.2133840497203039
 51
219.5809946408471092
  0
ARC
  5
307D8
  8
0
 10
3679.3882689662368648
 20
195.7902149135400123
 30
0.0
 40
0.0724932431122075
 50
92.6133845199988741
 51
152.3900050833823059
  0
ARC
  5
307D9
  8
0
 10
3679.3864130192910125
 20
195.7955841429788109
 30
0.0
 40
0.0670642826098466
 50
33.3864235002422731
 51
91.2384472238465349
  0
ARC
  5
307DA
  8
0
 10
3679.4071921585118616
 20
195.8111053228809908
 30
0.0
 40
0.0412013615210623
 50
323.3228355864023911
 51
31.2646143211150083
  0
ARC
  5
307DB
  8
0
 10
3678.9379144391118643
 20
195.5432363326330005
 30
0.0
 40
0.0192984899190496
 50
99.3118873504307942
 51
189.7556834185052139
  0
ARC
  5
307DC
  8
0
 10
3678.9404158875340727
 20
195.5387907211760137
 30
0.0
 40
0.0241536911818787
 50
22.4230776510615613
 51
103.464732091449406
  0
ARC
  5
307DD
  8
0
 10
3678.944290030548018
 20
195.5419377823189109
 30
0.0
 40
0.0194248467807419
 50
281.1623326051868048
 51
18.1973016530019116
  0
ARC
  5
307DE
  8
0
 10
3678.9410867029841938
 20
195.5444158518870097
 30
0.0
 40
0.0226333759500226
 50
191.3378806680146056
 51
287.9192992649084886
  0
ARC
  5
307DF
  8
0
 10
3678.9402731053501157
 20
195.5434413177459874
 30
0.0
 40
0.0522847693122655
 50
96.3316742982766812
 51
182.3667374927979097
  0
ARC
  5
307E0
  8
0
 10
3678.9437227093230831
 20
195.5423496015837941
 30
0.0
 40
0.0538519689245516
 50
9.2879466961371122
 51
99.8536107418127017
  0
ARC
  5
307E1
  8
0
 10
3678.94287947831981
 20
195.5516304213034005
 30
0.0
 40
0.0539924002082997
 50
267.4134231027136934
 51
359.3746159997677978
  0
ARC
  5
307E2
  8
0
 10
3678.9390016562401797
 20
195.5492625978884007
 30
0.0
 40
0.0515897022303617
 50
188.8988186660695874
 51
271.6008140400850834
  0
LINE
  5
307E3
  8
0
 10
3678.8880049710091953
 20
195.5421225173045912
 30
0.0
 11
3678.886599061556808
 21
195.597843050767807
 31
0.0
  0
LINE
  5
307E4
  8
0
 10
3678.9968686623028589
 20
195.5510411054231099
 30
0.0
 11
3678.9976753091491446
 21
195.5990295731724871
 31
0.0
  0
ARC
  5
307E5
  8
0
 10
3678.9240157170270322
 20
195.571029632220899
 30
0.0
 40
0.0466869474058104
 50
158.2133840497203039
 51
219.5809946408471092
  0
ARC
  5
307E6
  8
0
 10
3678.9449014108390656
 20
195.5547604978576999
 30
0.0
 40
0.0724932431122075
 50
92.6133845199988741
 51
152.3900050833823059
  0
ARC
  5
307E7
  8
0
 10
3678.9430454638918491
 20
195.5601297272964985
 30
0.0
 40
0.0670642826098466
 50
33.3864235002422731
 51
91.2384472238465349
  0
ARC
  5
307E8
  8
0
 10
3678.9638246031117887
 20
195.5756509071987068
 30
0.0
 40
0.0412013615210623
 50
323.3228355864023911
 51
31.2646143211150083
  0
ARC
  5
307E9
  8
0
 10
3678.9372839984121129
 20
196.0039426977793937
 30
0.0
 40
0.0192984899190496
 50
99.3118873504307942
 51
189.7556834185052139
  0
ARC
  5
307EA
  8
0
 10
3678.9397854468329569
 20
195.9994970863226058
 30
0.0
 40
0.0241536911818787
 50
22.4230776510615613
 51
103.464732091449406
  0
ARC
  5
307EB
  8
0
 10
3678.9436595898469022
 20
196.0026441474653893
 30
0.0
 40
0.0194248467807419
 50
281.1623326051868048
 51
18.1973016530019116
  0
ARC
  5
307EC
  8
0
 10
3678.9404562622839876
 20
196.0051222170336018
 30
0.0
 40
0.0226333759500226
 50
191.3378806680146056
 51
287.9192992649084886
  0
ARC
  5
307ED
  8
0
 10
3678.9396426646499094
 20
196.0041476828924942
 30
0.0
 40
0.0522847693122655
 50
96.3316742982766812
 51
182.3667374927979097
  0
ARC
  5
307EE
  8
0
 10
3678.9430922686228769
 20
196.0030559667303862
 30
0.0
 40
0.0538519689245516
 50
9.2879466961371122
 51
99.8536107418127017
  0
ARC
  5
307EF
  8
0
 10
3678.9422490376200585
 20
196.0123367864499926
 30
0.0
 40
0.0539924002082997
 50
267.4134231027136934
 51
359.3746159997677978
  0
ARC
  5
307F0
  8
0
 10
3678.9383712155399735
 20
196.0099689630347939
 30
0.0
 40
0.0515897022303617
 50
188.8988186660695874
 51
271.6008140400850834
  0
LINE
  5
307F1
  8
0
 10
3678.8873745303089891
 20
196.0028288824512117
 30
0.0
 11
3678.8859686208570565
 21
196.0585494159143138
 31
0.0
  0
LINE
  5
307F2
  8
0
 10
3678.9962382216031074
 20
196.011747470569702
 30
0.0
 11
3678.9970448684489384
 21
196.0597359383191076
 31
0.0
  0
ARC
  5
307F3
  8
0
 10
3678.923385276326826
 20
196.0317359973674058
 30
0.0
 40
0.0466869474058104
 50
158.2133840497203039
 51
219.5809946408471092
  0
ARC
  5
307F4
  8
0
 10
3678.9442709701379499
 20
196.015466863004292
 30
0.0
 40
0.0724932431122075
 50
92.6133845199988741
 51
152.3900050833823059
  0
ARC
  5
307F5
  8
0
 10
3678.9424150231920976
 20
196.0208360924430906
 30
0.0
 40
0.0670642826098466
 50
33.3864235002422731
 51
91.2384472238465349
  0
ARC
  5
307F6
  8
0
 10
3678.9631941624120373
 20
196.0363572723452137
 30
0.0
 40
0.0412013615210623
 50
323.3228355864023911
 51
31.2646143211150083
  0
ARC
  5
307F7
  8
0
 10
3678.9383406273382207
 20
193.3631747855318963
 30
0.0
 40
0.0201111964834572
 50
84.3147472876799355
 51
181.8063232883322939
  0
ARC
  5
307F8
  8
0
 10
3678.9410251120712019
 20
193.3609384688492128
 30
0.0
 40
0.0222593534004068
 50
9.5268057379227447
 51
91.7820076672385454
  0
ARC
  5
307F9
  8
0
 10
3678.9402193068190172
 20
193.3667575030104047
 30
0.0
 40
0.022858080891165
 50
270.2847712026647855
 51
354.640849412045327
  0
ARC
  5
307FA
  8
0
 10
3678.9391445447240585
 20
193.3649044247472943
 30
0.0
 40
0.0210383102902863
 50
186.450557796473305
 51
273.2381349859177817
  0
ARC
  5
307FB
  8
0
 10
3678.9423943302058433
 20
193.3540520973166963
 30
0.0
 40
0.0781015297921497
 50
91.5124426136191289
 51
170.6577536589960005
  0
ARC
  5
307FC
  8
0
 10
3678.9412693813637816
 20
193.3578411262726888
 30
0.0
 40
0.0742911940381561
 50
6.1074262041745468
 51
90.7222520103786536
  0
ARC
  5
307FD
  8
0
 10
3678.9436222073450153
 20
193.3764379076112903
 30
0.0
 40
0.0723116391904934
 50
267.3928457869034787
 51
351.496489873699602
  0
ARC
  5
307FE
  8
0
 10
3678.935108379329904
 20
193.3741828611426001
 30
0.0
 40
0.0701764925088872
 50
186.096051782942709
 51
274.2695363531207136
  0
LINE
  5
307FF
  8
0
 10
3678.8653287163338064
 20
193.3667304297925966
 30
0.0
 11
3678.8671480096300002
 21
193.4268952949896914
 31
0.0
  0
LINE
  5
30800
  8
0
 10
3679.0151389106731585
 20
193.3657451854384988
 30
0.0
 11
3679.0161589183721844
 21
193.4258580814382924
 31
0.0
  0
ARC
  5
30801
  8
0
 10
3678.9093213188548361
 20
193.3955100998475984
 30
0.0
 40
0.0525701292085178
 50
143.3435358273837039
 51
213.1924466203977886
  0
ARC
  5
30802
  8
0
 10
3678.9448076978419522
 20
193.3601701234005077
 30
0.0
 40
0.1023878688940399
 50
92.5048654275097135
 51
139.3308421317682928
  0
ARC
  5
30803
  8
0
 10
3678.9442458210178302
 20
193.3737234710334008
 30
0.0
 40
0.0888229203147584
 50
35.94086622615891
 51
92.5248612583152266
  0
ARC
  5
30804
  8
0
 10
3678.9695269695171191
 20
193.396584239870009
 30
0.0
 40
0.0550590270005809
 50
325.9366665126337921
 51
32.1191074641826972
  0
ARC
  5
30805
  8
0
 10
3679.3824612692042137
 20
193.5858128462334093
 30
0.0
 40
0.0201111964834572
 50
84.3147472876799355
 51
181.8063232883322939
  0
ARC
  5
30806
  8
0
 10
3679.385145753937195
 20
193.5835765295508111
 30
0.0
 40
0.0222593534004068
 50
9.5268057379227447
 51
91.7820076672385454
  0
ARC
  5
30807
  8
0
 10
3679.3843399486850103
 20
193.5893955637118893
 30
0.0
 40
0.022858080891165
 50
270.2847712026647855
 51
354.640849412045327
  0
ARC
  5
30808
  8
0
 10
3679.3832651865891421
 20
193.5875424854488074
 30
0.0
 40
0.0210383102902863
 50
186.450557796473305
 51
273.2381349859177817
  0
ARC
  5
30809
  8
0
 10
3679.3865149720718364
 20
193.5766901580182946
 30
0.0
 40
0.0781015297921497
 50
91.5124426136191289
 51
170.6577536589960005
  0
ARC
  5
3080A
  8
0
 10
3679.3853900232297747
 20
193.5804791869742019
 30
0.0
 40
0.0742911940381561
 50
6.1074262041745468
 51
90.7222520103786536
  0
ARC
  5
3080B
  8
0
 10
3679.3877428492100989
 20
193.5990759683128033
 30
0.0
 40
0.0723116391904934
 50
267.3928457869034787
 51
351.496489873699602
  0
ARC
  5
3080C
  8
0
 10
3679.3792290211958971
 20
193.5968209218439995
 30
0.0
 40
0.0701764925088872
 50
186.096051782942709
 51
274.2695363531207136
  0
LINE
  5
3080D
  8
0
 10
3679.3094493581997995
 20
193.589368490493996
 30
0.0
 11
3679.3112686514959933
 21
193.6495333556910907
 31
0.0
  0
LINE
  5
3080E
  8
0
 10
3679.4592595525377874
 20
193.5883832461400971
 30
0.0
 11
3679.4602795602381775
 21
193.6484961421396918
 31
0.0
  0
ARC
  5
3080F
  8
0
 10
3679.3534419607199197
 20
193.6181481605491115
 30
0.0
 40
0.0525701292085178
 50
143.3435358273837039
 51
213.1924466203977886
  0
ARC
  5
30810
  8
0
 10
3679.3889283397070358
 20
193.5828081841019923
 30
0.0
 40
0.1023878688940399
 50
92.5048654275097135
 51
139.3308421317682928
  0
ARC
  5
30811
  8
0
 10
3679.3883664628838233
 20
193.5963615317348001
 30
0.0
 40
0.0888229203147584
 50
35.94086622615891
 51
92.5248612583152266
  0
ARC
  5
30812
  8
0
 10
3679.4136476113831122
 20
193.6192223005714936
 30
0.0
 40
0.0550590270005809
 50
325.9366665126337921
 51
32.1191074641826972
  0
ARC
  5
30813
  8
0
 10
3679.8270107028311031
 20
193.8194649489894061
 30
0.0
 40
0.0201111964834572
 50
84.3147472876799355
 51
181.8063232883322939
  0
ARC
  5
30814
  8
0
 10
3679.8296951875640843
 20
193.8172286323066089
 30
0.0
 40
0.0222593534004068
 50
9.5268057379227447
 51
91.7820076672385454
  0
ARC
  5
30815
  8
0
 10
3679.8288893823118997
 20
193.8230476664678008
 30
0.0
 40
0.022858080891165
 50
270.2847712026647855
 51
354.640849412045327
  0
ARC
  5
30816
  8
0
 10
3679.827814620216941
 20
193.8211945882046052
 30
0.0
 40
0.0210383102902863
 50
186.450557796473305
 51
273.2381349859177817
  0
ARC
  5
30817
  8
0
 10
3679.8310644056991805
 20
193.8103422607742061
 30
0.0
 40
0.0781015297921497
 50
91.5124426136191289
 51
170.6577536589960005
  0
ARC
  5
30818
  8
0
 10
3679.8299394568571188
 20
193.8141312897301134
 30
0.0
 40
0.0742911940381561
 50
6.1074262041745468
 51
90.7222520103786536
  0
ARC
  5
30819
  8
0
 10
3679.8322922828378978
 20
193.8327280710686864
 30
0.0
 40
0.0723116391904934
 50
267.3928457869034787
 51
351.496489873699602
  0
ARC
  5
3081A
  8
0
 10
3679.8237784548227864
 20
193.8304730245999963
 30
0.0
 40
0.0701764925088872
 50
186.096051782942709
 51
274.2695363531207136
  0
LINE
  5
3081B
  8
0
 10
3679.7539987918271436
 20
193.8230205932499928
 30
0.0
 11
3679.7558180851228826
 21
193.8831854584470875
 31
0.0
  0
LINE
  5
3081C
  8
0
 10
3679.9038089861651315
 20
193.8220353488958949
 30
0.0
 11
3679.9048289938659764
 21
193.8821482448956885
 31
0.0
  0
ARC
  5
3081D
  8
0
 10
3679.7979913943468091
 20
193.8518002633049946
 30
0.0
 40
0.0525701292085178
 50
143.3435358273837039
 51
213.1924466203977886
  0
ARC
  5
3081E
  8
0
 10
3679.8334777733348346
 20
193.8164602868579891
 30
0.0
 40
0.1023878688940399
 50
92.5048654275097135
 51
139.3308421317682928
  0
ARC
  5
3081F
  8
0
 10
3679.8329158965111674
 20
193.8300136344907969
 30
0.0
 40
0.0888229203147584
 50
35.94086622615891
 51
92.5248612583152266
  0
ARC
  5
30820
  8
0
 10
3679.8581970450100016
 20
193.8528744033274052
 30
0.0
 40
0.0550590270005809
 50
325.9366665126337921
 51
32.1191074641826972
  0
ARC
  5
30821
  8
0
 10
3680.2738829029758563
 20
194.4729143723870948
 30
0.0
 40
0.0201111964834572
 50
84.3147472876799355
 51
181.8063232883322939
  0
ARC
  5
30822
  8
0
 10
3680.2765673877088375
 20
194.4706780557044965
 30
0.0
 40
0.0222593534004068
 50
9.5268057379227447
 51
91.7820076672385454
  0
ARC
  5
30823
  8
0
 10
3680.2757615824571076
 20
194.4764970898656031
 30
0.0
 40
0.022858080891165
 50
270.2847712026647855
 51
354.640849412045327
  0
ARC
  5
30824
  8
0
 10
3680.2746868203621489
 20
194.4746440116024928
 30
0.0
 40
0.0210383102902863
 50
186.450557796473305
 51
273.2381349859177817
  0
ARC
  5
30825
  8
0
 10
3680.2779366058439336
 20
194.4637916841720084
 30
0.0
 40
0.0781015297921497
 50
91.5124426136191289
 51
170.6577536589960005
  0
ARC
  5
30826
  8
0
 10
3680.2768116570018719
 20
194.4675807131278873
 30
0.0
 40
0.0742911940381561
 50
6.1074262041745468
 51
90.7222520103786536
  0
ARC
  5
30827
  8
0
 10
3680.2791644829821962
 20
194.4861774944664887
 30
0.0
 40
0.0723116391904934
 50
267.3928457869034787
 51
351.496489873699602
  0
ARC
  5
30828
  8
0
 10
3680.2706506549679943
 20
194.4839224479977133
 30
0.0
 40
0.0701764925088872
 50
186.096051782942709
 51
274.2695363531207136
  0
LINE
  5
30829
  8
0
 10
3680.2008709919718967
 20
194.4764700166477098
 30
0.0
 11
3680.2026902852680905
 21
194.5366348818448046
 31
0.0
  0
LINE
  5
3082A
  8
0
 10
3680.3506811863107941
 20
194.4754847722938109
 30
0.0
 11
3680.3517011940111843
 21
194.5355976682934056
 31
0.0
  0
ARC
  5
3082B
  8
0
 10
3680.244863594492017
 20
194.5052496867027969
 30
0.0
 40
0.0525701292085178
 50
143.3435358273837039
 51
213.1924466203977886
  0
ARC
  5
3082C
  8
0
 10
3680.2803499734800425
 20
194.4699097102557062
 30
0.0
 40
0.1023878688940399
 50
92.5048654275097135
 51
139.3308421317682928
  0
ARC
  5
3082D
  8
0
 10
3680.2797880966559205
 20
194.483463057888514
 30
0.0
 40
0.0888229203147584
 50
35.94086622615891
 51
92.5248612583152266
  0
ARC
  5
3082E
  8
0
 10
3680.3050692451552095
 20
194.5063238267252075
 30
0.0
 40
0.0550590270005809
 50
325.9366665126337921
 51
32.1191074641826972
  0
ARC
  5
3082F
  8
0
 10
3680.2717615259462036
 20
194.9200747125406963
 30
0.0
 40
0.0201111964834572
 50
84.3147472876799355
 51
181.8063232883322939
  0
ARC
  5
30830
  8
0
 10
3680.2744460106791848
 20
194.9178383958580127
 30
0.0
 40
0.0222593534004068
 50
9.5268057379227447
 51
91.7820076672385454
  0
ARC
  5
30831
  8
0
 10
3680.2736402054270002
 20
194.9236574300192899
 30
0.0
 40
0.022858080891165
 50
270.2847712026647855
 51
354.640849412045327
  0
ARC
  5
30832
  8
0
 10
3680.272565443331132
 20
194.921804351756208
 30
0.0
 40
0.0210383102902863
 50
186.450557796473305
 51
273.2381349859177817
  0
ARC
  5
30833
  8
0
 10
3680.2758152288138263
 20
194.91095202432561
 30
0.0
 40
0.0781015297921497
 50
91.5124426136191289
 51
170.6577536589960005
  0
ARC
  5
30834
  8
0
 10
3680.274690279970855
 20
194.9147410532814888
 30
0.0
 40
0.0742911940381561
 50
6.1074262041745468
 51
90.7222520103786536
  0
ARC
  5
30835
  8
0
 10
3680.2770431059511793
 20
194.9333378346202039
 30
0.0
 40
0.0723116391904934
 50
267.3928457869034787
 51
351.496489873699602
  0
ARC
  5
30836
  8
0
 10
3680.2685292779369775
 20
194.9310827881514001
 30
0.0
 40
0.0701764925088872
 50
186.096051782942709
 51
274.2695363531207136
  0
LINE
  5
30837
  8
0
 10
3680.1987496149408798
 20
194.9236303568013966
 30
0.0
 11
3680.2005689082379831
 21
194.9837952219984913
 31
0.0
  0
LINE
  5
30838
  8
0
 10
3680.3485598092811415
 20
194.9226451124474977
 30
0.0
 11
3680.3495798169810769
 21
194.9827580084470924
 31
0.0
  0
ARC
  5
30839
  8
0
 10
3680.2427422174619096
 20
194.9524100268565121
 30
0.0
 40
0.0525701292085178
 50
143.3435358273837039
 51
213.1924466203977886
  0
ARC
  5
3083A
  8
0
 10
3680.2782285964490256
 20
194.9170700504093077
 30
0.0
 40
0.1023878688940399
 50
92.5048654275097135
 51
139.3308421317682928
  0
ARC
  5
3083B
  8
0
 10
3680.2776667196249036
 20
194.9306233980422007
 30
0.0
 40
0.0888229203147584
 50
35.94086622615891
 51
92.5248612583152266
  0
ARC
  5
3083C
  8
0
 10
3680.3029478681251021
 20
194.9534841668788943
 30
0.0
 40
0.0550590270005809
 50
325.9366665126337921
 51
32.1191074641826972
  0
ARC
  5
3083D
  8
0
 10
3680.2768927699421511
 20
195.3612817258741927
 30
0.0
 40
0.0201111964834572
 50
84.3147472876799355
 51
181.8063232883322939
  0
ARC
  5
3083E
  8
0
 10
3680.2795772546760418
 20
195.3590454091915092
 30
0.0
 40
0.0222593534004068
 50
9.5268057379227447
 51
91.7820076672385454
  0
ARC
  5
3083F
  8
0
 10
3680.2787714494238571
 20
195.3648644433527011
 30
0.0
 40
0.022858080891165
 50
270.2847712026647855
 51
354.640849412045327
  0
ARC
  5
30840
  8
0
 10
3680.2776966873279889
 20
195.3630113650895055
 30
0.0
 40
0.0210383102902863
 50
186.450557796473305
 51
273.2381349859177817
  0
ARC
  5
30841
  8
0
 10
3680.2809464728111379
 20
195.3521590376589927
 30
0.0
 40
0.0781015297921497
 50
91.5124426136191289
 51
170.6577536589960005
  0
ARC
  5
30842
  8
0
 10
3680.2798215239681667
 20
195.3559480666149
 30
0.0
 40
0.0742911940381561
 50
6.1074262041745468
 51
90.7222520103786536
  0
ARC
  5
30843
  8
0
 10
3680.2821743499498552
 20
195.3745448479535867
 30
0.0
 40
0.0723116391904934
 50
267.3928457869034787
 51
351.496489873699602
  0
ARC
  5
30844
  8
0
 10
3680.2736605219351986
 20
195.3722898014848965
 30
0.0
 40
0.0701764925088872
 50
186.096051782942709
 51
274.2695363531207136
  0
LINE
  5
30845
  8
0
 10
3680.2038808589381915
 20
195.364837370134893
 30
0.0
 11
3680.2057001522348401
 21
195.4250022353319025
 31
0.0
  0
LINE
  5
30846
  8
0
 10
3680.3536910532770889
 20
195.3638521257807952
 30
0.0
 11
3680.3547110609770243
 21
195.4239650217805888
 31
0.0
  0
ARC
  5
30847
  8
0
 10
3680.2478734614592213
 20
195.3936170401898949
 30
0.0
 40
0.0525701292085178
 50
143.3435358273837039
 51
213.1924466203977886
  0
ARC
  5
30848
  8
0
 10
3680.2833598404458826
 20
195.3582770637428041
 30
0.0
 40
0.1023878688940399
 50
92.5048654275097135
 51
139.3308421317682928
  0
ARC
  5
30849
  8
0
 10
3680.2827979636222153
 20
195.3718304113756972
 30
0.0
 40
0.0888229203147584
 50
35.94086622615891
 51
92.5248612583152266
  0
ARC
  5
3084A
  8
0
 10
3680.308079112121959
 20
195.3946911802123054
 30
0.0
 40
0.0550590270005809
 50
325.9366665126337921
 51
32.1191074641826972
  0
ARC
  5
3084B
  8
0
 10
3679.8252139290461855
 20
196.0345762069684952
 30
0.0
 40
0.0201111964834572
 50
84.3147472876799355
 51
181.8063232883322939
  0
ARC
  5
3084C
  8
0
 10
3679.8278984137778025
 20
196.0323398902856979
 30
0.0
 40
0.0222593534004068
 50
9.5268057379227447
 51
91.7820076672385454
  0
ARC
  5
3084D
  8
0
 10
3679.8270926085260726
 20
196.0381589244470035
 30
0.0
 40
0.022858080891165
 50
270.2847712026647855
 51
354.640849412045327
  0
ARC
  5
3084E
  8
0
 10
3679.8260178464311139
 20
196.0363058461838932
 30
0.0
 40
0.0210383102902863
 50
186.450557796473305
 51
273.2381349859177817
  0
ARC
  5
3084F
  8
0
 10
3679.8292676319138081
 20
196.0254535187534088
 30
0.0
 40
0.0781015297921497
 50
91.5124426136191289
 51
170.6577536589960005
  0
ARC
  5
30850
  8
0
 10
3679.8281426830708369
 20
196.0292425477092877
 30
0.0
 40
0.0742911940381561
 50
6.1074262041745468
 51
90.7222520103786536
  0
ARC
  5
30851
  8
0
 10
3679.8304955090511612
 20
196.0478393290478891
 30
0.0
 40
0.0723116391904934
 50
267.3928457869034787
 51
351.496489873699602
  0
ARC
  5
30852
  8
0
 10
3679.8219816810369593
 20
196.0455842825791137
 30
0.0
 40
0.0701764925088872
 50
186.096051782942709
 51
274.2695363531207136
  0
LINE
  5
30853
  8
0
 10
3679.7522020180408617
 20
196.0381318512291102
 30
0.0
 11
3679.754021311337965
 21
196.098296716426205
 31
0.0
  0
LINE
  5
30854
  8
0
 10
3679.9020122123802139
 20
196.0371466068752113
 30
0.0
 11
3679.9030322200801493
 21
196.097259502874806
 31
0.0
  0
ARC
  5
30855
  8
0
 10
3679.7961946205618915
 20
196.0669115212841973
 30
0.0
 40
0.0525701292085178
 50
143.3435358273837039
 51
213.1924466203977886
  0
ARC
  5
30856
  8
0
 10
3679.8316809995490075
 20
196.0315715448371066
 30
0.0
 40
0.1023878688940399
 50
92.5048654275097135
 51
139.3308421317682928
  0
ARC
  5
30857
  8
0
 10
3679.831119122725795
 20
196.0451248924698859
 30
0.0
 40
0.0888229203147584
 50
35.94086622615891
 51
92.5248612583152266
  0
ARC
  5
30858
  8
0
 10
3679.8564002712241745
 20
196.0679856613066079
 30
0.0
 40
0.0550590270005809
 50
325.9366665126337921
 51
32.1191074641826972
  0
ARC
  5
30859
  8
0
 10
3679.3826029976448808
 20
196.253640592299206
 30
0.0
 40
0.0201111964834572
 50
84.3147472876799355
 51
181.8063232883322939
  0
ARC
  5
3085A
  8
0
 10
3679.3852874823792263
 20
196.251404275616494
 30
0.0
 40
0.0222593534004068
 50
9.5268057379227447
 51
91.7820076672385454
  0
ARC
  5
3085B
  8
0
 10
3679.3844816771261321
 20
196.2572233097777996
 30
0.0
 40
0.022858080891165
 50
270.2847712026647855
 51
354.640849412045327
  0
ARC
  5
3085C
  8
0
 10
3679.3834069150311734
 20
196.255370231514604
 30
0.0
 40
0.0210383102902863
 50
186.450557796473305
 51
273.2381349859177817
  0
ARC
  5
3085D
  8
0
 10
3679.3866567005138677
 20
196.2445179040840912
 30
0.0
 40
0.0781015297921497
 50
91.5124426136191289
 51
170.6577536589960005
  0
ARC
  5
3085E
  8
0
 10
3679.385531751671806
 20
196.2483069330401122
 30
0.0
 40
0.0742911940381561
 50
6.1074262041745468
 51
90.7222520103786536
  0
ARC
  5
3085F
  8
0
 10
3679.3878845776521302
 20
196.2669037143787136
 30
0.0
 40
0.0723116391904934
 50
267.3928457869034787
 51
351.496489873699602
  0
ARC
  5
30860
  8
0
 10
3679.3793707496370189
 20
196.2646486679099098
 30
0.0
 40
0.0701764925088872
 50
186.096051782942709
 51
274.2695363531207136
  0
LINE
  5
30861
  8
0
 10
3679.3095910866409213
 20
196.2571962365599063
 30
0.0
 11
3679.3114103799380246
 21
196.3173611017568874
 31
0.0
  0
LINE
  5
30862
  8
0
 10
3679.4594012809798187
 20
196.2562109922058937
 30
0.0
 11
3679.4604212886811183
 21
196.3163238882054884
 31
0.0
  0
ARC
  5
30863
  8
0
 10
3679.353583689161951
 20
196.2859759066149934
 30
0.0
 40
0.0525701292085178
 50
143.3435358273837039
 51
213.1924466203977886
  0
ARC
  5
30864
  8
0
 10
3679.3890700681490671
 20
196.250635930167789
 30
0.0
 40
0.1023878688940399
 50
92.5048654275097135
 51
139.3308421317682928
  0
ARC
  5
30865
  8
0
 10
3679.3885081913249451
 20
196.2641892778007104
 30
0.0
 40
0.0888229203147584
 50
35.94086622615891
 51
92.5248612583152266
  0
ARC
  5
30866
  8
0
 10
3679.4137893398237793
 20
196.287050046637404
 30
0.0
 40
0.0550590270005809
 50
325.9366665126337921
 51
32.1191074641826972
  0
ARC
  5
30867
  8
0
 10
3678.9349457578960028
 20
196.4721786185671135
 30
0.0
 40
0.0201111964834572
 50
84.3147472876799355
 51
181.8063232883322939
  0
ARC
  5
30868
  8
0
 10
3678.937630242628984
 20
196.4699423018844016
 30
0.0
 40
0.0222593534004068
 50
9.5268057379227447
 51
91.7820076672385454
  0
ARC
  5
30869
  8
0
 10
3678.9368244373758898
 20
196.4757613360455935
 30
0.0
 40
0.022858080891165
 50
270.2847712026647855
 51
354.640849412045327
  0
ARC
  5
3086A
  8
0
 10
3678.9357496752809311
 20
196.4739082577825116
 30
0.0
 40
0.0210383102902863
 50
186.450557796473305
 51
273.2381349859177817
  0
ARC
  5
3086B
  8
0
 10
3678.9383502642131134
 20
196.481399723403797
 30
0.0
 40
0.0733808322219834
 50
88.8303403718099958
 51
180.0
  0
ARC
  5
3086C
  8
0
 10
3678.943262222022895
 20
196.4833704171556974
 30
0.0
 40
0.0714764297252481
 50
359.5297404232375129
 51
92.7377454684724256
  0
ARC
  5
3086D
  8
0
 10
3678.9389703563069816
 20
196.4892162407267051
 30
0.0
 40
0.0760384533703567
 50
268.4684503122169872
 51
355.1472695568012909
  0
ARC
  5
3086E
  8
0
 10
3678.9371163360888204
 20
196.4854661425580105
 30
0.0
 40
0.0722614111104802
 50
183.2259513901784089
 51
269.8586343929981126
  0
LINE
  5
3086F
  8
0
 10
3678.864969431991085
 20
196.481399723403797
 30
0.0
 11
3678.8636172475798958
 21
196.5441271955733953
 31
0.0
  0
LINE
  5
30870
  8
0
 10
3679.0147362442799022
 20
196.4827837753736901
 30
0.0
 11
3679.0167558588800603
 21
196.5439988679733858
 31
0.0
  0
ARC
  5
30871
  8
0
 10
3678.9208184758449534
 20
196.5139819432747004
 30
0.0
 40
0.0646584623319817
 50
152.2106087414483113
 51
210.2592010616077971
  0
ARC
  5
30872
  8
0
 10
3678.9399320571360477
 20
196.5033726401875072
 30
0.0
 40
0.0865152237594968
 50
90.0555442574936933
 51
151.8963534475163897
  0
ARC
  5
30873
  8
0
 10
3678.9420627136410076
 20
196.5062080142550087
 30
0.0
 40
0.0837091068548046
 50
26.8370420847872992
 51
91.5159384464827355
  0
ARC
  5
30874
  8
0
 10
3678.9420909756408946
 20
196.5158213574769093
 30
0.0
 40
0.0798048675642774
 50
335.5449305228174239
 51
20.6758238459793411
  0
LINE
  5
30875
  8
0
 10
3679.028752837016782
 20
195.0378709893240057
 30
0.0
 11
3679.0288219561398364
 21
195.1651080919997128
 31
0.0
  0
LINE
  5
30876
  8
0
 10
3679.0385613558810292
 20
195.0647497454804125
 30
0.0
 11
3679.0385613558810292
 21
195.154623024808302
 31
0.0
  0
ARC
  5
30877
  8
0
 10
3679.0283643907278019
 20
195.1539001570079108
 30
0.0
 40
0.0102225552671106
 50
4.0549419992339173
 51
63.7192913533132383
  0
LINE
  5
30878
  8
0
 10
3679.0328906245799772
 20
195.1630660635804873
 30
0.0
 11
3678.9465331468809381
 21
195.2064081117804903
 31
0.0
  0
LINE
  5
30879
  8
0
 10
3678.9398481866810471
 20
194.9913937022921004
 30
0.0
 11
3679.028752837016782
 21
195.0378709893240057
 31
0.0
  0
LINE
  5
3087A
  8
0
 10
3678.9398481866810471
 20
195.1762359164206941
 30
0.0
 11
3679.0288033808851651
 21
195.1309140591893936
 31
0.0
  0
ARC
  5
3087B
  8
0
 10
3679.0283643907278019
 20
195.0654726132808037
 30
0.0
 40
0.0102225552671106
 50
272.2306805316354144
 51
355.945058000766096
  0
ARC
  5
3087C
  8
0
 10
3678.9385915849520643
 20
195.0774954974326931
 30
0.0
 40
0.0260821343565964
 50
87.2384983094183468
 51
185.168353897772505
  0
ARC
  5
3087D
  8
0
 10
3678.9415234460038846
 20
195.0777433978662998
 30
0.0
 40
0.0258582695715078
 50
359.1953265816595717
 51
93.7145780951834553
  0
ARC
  5
3087E
  8
0
 10
3678.9410622884170152
 20
195.0806750242363137
 30
0.0
 40
0.0265223217029157
 50
267.3762770868167991
 51
352.8639151066620911
  0
ARC
  5
3087F
  8
0
 10
3678.9385839137421499
 20
195.0807077359569064
 30
0.0
 40
0.0265573403068198
 50
192.0886836895402894
 51
272.7286200788429937
  0
LINE
  5
30880
  8
0
 10
3678.8509435363430384
 20
195.0378709893240057
 30
0.0
 11
3678.8508744172208935
 21
195.1651080919997128
 31
0.0
  0
LINE
  5
30881
  8
0
 10
3678.841135017481065
 20
195.0647497454804125
 30
0.0
 11
3678.841135017481065
 21
195.154623024808302
 31
0.0
  0
ARC
  5
30882
  8
0
 10
3678.851331982632928
 20
195.1539001570079108
 30
0.0
 40
0.0102225552671106
 50
116.2807086466859943
 51
175.9450580007660108
  0
LINE
  5
30883
  8
0
 10
3678.8468057487812075
 20
195.1630660635804873
 30
0.0
 11
3678.933163226481156
 21
195.2064081117804903
 31
0.0
  0
LINE
  5
30884
  8
0
 10
3678.9398481866810471
 20
194.9913937022921004
 30
0.0
 11
3678.8509435363430384
 21
195.0378709893240057
 31
0.0
  0
LINE
  5
30885
  8
0
 10
3678.9398481866810471
 20
195.1762359164206941
 30
0.0
 11
3678.8508929924751101
 21
195.1309140591893936
 31
0.0
  0
ARC
  5
30886
  8
0
 10
3678.851331982632928
 20
195.0654726132808037
 30
0.0
 40
0.0102225552671106
 50
184.054941999233904
 51
267.769319468364472
  0
ARC
  5
30887
  8
0
 10
3678.9398481866810471
 20
195.193332600733811
 30
0.0
 40
0.0146852879442696
 50
62.9212452507376625
 51
117.078754749262302
  0
LINE
  5
30888
  8
0
 10
3679.028752837016782
 20
194.8066014414879987
 30
0.0
 11
3679.0288219561398364
 21
194.9338385441635921
 31
0.0
  0
LINE
  5
30889
  8
0
 10
3679.0385613558810292
 20
194.8334801976444055
 30
0.0
 11
3679.0385613558810292
 21
194.9233534769722098
 31
0.0
  0
ARC
  5
3088A
  8
0
 10
3679.0283643907278019
 20
194.9226306091719039
 30
0.0
 40
0.0102225552671106
 50
4.0549419992339173
 51
63.7192913533132383
  0
LINE
  5
3088B
  8
0
 10
3679.0328906245799772
 20
194.931796515744395
 30
0.0
 11
3678.9465331468809381
 21
194.9751385639443981
 31
0.0
  0
LINE
  5
3088C
  8
0
 10
3678.9398481866810471
 20
194.7601241544558945
 30
0.0
 11
3679.028752837016782
 21
194.8066014414879987
 31
0.0
  0
LINE
  5
3088D
  8
0
 10
3678.9398481866810471
 20
194.9449663685846019
 30
0.0
 11
3679.0288033808851651
 21
194.8996445113533014
 31
0.0
  0
ARC
  5
3088E
  8
0
 10
3679.0283643907278019
 20
194.8342030654447967
 30
0.0
 40
0.0102225552671106
 50
272.2306805316354144
 51
355.945058000766096
  0
ARC
  5
3088F
  8
0
 10
3678.9385915849520643
 20
194.8462259495964872
 30
0.0
 40
0.0260821343565964
 50
87.2384983094183468
 51
185.168353897772505
  0
ARC
  5
30890
  8
0
 10
3678.9415234460038846
 20
194.8464738500302076
 30
0.0
 40
0.0258582695715078
 50
359.1953265816595717
 51
93.7145780951834553
  0
ARC
  5
30891
  8
0
 10
3678.9410622884170152
 20
194.849405476400193
 30
0.0
 40
0.0265223217029157
 50
267.3762770868167991
 51
352.8639151066620911
  0
ARC
  5
30892
  8
0
 10
3678.9385839137421499
 20
194.8494381881208142
 30
0.0
 40
0.0265573403068198
 50
192.0886836895402894
 51
272.7286200788429937
  0
LINE
  5
30893
  8
0
 10
3678.8509435363430384
 20
194.8066014414879987
 30
0.0
 11
3678.8508744172208935
 21
194.9338385441635921
 31
0.0
  0
LINE
  5
30894
  8
0
 10
3678.841135017481065
 20
194.8334801976444055
 30
0.0
 11
3678.841135017481065
 21
194.9233534769722098
 31
0.0
  0
ARC
  5
30895
  8
0
 10
3678.851331982632928
 20
194.9226306091719039
 30
0.0
 40
0.0102225552671106
 50
116.2807086466859943
 51
175.9450580007660108
  0
LINE
  5
30896
  8
0
 10
3678.8468057487812075
 20
194.931796515744395
 30
0.0
 11
3678.933163226481156
 21
194.9751385639443981
 31
0.0
  0
LINE
  5
30897
  8
0
 10
3678.9398481866810471
 20
194.7601241544558945
 30
0.0
 11
3678.8509435363430384
 21
194.8066014414879987
 31
0.0
  0
LINE
  5
30898
  8
0
 10
3678.9398481866810471
 20
194.9449663685846019
 30
0.0
 11
3678.8508929924751101
 21
194.8996445113533014
 31
0.0
  0
ARC
  5
30899
  8
0
 10
3678.851331982632928
 20
194.8342030654447967
 30
0.0
 40
0.0102225552671106
 50
184.054941999233904
 51
267.769319468364472
  0
ARC
  5
3089A
  8
0
 10
3678.9398481866810471
 20
194.962063052897804
 30
0.0
 40
0.0146852879442696
 50
62.9212452507376625
 51
117.078754749262302
  0
LINE
  5
3089B
  8
0
 10
3679.028752837016782
 20
194.5806768286767863
 30
0.0
 11
3679.0288219561398364
 21
194.7079139313526071
 31
0.0
  0
LINE
  5
3089C
  8
0
 10
3679.0385613558810292
 20
194.607555584833392
 30
0.0
 11
3679.0385613558810292
 21
194.6974288641611111
 31
0.0
  0
ARC
  5
3089D
  8
0
 10
3679.0283643907278019
 20
194.6967059963608051
 30
0.0
 40
0.0102225552671106
 50
4.0549419992339173
 51
63.7192913533132383
  0
LINE
  5
3089E
  8
0
 10
3679.0328906245799772
 20
194.7058719029332963
 30
0.0
 11
3678.9465331468809381
 21
194.7492139511332994
 31
0.0
  0
LINE
  5
3089F
  8
0
 10
3678.9398481866810471
 20
194.5341995416447958
 30
0.0
 11
3679.028752837016782
 21
194.5806768286767863
 31
0.0
  0
LINE
  5
308A0
  8
0
 10
3678.9398481866810471
 20
194.7190417557735884
 30
0.0
 11
3679.0288033808851651
 21
194.6737198985422879
 31
0.0
  0
ARC
  5
308A1
  8
0
 10
3679.0283643907278019
 20
194.6082784526336127
 30
0.0
 40
0.0102225552671106
 50
272.2306805316354144
 51
355.945058000766096
  0
ARC
  5
308A2
  8
0
 10
3678.9385915849520643
 20
194.6291013888584871
 30
0.0
 40
0.0260821343565964
 50
87.2384983094183468
 51
185.168353897772505
  0
ARC
  5
308A3
  8
0
 10
3678.9415234460038846
 20
194.6293492892920938
 30
0.0
 40
0.0258582695715078
 50
359.1953265816595717
 51
93.7145780951834553
  0
ARC
  5
308A4
  8
0
 10
3678.9410622884170152
 20
194.6322809156621929
 30
0.0
 40
0.0265223217029157
 50
267.3762770868167991
 51
352.8639151066620911
  0
ARC
  5
308A5
  8
0
 10
3678.9385839137421499
 20
194.6323136273828993
 30
0.0
 40
0.0265573403068198
 50
192.0886836895402894
 51
272.7286200788429937
  0
LINE
  5
308A6
  8
0
 10
3678.8509435363430384
 20
194.5806768286767863
 30
0.0
 11
3678.8508744172208935
 21
194.7079139313526071
 31
0.0
  0
LINE
  5
308A7
  8
0
 10
3678.841135017481065
 20
194.607555584833392
 30
0.0
 11
3678.841135017481065
 21
194.6974288641611111
 31
0.0
  0
ARC
  5
308A8
  8
0
 10
3678.851331982632928
 20
194.6967059963608051
 30
0.0
 40
0.0102225552671106
 50
116.2807086466859943
 51
175.9450580007660108
  0
LINE
  5
308A9
  8
0
 10
3678.8468057487812075
 20
194.7058719029332963
 30
0.0
 11
3678.933163226481156
 21
194.7492139511332994
 31
0.0
  0
LINE
  5
308AA
  8
0
 10
3678.9398481866810471
 20
194.5341995416447958
 30
0.0
 11
3678.8509435363430384
 21
194.5806768286767863
 31
0.0
  0
LINE
  5
308AB
  8
0
 10
3678.9398481866810471
 20
194.7190417557735884
 30
0.0
 11
3678.8508929924751101
 21
194.6737198985422879
 31
0.0
  0
ARC
  5
308AC
  8
0
 10
3678.851331982632928
 20
194.6082784526336127
 30
0.0
 40
0.0102225552671106
 50
184.054941999233904
 51
267.769319468364472
  0
ARC
  5
308AD
  8
0
 10
3678.9398481866810471
 20
194.7361384400867053
 30
0.0
 40
0.0146852879442696
 50
62.9212452507376625
 51
117.078754749262302
  0
LINE
  5
308AE
  8
0
 10
3678.8066752709169123
 20
194.4852906336645049
 30
0.0
 11
3678.8067443900390572
 21
194.6125277363402972
 31
0.0
  0
LINE
  5
308AF
  8
0
 10
3678.8164837897797952
 20
194.5121693898211106
 30
0.0
 11
3678.8164837897797952
 21
194.6020426691488012
 31
0.0
  0
ARC
  5
308B0
  8
0
 10
3678.8062868246270227
 20
194.601319801348609
 30
0.0
 40
0.0102225552671106
 50
4.0549419992339173
 51
63.7192913533132383
  0
LINE
  5
308B1
  8
0
 10
3678.8108130584801074
 20
194.6104857079209864
 30
0.0
 11
3678.7244555807801589
 21
194.6538277561209895
 31
0.0
  0
LINE
  5
308B2
  8
0
 10
3678.7177706205798131
 20
194.4388133466324859
 30
0.0
 11
3678.8066752709169123
 21
194.4852906336645049
 31
0.0
  0
LINE
  5
308B3
  8
0
 10
3678.7177706205798131
 20
194.623655560761307
 30
0.0
 11
3678.8067258147848406
 21
194.5783337035300065
 31
0.0
  0
ARC
  5
308B4
  8
0
 10
3678.8062868246270227
 20
194.5128922576213029
 30
0.0
 40
0.0102225552671106
 50
272.2306805316354144
 51
355.945058000766096
  0
ARC
  5
308B5
  8
0
 10
3678.7165140188521946
 20
194.5202884034588919
 30
0.0
 40
0.0260821343565964
 50
87.2384983094183468
 51
185.168353897772505
  0
ARC
  5
308B6
  8
0
 10
3678.7194458799040149
 20
194.5205363038926123
 30
0.0
 40
0.0258582695715078
 50
359.1953265816595717
 51
93.7145780951834553
  0
ARC
  5
308B7
  8
0
 10
3678.7189847223171455
 20
194.5234679302625977
 30
0.0
 40
0.0265223217029157
 50
267.3762770868167991
 51
352.8639151066620911
  0
ARC
  5
308B8
  8
0
 10
3678.7165063476431897
 20
194.5235006419833041
 30
0.0
 40
0.0265573403068198
 50
192.0886836895402894
 51
272.7286200788429937
  0
LINE
  5
308B9
  8
0
 10
3678.6288659702440782
 20
194.4852906336645049
 30
0.0
 11
3678.6287968511210238
 21
194.6125277363402972
 31
0.0
  0
LINE
  5
308BA
  8
0
 10
3678.619057451379831
 20
194.5121693898211106
 30
0.0
 11
3678.619057451379831
 21
194.6020426691488012
 31
0.0
  0
ARC
  5
308BB
  8
0
 10
3678.6292544165330582
 20
194.601319801348609
 30
0.0
 40
0.0102225552671106
 50
116.2807086466859943
 51
175.9450580007660108
  0
LINE
  5
308BC
  8
0
 10
3678.6247281826799735
 20
194.6104857079209864
 30
0.0
 11
3678.711085660379922
 21
194.6538277561209895
 31
0.0
  0
LINE
  5
308BD
  8
0
 10
3678.7177706205798131
 20
194.4388133466324859
 30
0.0
 11
3678.6288659702440782
 21
194.4852906336645049
 31
0.0
  0
LINE
  5
308BE
  8
0
 10
3678.7177706205798131
 20
194.623655560761307
 30
0.0
 11
3678.6288154263747856
 21
194.5783337035300065
 31
0.0
  0
ARC
  5
308BF
  8
0
 10
3678.6292544165330582
 20
194.5128922576213029
 30
0.0
 40
0.0102225552671106
 50
184.054941999233904
 51
267.769319468364472
  0
ARC
  5
308C0
  8
0
 10
3678.7177706205798131
 20
194.6407522450745091
 30
0.0
 40
0.0146852879442696
 50
62.9212452507376625
 51
117.078754749262302
  0
LINE
  5
308C1
  8
0
 10
3678.8066752709169123
 20
195.1503729223339008
 30
0.0
 11
3678.8067443900390572
 21
195.2776100250094942
 31
0.0
  0
LINE
  5
308C2
  8
0
 10
3678.8164837897797952
 20
195.1772516784903075
 30
0.0
 11
3678.8164837897797952
 21
195.2671249578181119
 31
0.0
  0
ARC
  5
308C3
  8
0
 10
3678.8062868246270227
 20
195.2664020900176922
 30
0.0
 40
0.0102225552671106
 50
4.0549419992339173
 51
63.7192913533132383
  0
LINE
  5
308C4
  8
0
 10
3678.8108130584801074
 20
195.2755679965904108
 30
0.0
 11
3678.7244555807801589
 21
195.3189100447903002
 31
0.0
  0
LINE
  5
308C5
  8
0
 10
3678.7177706205798131
 20
195.1038956353017966
 30
0.0
 11
3678.8066752709169123
 21
195.1503729223339008
 31
0.0
  0
LINE
  5
308C6
  8
0
 10
3678.7177706205798131
 20
195.288737849430504
 30
0.0
 11
3678.8067258147848406
 21
195.2434159921992887
 31
0.0
  0
ARC
  5
308C7
  8
0
 10
3678.8062868246270227
 20
195.1779745462906988
 30
0.0
 40
0.0102225552671106
 50
272.2306805316354144
 51
355.945058000766096
  0
ARC
  5
308C8
  8
0
 10
3678.7165140188521946
 20
195.1899974304423893
 30
0.0
 40
0.0260821343565964
 50
87.2384983094183468
 51
185.168353897772505
  0
ARC
  5
308C9
  8
0
 10
3678.7194458799040149
 20
195.1902453308759959
 30
0.0
 40
0.0258582695715078
 50
359.1953265816595717
 51
93.7145780951834553
  0
ARC
  5
308CA
  8
0
 10
3678.7189847223171455
 20
195.1931769572462088
 30
0.0
 40
0.0265223217029157
 50
267.3762770868167991
 51
352.8639151066620911
  0
ARC
  5
308CB
  8
0
 10
3678.7165063476431897
 20
195.1932096689666878
 30
0.0
 40
0.0265573403068198
 50
192.0886836895402894
 51
272.7286200788429937
  0
LINE
  5
308CC
  8
0
 10
3678.6288659702440782
 20
195.1503729223339008
 30
0.0
 11
3678.6287968511210238
 21
195.2776100250094942
 31
0.0
  0
LINE
  5
308CD
  8
0
 10
3678.619057451379831
 20
195.1772516784903075
 30
0.0
 11
3678.619057451379831
 21
195.2671249578181119
 31
0.0
  0
ARC
  5
308CE
  8
0
 10
3678.6292544165330582
 20
195.2664020900176922
 30
0.0
 40
0.0102225552671106
 50
116.2807086466859943
 51
175.9450580007660108
  0
LINE
  5
308CF
  8
0
 10
3678.6247281826799735
 20
195.2755679965904108
 30
0.0
 11
3678.711085660379922
 21
195.3189100447903002
 31
0.0
  0
LINE
  5
308D0
  8
0
 10
3678.7177706205798131
 20
195.1038956353017966
 30
0.0
 11
3678.6288659702440782
 21
195.1503729223339008
 31
0.0
  0
LINE
  5
308D1
  8
0
 10
3678.7177706205798131
 20
195.288737849430504
 30
0.0
 11
3678.6288154263747856
 21
195.2434159921992887
 31
0.0
  0
ARC
  5
308D2
  8
0
 10
3678.6292544165330582
 20
195.1779745462906988
 30
0.0
 40
0.0102225552671106
 50
184.054941999233904
 51
267.769319468364472
  0
ARC
  5
308D3
  8
0
 10
3678.7177706205798131
 20
195.3058345337437061
 30
0.0
 40
0.0146852879442696
 50
62.9212452507376625
 51
117.078754749262302
  0
LINE
  5
308D4
  8
0
 10
3680.5025899244778884
 20
195.2353261345870976
 30
0.0
 11
3680.3339350921651203
 21
195.3240493161945892
 31
0.0
  0
LINE
  5
308D5
  8
0
 10
3680.195407428991075
 20
195.3969236883600047
 30
0.0
 11
3679.8805872347538752
 21
195.5625391580383052
 31
0.0
  0
LINE
  5
308D6
  8
0
 10
3679.7652957364839494
 20
195.6009408043242104
 30
0.0
 11
3679.4383520538158336
 21
195.772934000931599
 31
0.0
  0
LINE
  5
308D7
  8
0
 10
3679.3282413863821603
 20
195.8133423510516025
 30
0.0
 11
3678.9916005588620465
 21
195.9904368633582123
 31
0.0
  0
LINE
  5
308D8
  8
0
 10
3678.8878717309889907
 20
196.061012401978104
 30
0.0
 11
3678.5569674371117799
 21
196.2350891322905966
 31
0.0
  0
LINE
  5
308D9
  8
0
 10
3680.5148851507528889
 20
194.7833228969182073
 30
0.0
 11
3680.326247974072885
 21
194.8803486459530063
 31
0.0
  0
LINE
  5
308DA
  8
0
 10
3680.1902137301881339
 20
194.9503180159344993
 30
0.0
 11
3679.8840815624448624
 21
195.1077774489147885
 31
0.0
  0
LINE
  5
308DB
  8
0
 10
3679.7659446443381057
 20
195.1279703419342013
 30
0.0
 11
3679.4335678541970083
 21
195.2989287266640872
 31
0.0
  0
LINE
  5
308DC
  8
0
 10
3679.3222302184099135
 20
195.3326726467738013
 30
0.0
 11
3678.9773414414498802
 21
195.5100665863319023
 31
0.0
  0
LINE
  5
308DD
  8
0
 10
3678.8784585031371535
 20
195.581238026836786
 30
0.0
 11
3678.5535541579379242
 21
195.7483529509069911
 31
0.0
  0
LINE
  5
308DE
  8
0
 10
3679.1601058513679163
 20
196.6266908996664995
 30
0.0
 11
3679.0152811726020445
 21
196.5467822898235966
 31
0.0
  0
LINE
  5
308DF
  8
0
 10
3679.6300759021760314
 20
196.4216684925391121
 30
0.0
 11
3679.4546504074642144
 21
196.3234743384601018
 31
0.0
  0
LINE
  5
308E0
  8
0
 10
3679.3184913000532106
 20
196.2297426122869126
 30
0.0
 11
3679.0012430617521204
 21
196.0521633930036103
 31
0.0
  0
LINE
  5
308E1
  8
0
 10
3678.8873593722300939
 20
196.0037546997320135
 30
0.0
 11
3678.8873512848240352
 21
196.0037501728189966
 31
0.0
  0
LINE
  5
308E2
  8
0
 10
3678.8864144819422108
 20
196.0032257988297033
 30
0.0
 11
3678.5588657663820413
 21
195.8198809030538996
 31
0.0
  0
LINE
  5
308E3
  8
0
 10
3679.9875767917901612
 20
196.1501506285532912
 30
0.0
 11
3679.9000790668278569
 21
196.1011073654638039
 31
0.0
  0
LINE
  5
308E4
  8
0
 10
3679.7626678117972006
 20
196.0080795493232131
 30
0.0
 11
3679.4385611940811032
 21
195.826414870286186
 31
0.0
  0
LINE
  5
308E5
  8
0
 10
3679.3308696695758044
 20
195.7538678934780876
 30
0.0
 11
3679.0047724632090649
 21
195.5710874715690011
 31
0.0
  0
LINE
  5
308E6
  8
0
 10
3678.8935925487821805
 20
195.5247776977238061
 30
0.0
 11
3678.6004588810387759
 21
195.3604736361749872
 31
0.0
  0
LINE
  5
308E7
  8
0
 10
3680.246462112008885
 20
195.847863044910298
 30
0.0
 11
3679.8860171588808043
 21
195.6302589027737042
 31
0.0
  0
LINE
  5
308E8
  8
0
 10
3679.7839097390801726
 20
195.5526055020328045
 30
0.0
 11
3679.4459843484528392
 21
195.3628299569838873
 31
0.0
  0
LINE
  5
308E9
  8
0
 10
3679.3355798795510054
 20
195.3008279031498091
 30
0.0
 11
3679.0385613558810292
 21
195.1340252485325095
 31
0.0
  0
LINE
  5
308EA
  8
0
 10
3680.4289869217991509
 20
194.4244093515690963
 30
0.0
 11
3680.3474819577731978
 21
194.4624773720886992
 31
0.0
  0
LINE
  5
308EB
  8
0
 10
3680.2147688392660712
 20
194.5485378892497863
 30
0.0
 11
3679.8912376149951342
 21
194.6996476214164886
 31
0.0
  0
LINE
  5
308EC
  8
0
 10
3679.774052480815044
 20
194.7304857510073077
 30
0.0
 11
3679.4443152503909005
 21
194.8844940841657092
 31
0.0
  0
LINE
  5
308ED
  8
0
 10
3679.3246845580529225
 20
194.9162942333329909
 30
0.0
 11
3679.0287618753068273
 21
195.0545090144026119
 31
0.0
  0
LINE
  5
308EE
  8
0
 10
3680.4439187385651167
 20
195.4619759619396007
 30
0.0
 11
3680.3591138334409152
 21
195.4153540375677949
 31
0.0
  0
LINE
  5
308EF
  8
0
 10
3680.2138903169498008
 20
195.3355166768282913
 30
0.0
 11
3679.8894674721182128
 21
195.1571635814007948
 31
0.0
  0
LINE
  5
308F0
  8
0
 10
3679.7768550896798843
 20
195.1017768947019988
 30
0.0
 11
3679.4447882568010755
 21
194.9192214782875112
 31
0.0
  0
LINE
  5
308F1
  8
0
 10
3679.3339146287430594
 20
194.858268141984496
 30
0.0
 11
3679.0385613558810292
 21
194.6958961903829106
 31
0.0
  0
LINE
  5
308F2
  8
0
 10
3680.2438607240351303
 20
194.0659637440261918
 30
0.0
 11
3679.8835040736789779
 21
194.2343819034194041
 31
0.0
  0
LINE
  5
308F3
  8
0
 10
3679.7673180614810917
 20
194.2509632796486869
 30
0.0
 11
3679.4303942507440297
 21
194.4084297451736916
 31
0.0
  0
LINE
  5
308F4
  8
0
 10
3679.3255245890941296
 20
194.479068674428305
 30
0.0
 11
3679.0385613558810292
 21
194.6131853044491891
 31
0.0
  0
LINE
  5
308F5
  8
0
 10
3680.5246617608718225
 20
195.0355334054434877
 30
0.0
 11
3680.3578791983732117
 21
194.9497364460565052
 31
0.0
  0
LINE
  5
308F6
  8
0
 10
3680.2074940983261513
 20
194.8964497555004129
 30
0.0
 11
3679.8850346773378988
 21
194.7305688778351964
 31
0.0
  0
LINE
  5
308F7
  8
0
 10
3679.775422892143979
 20
194.6711656554437866
 30
0.0
 11
3679.4331198742311244
 21
194.4950767545059875
 31
0.0
  0
LINE
  5
308F8
  8
0
 10
3679.3540473638081494
 20
194.3931081122871092
 30
0.0
 11
3678.9963831473678511
 21
194.2091170415631893
 31
0.0
  0
LINE
  5
308F9
  8
0
 10
3678.8898669830000472
 20
194.1920424891600021
 30
0.0
 11
3678.5628798841471507
 21
194.0238324651612061
 31
0.0
  0
LINE
  5
308FA
  8
0
 10
3680.47118872641704
 20
194.5576403880145051
 30
0.0
 11
3680.3599304574299822
 21
194.5016607974540079
 31
0.0
  0
LINE
  5
308FB
  8
0
 10
3680.2056818560940883
 20
194.4573933079120991
 30
0.0
 11
3679.8837280425650533
 21
194.2954022682799859
 31
0.0
  0
LINE
  5
308FC
  8
0
 10
3679.7885261507940413
 20
194.2086979655325081
 30
0.0
 11
3679.4482782499799214
 21
194.0375022571132035
 31
0.0
  0
LINE
  5
308FD
  8
0
 10
3679.3319006788228762
 20
194.0005733884580934
 30
0.0
 11
3679.0036172327418171
 21
193.8353975946332923
 31
0.0
  0
LINE
  5
308FE
  8
0
 10
3678.8871613990368132
 20
193.7917115192447
 30
0.0
 11
3678.5549296886429147
 21
193.6245491564957888
 31
0.0
  0
LINE
  5
308FF
  8
0
 10
3680.2361596835630735
 20
194.054880960602901
 30
0.0
 11
3679.9037328018930566
 21
193.8836277845381062
 31
0.0
  0
LINE
  5
30900
  8
0
 10
3679.7572430442810401
 20
193.808162057680704
 30
0.0
 11
3679.4565676074339535
 21
193.6532659696567009
 31
0.0
  0
LINE
  5
30901
  8
0
 10
3679.3114801248188996
 20
193.5785226393929861
 30
0.0
 11
3679.0158797407689235
 21
193.4262410177614129
 31
0.0
  0
LINE
  5
30902
  8
0
 10
3678.8690187696020075
 20
193.3505840563682057
 30
0.0
 11
3678.5872075131360361
 21
193.2054060476640132
 31
0.0
  0
LINE
  5
30903
  8
0
 10
3680.190932513683947
 20
195.9237472982950976
 30
0.0
 11
3679.8909724531072243
 21
196.0081970233615039
 31
0.0
  0
LINE
  5
30904
  8
0
 10
3679.7440403581349528
 20
196.073510869411507
 30
0.0
 11
3679.4521405730902188
 21
196.2337353527584867
 31
0.0
  0
LINE
  5
30905
  8
0
 10
3679.3022418161340283
 20
196.2972732761718078
 30
0.0
 11
3679.0085262232460082
 21
196.4584944607445891
 31
0.0
  0
LINE
  5
30906
  8
0
 10
3679.9752674847650269
 20
193.7594159538842007
 30
0.0
 11
3679.89550887357791
 21
193.7976191574198879
 31
0.0
  0
LINE
  5
30907
  8
0
 10
3679.7454940368011194
 20
193.854565391818312
 30
0.0
 11
3679.4386387604367883
 21
194.0015445631520095
 31
0.0
  0
LINE
  5
30908
  8
0
 10
3679.3226255300228331
 20
194.0198963748291874
 30
0.0
 11
3678.9868455597861612
 21
194.1807300497810047
 31
0.0
  0
LINE
  5
30909
  8
0
 10
3678.8797509116079709
 20
194.2469354831272881
 30
0.0
 11
3678.5906575573421833
 21
194.385406954602189
 31
0.0
  0
LINE
  5
3090A
  8
0
 10
3679.6239155303260304
 20
193.499836299496593
 30
0.0
 11
3679.4568510564658936
 21
193.5777914938701088
 31
0.0
  0
LINE
  5
3090B
  8
0
 10
3679.3092717881841054
 20
193.6466545518175906
 30
0.0
 11
3678.9961147590997825
 21
193.7927790779218071
 31
0.0
  0
LINE
  5
3090C
  8
0
 10
3678.8846864270708465
 20
193.8447734791332095
 30
0.0
 11
3678.5567340120051085
 21
193.9978017901260046
 31
0.0
  0
LINE
  5
3090D
  8
0
 10
3679.1435432945409048
 20
193.2955048195534005
 30
0.0
 11
3679.0130910030939049
 21
193.3563615638325075
 31
0.0
  0
LINE
  5
3090E
  8
0
 10
3678.8658391962658243
 20
193.4250553786623072
 30
0.0
 11
3678.5594428861490996
 21
193.567991019624202
 31
0.0
  0
LINE
  5
3090F
  8
0
 10
3680.2912567592329651
 20
195.4602496397710922
 30
0.0
 11
3680.2863836925880605
 21
195.7882082270392061
 31
0.0
  0
LINE
  5
30910
  8
0
 10
3680.2846508802990684
 20
195.3022756293343036
 30
0.0
 11
3680.2872294893400067
 21
195.0194164915980082
 31
0.0
  0
LINE
  5
30911
  8
0
 10
3680.2737489623468718
 20
194.5720845718836927
 30
0.0
 11
3680.2735636321781385
 21
194.8610871070115138
 31
0.0
  0
LINE
  5
30912
  8
0
 10
3680.2763395963161202
 20
194.4139210540772069
 30
0.0
 11
3680.2857550736630401
 21
194.1300267769507002
 31
0.0
  0
LINE
  5
30913
  8
0
 10
3678.8677687331560264
 20
196.5510941093006068
 30
0.0
 11
3678.5617833918881843
 21
196.7190501878187092
 31
0.0
  0
LINE
  5
30914
  8
0
 10
3678.8677090957971814
 20
196.4653577728867049
 30
0.0
 11
3678.5582630615849666
 21
196.2946175190431006
 31
0.0
  0
LINE
  5
30915
  8
0
 10
3678.6207682882541121
 20
195.272101762202908
 30
0.0
 11
3678.5971645326258113
 21
195.2854213593977875
 31
0.0
  0
LINE
  5
30916
  8
0
 10
3678.6221419639327905
 20
194.5055496658318077
 30
0.0
 11
3678.5981537199431841
 21
194.4946886836424085
 31
0.0
  0
LINE
  5
30917
  8
0
 10
3678.8164837897797952
 20
194.5883491271688968
 30
0.0
 11
3678.8442195300322055
 21
194.6009358608440891
 31
0.0
  0
LINE
  5
30918
  8
0
 10
3678.9398481866810471
 20
194.7508237280308947
 30
0.0
 11
3678.9398481866810471
 21
194.7601241544558945
 31
0.0
  0
LINE
  5
30919
  8
0
 10
3678.9398481866810471
 20
194.9767483408421072
 30
0.0
 11
3678.9398481866810471
 21
194.9913937022921004
 31
0.0
  0
LINE
  5
3091A
  8
0
 10
3678.8428458543539818
 20
195.1595998291930982
 30
0.0
 11
3678.8143097621991728
 21
195.1716394765267069
 31
0.0
  0
ARC
  5
3091B
  8
0
 10
3679.1206883666150134
 20
192.854210607674986
 30
0.0
 40
0.3169501764142856
 50
100.1477453012409029
 51
119.1385691690292958
  0
ARC
  5
3091C
  8
0
 10
3678.5061621955042028
 20
192.6334118905355979
 30
0.0
 40
0.3933781291395472
 50
268.8156418693699834
 51
306.2182625057018868
  0
ARC
  5
3091D
  8
0
 10
3678.5053174775380285
 20
195.473716678784001
 30
0.0
 40
2.269788337528897
 50
271.4095265807516739
 51
294.9993884990411743
  0
ARC
  5
3091E
  8
0
 10
3678.6219210949971057
 20
195.2236524463152136
 30
0.0
 40
1.9938743582436309
 50
294.9993884990411743
 51
320.5436640696497079
  0
ARC
  5
3091F
  8
0
 10
3678.9251870739731203
 20
194.974047183774303
 30
0.0
 40
1.6010982883365801
 50
320.5436640696497079
 51
356.3749435407943906
  0
ARC
  5
30920
  8
0
 10
3679.0062909564530855
 20
194.9689089504566937
 30
0.0
 40
1.5198318057310509
 50
356.3749435407943906
 51
33.2828744807085286
  0
ARC
  5
30921
  8
0
 10
3678.6119986526618959
 20
194.7100759886589003
 30
0.0
 40
1.991489438916205
 50
33.2828744807085286
 51
64.3431327632421102
  0
ARC
  5
30922
  8
0
 10
3678.5483083777098727
 20
194.5774820193491053
 30
0.0
 40
2.1385867258414408
 50
64.3431327632421102
 51
83.2521199704090691
  0
ARC
  5
30923
  8
0
 10
3678.4742712878269231
 20
193.9517474517301991
 30
0.0
 40
2.7686861146617092
 50
83.2521199704090691
 51
89.4982682696575012
  0
LINE
  5
30924
  8
0
 10
3678.5043135456498931
 20
196.3218437829729908
 30
0.0
 11
3678.5043135456498931
 21
196.7202705714215085
 31
0.0
  0
LINE
  5
30925
  8
0
 10
3676.1927616650091295
 20
177.4110810571964123
 30
0.0
 11
3676.9407931610098785
 21
177.4110810571964123
 31
0.0
  0
LINE
  5
30926
  8
0
 10
3676.2150057594599275
 20
177.4110810571964123
 30
0.0
 11
3676.2094196918601483
 21
177.4140078936964073
 31
0.0
  0
LINE
  5
30927
  8
0
 10
3676.2094196918601483
 20
177.4140078936964073
 30
0.0
 11
3676.2032947547168078
 21
177.4150018341541966
 31
0.0
  0
LINE
  5
30928
  8
0
 10
3676.9241351341588597
 20
177.4140078936964073
 30
0.0
 11
3676.91854906655999
 21
177.4110810571964123
 31
0.0
  0
LINE
  5
30929
  8
0
 10
3676.9241351341588597
 20
177.4140078936964073
 30
0.0
 11
3676.9302600712039748
 21
177.4150018341541966
 31
0.0
  0
ARC
  5
3092A
  8
0
 10
3676.7670631503028744
 20
158.4110531413398917
 30
0.0
 40
1.3971774527376419
 50
109.1045249579076994
 51
120.2671438870972054
  0
ARC
  5
3092B
  8
0
 10
3676.3455379928059301
 20
158.3677338054278891
 30
0.0
 40
1.4450395321486369
 50
59.8891041007499965
 51
70.6587975425385366
  0
LINE
  5
3092C
  8
0
 10
3685.4472147063879675
 20
160.5166640139009075
 30
0.0
 11
3685.4472147063879675
 21
162.0710433652481868
 31
0.0
  0
ENDSEC
  0
EOF
