  0
SECTION
  2
HEADER
  9
$ACADVER
  1
AC1009
  9
$INSBASE
 10
6490.0663167717875695
 20
331.0610252488758078
 30
0.0
  9
$EXTMIN
 10
6482.8992786083535975
 20
327.5806087500533863
 30
0.0
  9
$EXTMAX
 10
6490.0780968736571594
 20
332.3405528079258033
 30
0.0
  9
$LIMMIN
 10
0.0
 20
0.0
  9
$LIMMAX
 10
11.6929133858000007
 20
8.2677165353999982
  9
$ORTHOMODE
 70
     0
  9
$REGENMODE
 70
     1
  9
$FILLMODE
 70
     1
  9
$QTEXTMODE
 70
     0
  9
$MIRRTEXT
 70
     0
  9
$DRAGMODE
 70
     2
  9
$LTSCALE
 40
0.6431102362
  9
$OSMODE
 70
  4095
  9
$ATTMODE
 70
     1
  9
$TEXTSIZE
 40
0.2
  9
$TRACEWID
 40
0.05
  9
$TEXTSTYLE
  7
STANDARD
  9
$CLAYER
  8
0
  9
$CELTYPE
  6
BYLAYER
  9
$CECOLOR
 62
   256
  9
$DIMSCALE
 40
1.0
  9
$DIMASZ
 40
0.1875
  9
$DIMEXO
 40
0.0625
  9
$DIMDLI
 40
0.4443307087
  9
$DIMRND
 40
0.0
  9
$DIMDLE
 40
0.0
  9
$DIMEXE
 40
0.125
  9
$DIMTP
 40
0.01
  9
$DIMTM
 40
0.01
  9
$DIMTXT
 40
2.0
  9
$DIMCEN
 40
0.1052362205
  9
$DIMTSZ
 40
0.0
  9
$DIMTOL
 70
     1
  9
$DIMLIM
 70
     0
  9
$DIMTIH
 70
     1
  9
$DIMTOH
 70
     1
  9
$DIMSE1
 70
     0
  9
$DIMSE2
 70
     0
  9
$DIMTAD
 70
     0
  9
$DIMZIN
 70
     0
  9
$DIMBLK
  1

  9
$DIMASO
 70
     1
  9
$DIMSHO
 70
     1
  9
$DIMPOST
  1
\X
  9
$DIMAPOST
  1

  9
$DIMALT
 70
     1
  9
$DIMALTD
 70
     2
  9
$DIMALTF
 40
25.3999999999999986
  9
$DIMLFAC
 40
1.0
  9
$DIMTOFL
 70
     0
  9
$DIMTVP
 40
0.0
  9
$DIMTIX
 70
     0
  9
$DIMSOXD
 70
     0
  9
$DIMSAH
 70
     0
  9
$DIMBLK1
  1

  9
$DIMBLK2
  1

  9
$DIMSTYLE
  2
STANDARD
  9
$DIMCLRD
 70
     0
  9
$DIMCLRE
 70
     0
  9
$DIMCLRT
 70
     0
  9
$DIMTFAC
 40
1.0
  9
$DIMGAP
 40
0.09
  9
$LUNITS
 70
     2
  9
$LUPREC
 70
     4
  9
$SKETCHINC
 40
0.1
  9
$FILLETRAD
 40
0.0
  9
$AUNITS
 70
     0
  9
$AUPREC
 70
     0
  9
$MENU
  1
.
  9
$ELEVATION
 40
0.0
  9
$PELEVATION
 40
0.0
  9
$THICKNESS
 40
0.0
  9
$LIMCHECK
 70
     0
  9
$BLIPMODE
 70
     0
  9
$CHAMFERA
 40
0.0
  9
$CHAMFERB
 40
0.0
  9
$SKPOLY
 70
     0
  9
$TDCREATE
 40
2458060.468368056230247
  9
$TDUPDATE
 40
2460343.4825925920158625
  9
$TDINDWG
 40
0.806071875
  9
$TDUSRTIMER
 40
0.806071875
  9
$USRTIMER
 70
     1
  9
$ANGBASE
 50
0.0
  9
$ANGDIR
 70
     0
  9
$PDMODE
 70
     0
  9
$PDSIZE
 40
0.3125
  9
$PLINEWID
 40
0.0
  9
$COORDS
 70
     1
  9
$SPLFRAME
 70
     0
  9
$SPLINETYPE
 70
     6
  9
$SPLINESEGS
 70
     8
  9
$ATTDIA
 70
     1
  9
$ATTREQ
 70
     1
  9
$HANDLING
 70
     1
  9
$HANDSEED
  5
3465B
  9
$SURFTAB1
 70
     6
  9
$SURFTAB2
 70
     6
  9
$SURFTYPE
 70
     6
  9
$SURFU
 70
     6
  9
$SURFV
 70
     6
  9
$UCSNAME
  2

  9
$UCSORG
 10
0.0
 20
0.0
 30
0.0
  9
$UCSXDIR
 10
1.0
 20
0.0
 30
0.0
  9
$UCSYDIR
 10
0.0
 20
1.0
 30
0.0
  9
$PUCSNAME
  2

  9
$PUCSORG
 10
0.0
 20
0.0
 30
0.0
  9
$PUCSXDIR
 10
1.0
 20
0.0
 30
0.0
  9
$PUCSYDIR
 10
0.0
 20
1.0
 30
0.0
  9
$USERI1
 70
     0
  9
$USERI2
 70
     0
  9
$USERI3
 70
     0
  9
$USERI4
 70
     0
  9
$USERI5
 70
     0
  9
$USERR1
 40
0.0
  9
$USERR2
 40
0.0
  9
$USERR3
 40
0.0
  9
$USERR4
 40
0.0
  9
$USERR5
 40
0.0
  9
$WORLDVIEW
 70
     1
  9
$SHADEDGE
 70
     3
  9
$SHADEDIF
 70
    70
  9
$TILEMODE
 70
     1
  9
$MAXACTVP
 70
    64
  9
$PLIMCHECK
 70
     0
  9
$PEXTMIN
 10
1.0000000000000000E+20
 20
1.0000000000000000E+20
 30
1.0000000000000000E+20
  9
$PEXTMAX
 10
-1.0000000000000000E+20
 20
-1.0000000000000000E+20
 30
-1.0000000000000000E+20
  9
$PLIMMIN
 10
0.0
 20
0.0
  9
$PLIMMAX
 10
12.0
 20
9.0
  9
$UNITMODE
 70
     0
  9
$VISRETAIN
 70
     1
  9
$PLINEGEN
 70
     0
  9
$PSLTSCALE
 70
     1
  0
ENDSEC
  0
SECTION
  2
TABLES
  0
TABLE
  2
VPORT
 70
     1
  0
VPORT
  2
*ACTIVE
 70
     0
 10
0.0
 20
0.0
 11
1.0
 21
1.0
 12
2575.1233312956928785
 22
197.3809756764505039
 13
0.0
 23
0.0
 14
1.0
 24
1.0
 15
0.0
 25
0.0
 16
0.0
 26
0.0
 36
60.4960186965801583
 17
3911.3653564453120453
 27
132.5796051025390057
 37
0.0
 40
4.7927512709309212
 41
2.1211111111111101
 42
50.0
 43
0.0
 44
0.0
 50
0.0
 51
0.0
 71
     0
 72
   100
 73
     1
 74
     1
 75
     0
 76
     0
 77
     0
 78
     0
  0
ENDTAB
  0
TABLE
  2
LTYPE
 70
     2
  0
LTYPE
  2
CONTINUOUS
 70
     0
  3
Solid line
 72
    65
 73
     0
 40
0.0
  0
LTYPE
  2
PHANTOM2
 70
     0
  3
___ _ _ ___ _ _ ___ _ _ ___ _ _
 72
    65
 73
     6
 40
1.25
 49
0.625
 49
-0.125
 49
0.125
 49
-0.125
 49
0.125
 49
-0.125
  0
ENDTAB
  0
TABLE
  2
LAYER
 70
     2
  0
LAYER
  2
0
 70
     0
 62
   255
  6
CONTINUOUS
  0
LAYER
  2
DEFPOINTS
 70
     0
 62
     7
  6
CONTINUOUS
  0
ENDTAB
  0
TABLE
  2
STYLE
 70
     1
  0
STYLE
  2
STANDARD
 70
     0
 40
0.0
 41
0.8
 50
0.0
 71
     0
 42
0.2
  3
txt
  4

  0
ENDTAB
  0
TABLE
  2
VIEW
 70
     0
  0
ENDTAB
  0
TABLE
  2
UCS
 70
     0
  0
ENDTAB
  0
TABLE
  2
APPID
 70
    11
  0
APPID
  2
ACAD
 70
     0
  0
APPID
  2
ACAD_MLEADERVER
 70
     0
  0
APPID
  2
ACAD_EXEMPT_FROM_CAD_STANDARDS
 70
     0
  0
APPID
  2
ACAD_NAV_VCDISPLAY
 70
     0
  0
APPID
  2
ACAECLAYERSTANDARD
 70
     0
  0
APPID
  2
ACCMTRANSPARENCY
 70
     0
  0
APPID
  2
ACAD_DSTYLE_DIMJAG
 70
     0
  0
APPID
  2
ACAD_DSTYLE_DIMTALN
 70
     0
  0
APPID
  2
ACDBATTR
 70
     0
  0
APPID
  2
ACADANNOTATIVE
 70
     0
  0
APPID
  2
DCO15
 70
     0
  0
ENDTAB
  0
TABLE
  2
DIMSTYLE
 70
     1
  0
DIMSTYLE
  2
STANDARD
 70
     0
  3

  4

  5

  6

  7

 40
1.0
 41
0.1875
 42
0.0625
 43
0.38
 44
0.125
 45
0.0
 46
0.0
 47
0.01
 48
0.01
140
0.15625
141
0.09
142
0.0
143
25.3999999999999986
144
1.0
145
0.0
146
1.0
147
0.09
 71
     1
 72
     0
 73
     1
 74
     1
 75
     0
 76
     0
 77
     0
 78
     4
170
     0
171
     2
172
     0
173
     0
174
     0
175
     0
176
     0
177
     0
178
     0
  0
ENDTAB
  0
ENDSEC
  0
SECTION
  2
BLOCKS
  0
BLOCK
  8
0
  2
$MODEL_SPACE
 70
     0
 10
0.0
 20
0.0
 30
0.0
  3
$MODEL_SPACE
  1

  0
ENDBLK
  5
21
  8
0
  0
BLOCK
 67
     1
  8
0
  2
$PAPER_SPACE
 70
     0
 10
0.0
 20
0.0
 30
0.0
  3
$PAPER_SPACE
  1

  0
ENDBLK
  5
1D
 67
     1
  8
0
  0
ENDSEC
  0
SECTION
  2
ENTITIES
  0
ATTDEF
  5
2842F
  8
DEFPOINTS
 10
6490.0674302069883197
 20
331.0614784744406052
 30
0.0
 40
0.001
  1
K-30089T-4
  3

  2
MODELNUMBER
 70
     0
1001
ACDBATTR
1070
     0
1070
     1
  0
ATTDEF
  5
28430
  8
DEFPOINTS
 10
6490.0673043973301901
 20
331.0598116340614752
 30
0.0
 40
0.001
  1
FORE LINE
  3

  2
TRADENAME
 70
     0
1001
ACDBATTR
1070
     0
1070
     1
  0
ATTDEF
  5
28431
  8
DEFPOINTS
 10
6490.0674302069883197
 20
331.0581451411072749
 30
0.0
 40
0.001
  1
BATHROOM SINK FAUCET
  3

  2
PRODUCT
 70
     0
1001
ACDBATTR
1070
     0
1070
     1
  0
ARC
  5
34510
  8
0
 10
6483.7501297940452787
 20
331.2681514466747785
 30
0.0
 40
0.532484531785142
 50
230.2612470705363137
 51
239.2938389247327962
  0
ARC
  5
34511
  8
0
 10
6483.708784425977683
 20
331.2078362403516962
 30
0.0
 40
0.4595378138507094
 50
239.8860309322078876
 51
246.4217725430644066
  0
ARC
  5
34512
  8
0
 10
6483.5982299987263104
 20
330.9471077649657786
 30
0.0
 40
0.1763794044465558
 50
245.4579716718938869
 51
257.9457807281398232
  0
ARC
  5
34513
  8
0
 10
6483.5983894156461247
 20
330.9441472334622745
 30
0.0
 40
0.1735191706457047
 50
257.6901497268971184
 51
268.8864672420193074
  0
ARC
  5
34514
  8
0
 10
6483.5988141939105844
 20
330.9682589719027987
 30
0.0
 40
0.1976346154211949
 50
268.899188266743522
 51
286.1466049562471881
  0
LINE
  5
34515
  8
0
 10
6483.6565082660335975
 20
330.7811600602855151
 30
0.0
 11
6483.6583000366836131
 21
330.7874087073157057
 31
0.0
  0
ARC
  5
34516
  8
0
 10
6483.652663219239912
 20
330.7822626096793215
 30
0.0
 40
0.004
 50
286.1466049576009141
 51
344.0000004386084242
  0
ARC
  5
34517
  8
0
 10
6483.7466988547912479
 20
330.8607034467561903
 30
0.0
 40
0.1316478634451661
 50
210.9861274831376932
 51
217.6272526852179965
  0
ARC
  5
34518
  8
0
 10
6484.0016026254297685
 20
332.5312403854799754
 30
0.0
 40
1.787369861127809
 50
258.4075861939417109
 51
258.7529797601873724
  0
LINE
  5
34519
  8
0
 10
6483.63383819765113
 20
330.7929271085603773
 30
0.0
 11
6483.6363052738388433
 21
330.7937156040721902
 31
0.0
  0
ARC
  5
3451A
  8
0
 10
6483.6951617107515631
 20
330.8660896193200074
 30
0.0
 40
0.1318416361111477
 50
211.6643486314351037
 51
218.234854653445808
  0
ARC
  5
3451B
  8
0
 10
6483.53511533049641
 20
330.5855470456552894
 30
0.0
 40
0.206811415220952
 50
71.3126246699445119
 51
74.1491247544188639
  0
ARC
  5
3451C
  8
0
 10
6483.5749737551068392
 20
330.9924272173283271
 30
0.0
 40
0.2126176385080753
 50
277.1339415019173202
 51
286.3450531862089861
  0
ARC
  5
3451D
  8
0
 10
6483.7531137358409978
 20
330.8661094776109053
 30
0.0
 40
0.1415428665127095
 50
211.1215531289927014
 51
213.2983265003331041
  0
ARC
  5
3451E
  8
0
 10
6483.734984863450336
 20
331.2066461328553828
 30
0.0
 40
0.4263335297047096
 50
251.9865236871289085
 51
256.0134764727505967
  0
ARC
  5
3451F
  8
0
 10
6483.5489775275264037
 20
331.0046432682357249
 30
0.0
 40
0.2105214758272095
 50
279.2855749586851744
 51
284.9100516835734993
  0
LINE
  5
34520
  8
0
 10
6483.629852605364249
 20
330.7934785072359887
 30
0.0
 11
6483.6320133077297214
 21
330.7901326352936167
 31
0.0
  0
ARC
  5
34521
  8
0
 10
6483.6360185559851743
 20
330.7934812436953962
 30
0.0
 40
0.0052206504716461
 50
219.8974835107765102
 51
256.6024274154844989
  0
LINE
  5
34522
  8
0
 10
6483.6049334487379383
 20
330.8006326994794222
 30
0.0
 11
6483.6007833009116439
 21
330.7861594143103048
 31
0.0
  0
LINE
  5
34523
  8
0
 10
6483.5989241272918662
 20
330.8001325620210196
 30
0.0
 11
6483.5954389150138013
 21
330.7879781823921803
 31
0.0
  0
ARC
  5
34524
  8
0
 10
6483.6069258813713532
 20
330.7845471787014162
 30
0.0
 40
0.0063506376345095
 50
165.2933694913899956
 51
209.1319092567827056
  0
ARC
  5
34525
  8
0
 10
6483.59047067740903
 20
330.7895953331051828
 30
0.0
 40
0.0052248025119146
 50
282.5127821725764079
 51
341.970043736306593
  0
LINE
  5
34526
  8
0
 10
6483.5951731997538445
 20
330.7873183076604278
 30
0.0
 11
6483.6006649612927504
 21
330.7856108883062802
 31
0.0
  0
ARC
  5
34527
  8
0
 10
6483.7066715472019496
 20
330.8925941454779718
 30
0.0
 40
0.1742957917861466
 50
205.0415662954117977
 51
208.6080872611599091
  0
ARC
  5
34528
  8
0
 10
6483.7319567734948578
 20
331.2074003458853895
 30
0.0
 40
0.4363531960002275
 50
245.8818909428825066
 51
249.838393482537299
  0
ARC
  5
34529
  8
0
 10
6483.5474732221227896
 20
331.0056372660623083
 30
0.0
 40
0.2106285911981739
 50
279.3131319998963136
 51
284.9361536304073184
  0
ARC
  5
3452A
  8
0
 10
6483.749701596988416
 20
330.8813572069336146
 30
0.0
 40
0.1678216483034437
 50
207.4915187138581132
 51
208.1720764935060117
  0
ARC
  5
3452B
  8
0
 10
6483.6033702117556459
 20
330.8071626908466101
 30
0.0
 40
0.0052883701997302
 50
210.6890099100970133
 51
252.2862920418396868
  0
LINE
  5
3452C
  8
0
 10
6483.5830326625909947
 20
330.8089912795343821
 30
0.0
 11
6483.5811469916952774
 21
330.8024151634850796
 31
0.0
  0
LINE
  5
3452D
  8
0
 10
6483.5588112786799684
 20
330.8159366496071243
 30
0.0
 11
6483.5578750820795904
 21
330.812671743851979
 31
0.0
  0
ARC
  5
3452E
  8
0
 10
6483.5526720982261395
 20
330.8145995344190737
 30
0.0
 40
0.0055486410518569
 50
280.1990516760536138
 51
339.669508563229499
  0
ARC
  5
3452F
  8
0
 10
6483.5878003228299349
 20
330.800674148206781
 30
0.0
 40
0.0068773504626704
 50
165.3358877895892078
 51
204.8402541662555905
  0
ARC
  5
34530
  8
0
 10
6483.6232217026927174
 20
330.8618196366994084
 30
0.0
 40
0.1045921376250597
 50
211.3779146686740091
 51
219.6767655550756047
  0
ARC
  5
34531
  8
0
 10
6483.7108725130728999
 20
331.1711536486919272
 30
0.0
 40
0.4119885997589272
 50
245.9116473252155117
 51
250.0857309785907034
  0
ARC
  5
34532
  8
0
 10
6483.5707149548998132
 20
330.9717844199287811
 30
0.0
 40
0.1879839024899602
 50
269.9477565784010835
 51
275.820513649781617
  0
ARC
  5
34533
  8
0
 10
6483.6937483614146913
 20
330.86669202924611
 30
0.0
 40
0.1323666392051542
 50
211.6931867457986982
 51
218.2362043059879113
  0
ARC
  5
34534
  8
0
 10
6483.7317519845719289
 20
331.2075479498864183
 30
0.0
 40
0.4371678519496184
 50
245.8953093611384872
 51
249.84501291522119
  0
ARC
  5
34535
  8
0
 10
6483.5327116508233303
 20
330.9915379211607842
 30
0.0
 40
0.1841813828415134
 50
270.3777671950095964
 51
276.3900493605215729
  0
LINE
  5
34536
  8
0
 10
6483.54962682796031
 20
330.808134926180287
 30
0.0
 11
6483.5468454235951867
 21
330.7984350167851062
 31
0.0
  0
LINE
  5
34537
  8
0
 10
6483.5735186207029983
 20
330.8000213454337199
 30
0.0
 11
6483.5701655699949697
 21
330.7883004267850993
 31
0.0
  0
ARC
  5
34538
  8
0
 10
6483.5757069609517202
 20
330.786508791531503
 30
0.0
 40
0.0058305371800433
 50
161.8141257599340008
 51
207.6768848452975078
  0
ARC
  5
34539
  8
0
 10
6483.5420541270741523
 20
330.80005606012719
 30
0.0
 40
0.0050580929094109
 50
277.5814907153982176
 51
341.3077366289999759
  0
ARC
  5
3453A
  8
0
 10
6483.5923925403913017
 20
330.8587681168202721
 30
0.0
 40
0.0924406498171247
 50
222.1848601361429019
 51
230.3846847603408889
  0
ARC
  5
3453B
  8
0
 10
6483.7190002488578102
 20
331.2109722145552269
 30
0.0
 40
0.4622871138002777
 50
246.335816116664887
 51
247.6139499305917013
  0
ARC
  5
3453C
  8
0
 10
6483.5777274677429887
 20
330.954443443958894
 30
0.0
 40
0.174423987324966
 50
258.495800855819823
 51
268.5740670353247879
  0
ARC
  5
3453D
  8
0
 10
6483.6452082596561013
 20
330.8522321179466985
 30
0.0
 40
0.1018094573701024
 50
222.5395112755390983
 51
225.1342554842210859
  0
ARC
  5
3453E
  8
0
 10
6483.7292272431168385
 20
331.2186903564212912
 30
0.0
 40
0.4634331190664155
 50
246.2032479255908015
 51
249.9302696904877052
  0
ARC
  5
3453F
  8
0
 10
6483.5520381601727422
 20
330.9666750095041721
 30
0.0
 40
0.1722969757602085
 50
260.5993548115221756
 51
266.7382957173874161
  0
ARC
  5
34540
  8
0
 10
6483.6613653596596123
 20
330.9076524375237227
 30
0.0
 40
0.1774238436758999
 50
205.0128785443702952
 51
208.5683525056502106
  0
ARC
  5
34541
  8
0
 10
6483.7288802097446023
 20
331.2086189320124276
 30
0.0
 40
0.4457915269828786
 50
239.9345167970190005
 51
243.8731138536346918
  0
ARC
  5
34542
  8
0
 10
6483.5312987006509502
 20
330.9922325469840985
 30
0.0
 40
0.1838590286833639
 50
270.396556927002905
 51
276.4203134715672832
  0
ARC
  5
34543
  8
0
 10
6483.7064273819723894
 20
330.8937396063141136
 30
0.0
 40
0.1760213230680144
 50
204.998764863379904
 51
208.5825810179223083
  0
ARC
  5
34544
  8
0
 10
6483.5132867597449149
 20
330.9886868780939722
 30
0.0
 40
0.1666008548069949
 50
260.828976822526613
 51
267.1962953886156242
  0
ARC
  5
34545
  8
0
 10
6483.5985927940701004
 20
330.8932200972726037
 30
0.0
 40
0.1314309323792257
 50
211.6698696747963027
 51
218.2595205603369095
  0
ARC
  5
34546
  8
0
 10
6483.7223208844352484
 20
331.2102274027972157
 30
0.0
 40
0.4584905933073136
 50
240.3336062509781925
 51
244.158244837682787
  0
ARC
  5
34547
  8
0
 10
6483.5505984787332636
 20
330.9673949079381146
 30
0.0
 40
0.1721234714762396
 50
260.5947701901826008
 51
266.751238961344086
  0
ARC
  5
34548
  8
0
 10
6483.6436648056132981
 20
330.8771918389825828
 30
0.0
 40
0.1312928710149076
 50
211.8727192515524109
 51
218.4509732183614119
  0
ARC
  5
34549
  8
0
 10
6483.7286167331039906
 20
331.208632762137313
 30
0.0
 40
0.4463263105623516
 50
239.9531492777184951
 51
243.886783182474602
  0
ARC
  5
3454A
  8
0
 10
6483.5317232596298709
 20
330.9724889283911011
 30
0.0
 40
0.1650539603427101
 50
250.83547252852631
 51
257.1645281963441789
  0
ARC
  5
3454B
  8
0
 10
6483.5488152286652621
 20
330.8809287324830279
 30
0.0
 40
0.0960247924897227
 50
222.0749654825787047
 51
230.0085053351604074
  0
ARC
  5
3454C
  8
0
 10
6483.7158198959141373
 20
331.2119891201618884
 30
0.0
 40
0.4647968081846054
 50
240.5226027500333998
 51
244.2931278032390878
  0
ARC
  5
3454D
  8
0
 10
6483.5696356089083565
 20
330.9534442976826085
 30
0.0
 40
0.1695643259007287
 50
250.9197298636813969
 51
257.080269799335781
  0
ARC
  5
3454E
  8
0
 10
6483.5932567606951125
 20
330.8622972119330257
 30
0.0
 40
0.0963369351437088
 50
222.4181957359708122
 51
230.3027919268124037
  0
ARC
  5
3454F
  8
0
 10
6483.7220827194951198
 20
331.2102903016703976
 30
0.0
 40
0.4588326932183129
 50
240.3439918759654006
 51
244.1656543389131002
  0
ARC
  5
34550
  8
0
 10
6483.655127000358334
 20
331.0998263004208866
 30
0.0
 40
0.3227033830086576
 50
232.6580874687203959
 51
238.2703886066842927
  0
ARC
  5
34551
  8
0
 10
6483.5118900897641652
 20
330.9895448850745083
 30
0.0
 40
0.1663115555048429
 50
260.8396599861999903
 51
267.2183764860525912
  0
ARC
  5
34552
  8
0
 10
6483.6593063141554012
 20
330.9080796296133258
 30
0.0
 40
0.1770366028002188
 50
205.0545868356522021
 51
208.564752906686607
  0
ARC
  5
34553
  8
0
 10
6483.5252991372262841
 20
330.8940293294857042
 30
0.0
 40
0.0956723571808483
 50
208.8406679934911949
 51
218.0971941287820925
  0
ARC
  5
34554
  8
0
 10
6483.7193414365729041
 20
331.2115545283568849
 30
0.0
 40
0.4629620260363562
 50
234.4255226100067944
 51
238.3165532046147064
  0
ARC
  5
34555
  8
0
 10
6483.5303060669657498
 20
330.9732884579109964
 30
0.0
 40
0.1648366578515437
 50
250.8312962418519021
 51
257.1687038268159995
  0
ARC
  5
34556
  8
0
 10
6483.5972610867456751
 20
330.8941652112101792
 30
0.0
 40
0.1318453941995023
 50
211.6644414832655912
 51
218.2347598819727068
  0
ARC
  5
34557
  8
0
 10
6483.652885606144082
 20
331.0968902991627942
 30
0.0
 40
0.3195633355848497
 50
232.6496640441758075
 51
238.3165311534538944
  0
ARC
  5
34558
  8
0
 10
6483.5515097361540029
 20
330.9669829928834019
 30
0.0
 40
0.1719768141210951
 50
240.5727422154515978
 51
247.4078569547237123
  0
ARC
  5
34559
  8
0
 10
6483.5471419909054021
 20
330.8817160241022179
 30
0.0
 40
0.0959743383577129
 50
222.0537101912084097
 51
229.9927896468381903
  0
ARC
  5
3455A
  8
0
 10
6483.7191063843310985
 20
331.2116231193617182
 30
0.0
 40
0.4631929658896221
 50
234.4354918686383087
 51
238.3243896476643897
  0
ARC
  5
3455B
  8
0
 10
6483.5142738366030244
 20
330.9882429708089262
 30
0.0
 40
0.166444087281498
 50
240.8006642065587073
 51
247.173974948300696
  0
ARC
  5
3455C
  8
0
 10
6483.4849709446962152
 20
330.886270085875708
 30
0.0
 40
0.0676015180888348
 50
219.8534005219507037
 51
233.8863681933133023
  0
ARC
  5
3455D
  8
0
 10
6483.5696801353033152
 20
331.0248407742411132
 30
0.0
 40
0.2275634788776628
 50
227.5864762743159133
 51
232.5397192571375058
  0
ARC
  5
3455E
  8
0
 10
6483.5103436818417322
 20
330.9148139117278902
 30
0.0
 40
0.1060070855495719
 50
221.7639112899786937
 51
229.1424063873924126
  0
ARC
  5
3455F
  8
0
 10
6483.5368388257265906
 20
330.9858718511396773
 30
0.0
 40
0.1790473037276398
 50
237.404847640141611
 51
237.6361331397069989
  0
ARC
  5
34560
  8
0
 10
6483.5486587451841842
 20
330.9998531360329252
 30
0.0
 40
0.1946987706069152
 50
227.3361396974769946
 51
233.0737212523746962
  0
ARC
  5
34561
  8
0
 10
6483.4814512045140873
 20
330.9276381704423784
 30
0.0
 40
0.0971439683282094
 50
239.1841634193168886
 51
250.1520712488060951
  0
ARC
  5
34562
  8
0
 10
6483.5515635673873476
 20
330.9158405200370794
 30
0.0
 40
0.1302340213306867
 50
210.9500381754039893
 51
217.6633427140251911
  0
LINE
  5
34563
  8
0
 10
6483.5388830713636708
 20
330.7948809714977187
 30
0.0
 11
6483.5375917642741115
 21
330.7904526496349149
 31
0.0
  0
LINE
  5
34564
  8
0
 10
6483.5444033243147715
 20
330.7937075627858121
 30
0.0
 11
6483.5423926412504443
 21
330.7866967492657864
 31
0.0
  0
ARC
  5
34565
  8
0
 10
6483.5483513538993066
 20
330.7860915078995845
 30
0.0
 40
0.0059893717153568
 50
174.200215019453907
 51
205.3876866346589907
  0
ARC
  5
34566
  8
0
 10
6483.5335223785950802
 20
330.7918635410985075
 30
0.0
 40
0.0043070308252713
 50
269.0319997742374198
 51
340.8781231777618927
  0
LINE
  5
34567
  8
0
 10
6483.5251694178514299
 20
330.8113716824731796
 30
0.0
 11
6483.5221218538126777
 21
330.8007662053839795
 31
0.0
  0
ARC
  5
34568
  8
0
 10
6483.5277814770797704
 20
330.7997773521448153
 30
0.0
 40
0.005745360412064
 50
170.0892834016055133
 51
202.4293005995253907
  0
LINE
  5
34569
  8
0
 10
6483.5021423026610137
 20
330.8224591851583796
 30
0.0
 11
6483.5000292927961709
 21
330.8150902438852086
 31
0.0
  0
ARC
  5
3456A
  8
0
 10
6483.4954686900273373
 20
330.8166561922163282
 30
0.0
 40
0.0048219593297201
 50
269.081337896869627
 51
341.0493564311382215
  0
LINE
  5
3456B
  8
0
 10
6483.5102108638247955
 20
330.8263693389047262
 30
0.0
 11
6483.5101692613961859
 21
330.8262242539851172
 31
0.0
  0
ARC
  5
3456C
  8
0
 10
6483.5052100921493548
 20
330.8280980087117769
 30
0.0
 40
0.0053013503452663
 50
273.6042284384715799
 51
339.3016096562942039
  0
LINE
  5
3456D
  8
0
 10
6483.5353604689526037
 20
330.8226610610885245
 30
0.0
 11
6483.5323704350957996
 21
330.8122335734339003
 31
0.0
  0
ARC
  5
3456E
  8
0
 10
6483.5387948017059898
 20
330.8106350717612258
 30
0.0
 40
0.0066202487828806
 50
166.0274836926687101
 51
199.9345421208950881
  0
LINE
  5
3456F
  8
0
 10
6483.4922616535723137
 20
330.8122216782360852
 30
0.0
 11
6483.4917055739642819
 21
330.8103345837843108
 31
0.0
  0
ARC
  5
34570
  8
0
 10
6483.4876727080600176
 20
330.8115269250258734
 30
0.0
 40
0.0042054351786737
 50
262.2087606634410122
 51
343.5293668322623262
  0
LINE
  5
34571
  8
0
 10
6483.5151839151412787
 20
330.800753581555
 30
0.0
 11
6483.5136918933112611
 21
330.7955502826980023
 31
0.0
  0
ARC
  5
34572
  8
0
 10
6483.5183777373267731
 20
330.7953404140059206
 30
0.0
 40
0.0046905414419722
 50
177.43556129962451
 51
207.2110082173902867
  0
LINE
  5
34573
  8
0
 10
6483.4876882753833343
 20
330.8363308426229992
 30
0.0
 11
6483.4852156298065893
 21
330.8277077026527877
 31
0.0
  0
ARC
  5
34574
  8
0
 10
6483.4913972175472736
 20
330.8270428301685797
 30
0.0
 40
0.0062172407389117
 50
173.8610431543091863
 51
195.7583158549088864
  0
LINE
  5
34575
  8
0
 10
6483.4786462865286012
 20
330.8290259430218043
 30
0.0
 11
6483.4760364457915784
 21
330.8199243466444841
 31
0.0
  0
ARC
  5
34576
  8
0
 10
6483.4826750731508582
 20
330.8191667829846097
 30
0.0
 40
0.0066817120494179
 50
173.4898816601825899
 51
193.6406297717703922
  0
LINE
  5
34577
  8
0
 10
6483.4565975727318801
 20
330.8435483142808948
 30
0.0
 11
6483.4550283143953493
 21
330.8380756601850976
 31
0.0
  0
ARC
  5
34578
  8
0
 10
6483.4506216860308996
 20
330.8396330586551244
 30
0.0
 40
0.0046737418907368
 50
262.4589165130219044
 51
340.5354816378265923
  0
LINE
  5
34579
  8
0
 10
6483.4336175595435634
 20
330.851835370893923
 30
0.0
 11
6483.4323021904883717
 21
330.8477560530258188
 31
0.0
  0
ARC
  5
3457A
  8
0
 10
6483.4449653963320088
 20
330.8437301443397018
 30
0.0
 40
0.0132877659146878
 50
162.3634072302477875
 51
177.9341215436394066
  0
LINE
  5
3457B
  8
0
 10
6483.4473943201574002
 20
330.8358265528252105
 30
0.0
 11
6483.4471071398402273
 21
330.8353686447177893
 31
0.0
  0
ARC
  5
3457C
  8
0
 10
6483.4434110888823852
 20
330.837616448586175
 30
0.0
 40
0.0043259004748739
 50
263.8841546747167968
 51
328.6935530525400964
  0
LINE
  5
3457D
  8
0
 10
6483.4695302921063558
 20
330.8214186885319918
 30
0.0
 11
6483.4685107027007689
 21
330.8184365511201008
 31
0.0
  0
ARC
  5
3457E
  8
0
 10
6483.473533062653587
 20
330.8174196841454204
 30
0.0
 40
0.0051242675509241
 50
168.5541671838143998
 51
191.9935580384438083
  0
LINE
  5
3457F
  8
0
 10
6483.6477361542483777
 20
330.7904378518600197
 30
0.0
 11
6483.6458504834190535
 21
330.7838617357361954
 31
0.0
  0
ARC
  5
34580
  8
0
 10
6483.6406614842671843
 20
330.7854624466459086
 30
0.0
 40
0.0054302841702588
 50
289.0493544369435881
 51
342.8559668774341844
  0
LINE
  5
34581
  8
0
 10
6483.7274020050881518
 20
330.7675940367299177
 30
0.0
 11
6483.72566794755312
 21
330.7615466592598068
 31
0.0
  0
ARC
  5
34582
  8
0
 10
6483.6675705083944194
 20
330.9256893723850794
 30
0.0
 40
0.1749262518999346
 50
242.1033785073352078
 51
258.5615277228749278
  0
ARC
  5
34583
  8
0
 10
6483.6680431797258279
 20
330.9280254641395231
 30
0.0
 40
0.1773096828034881
 50
258.5615277228749278
 51
274.5643670329520205
  0
ARC
  5
34584
  8
0
 10
6483.6651383390972114
 20
330.964412301433299
 30
0.0
 40
0.2138122858246128
 50
274.5643670329520205
 51
285.5760455072332888
  0
ARC
  5
34585
  8
0
 10
6483.7213422699123839
 20
330.7627870273278745
 30
0.0
 40
0.0045
 50
285.5760455071830961
 51
344.0000004391492894
  0
ARC
  5
34586
  8
0
 10
6483.700736288627013
 20
331.1005668998326996
 30
0.0
 40
0.3527527983918452
 50
261.0491311844203892
 51
267.5495264534247895
  0
ARC
  5
34587
  8
0
 10
6483.7054345645074136
 20
330.9695144118044254
 30
0.0
 40
0.2222596916185653
 50
264.8940775921769273
 51
268.5410148318886172
  0
ARC
  5
34588
  8
0
 10
6483.7057840463676257
 20
331.5570434535355844
 30
0.0
 40
0.8097389712248578
 50
269.574843798255813
 51
273.3898721567445023
  0
ARC
  5
34589
  8
0
 10
6483.7065707498195479
 20
331.2857572059551785
 30
0.0
 40
0.5390967806444916
 50
275.0114920516140273
 51
278.0367858204651839
  0
ARC
  5
3458A
  8
0
 10
6483.6915479089220753
 20
330.9342536240079085
 30
0.0
 40
0.1858402349157332
 50
276.4685756150972225
 51
287.0104190504858934
  0
ARC
  5
3458B
  8
0
 10
6483.7242166683627147
 20
331.2276600143994187
 30
0.0
 40
0.471615809566408
 50
272.6369809257020052
 51
273.9544359157707731
  0
ARC
  5
3458C
  8
0
 10
6483.7803706224585767
 20
330.8182870333242249
 30
0.0
 40
0.0655288111902995
 50
248.8628060416563983
 51
259.1371987306487767
  0
ARC
  5
3458D
  8
0
 10
6483.7138277726426168
 20
330.9574860431930006
 30
0.0
 40
0.2106442673054555
 50
279.287214895381112
 51
284.9084105063050743
  0
ARC
  5
3458E
  8
0
 10
6483.7237934127260814
 20
331.0416510144279982
 30
0.0
 40
0.293034908797244
 50
268.5543831010992903
 51
274.7035408302385235
  0
ARC
  5
3458F
  8
0
 10
6483.7295850450791477
 20
330.8160028040027214
 30
0.0
 40
0.0685728291057439
 50
255.5591680795967022
 51
258.914841035626182
  0
ARC
  5
34590
  8
0
 10
6483.7573907125797632
 20
330.820072976948893
 30
0.0
 40
0.0710885245128614
 50
240.2746647618683937
 51
243.465188364549789
  0
ARC
  5
34591
  8
0
 10
6483.725470347099872
 20
331.2099622141852251
 30
0.0
 40
0.4534895457083892
 50
270.0204896629488189
 51
274.0013532356895212
  0
ARC
  5
34592
  8
0
 10
6483.6860874912963482
 20
330.9823206748828852
 30
0.0
 40
0.235699205485701
 50
287.5385565271200221
 51
288.1660639099055174
  0
LINE
  5
34593
  8
0
 10
6483.7465808593624388
 20
330.7565747622485901
 30
0.0
 11
6483.7458231368673296
 21
330.7539322701150013
 31
0.0
  0
ARC
  5
34594
  8
0
 10
6483.750856768394442
 20
330.7536304314269273
 30
0.0
 40
0.0050426731944525
 50
176.5684021934856958
 51
233.0041625135106926
  0
ARC
  5
34595
  8
0
 10
6483.7158506196101371
 20
330.7515539743982913
 30
0.0
 40
0.0028973000576352
 50
280.9445819476853785
 51
336.0525776934978808
  0
ARC
  5
34596
  8
0
 10
6483.7563490590628135
 20
330.8218560119320273
 30
0.0
 40
0.0725470104746778
 50
264.565254777425082
 51
274.8941338310226001
  0
ARC
  5
34597
  8
0
 10
6483.715341095246913
 20
330.9577241095606155
 30
0.0
 40
0.2108704681669997
 50
279.3163594499615101
 51
284.9329256535129957
  0
ARC
  5
34598
  8
0
 10
6483.7219367973411863
 20
331.2113635747970193
 30
0.0
 40
0.4598734578347703
 50
275.9590661668145799
 51
276.4333049902597281
  0
ARC
  5
34599
  8
0
 10
6483.7823338510015674
 20
330.8184982236800238
 30
0.0
 40
0.0654011482752723
 50
248.8527487439970969
 51
259.1472501888165993
  0
ARC
  5
3459A
  8
0
 10
6483.7221776916176168
 20
331.2112746008689896
 30
0.0
 40
0.4595051420826171
 50
275.9762665878402004
 51
276.3280811919896109
  0
LINE
  5
3459B
  8
0
 10
6483.7587393347330362
 20
330.7575014286193209
 30
0.0
 11
6483.7605659545197341
 21
330.7580844272571881
 31
0.0
  0
LINE
  5
3459C
  8
0
 10
6483.7713136912670961
 20
330.7550025633382234
 30
0.0
 11
6483.7700197575040875
 21
330.7542668193901818
 31
0.0
  0
ARC
  5
3459D
  8
0
 10
6483.7607481299237406
 20
330.7523388969615894
 30
0.0
 40
0.0030502656189401
 50
292.6228496154002983
 51
2.9496023092796522
  0
ARC
  5
3459E
  8
0
 10
6483.7544335794545987
 20
330.8219904320267233
 30
0.0
 40
0.0728824025372995
 50
264.5555555119727273
 51
274.6141081053656876
  0
ARC
  5
3459F
  8
0
 10
6483.7200952310540742
 20
331.1631342068178014
 30
0.0
 40
0.4146053013278258
 50
269.447636305877495
 51
273.7924817885206039
  0
ARC
  5
345A0
  8
0
 10
6483.6970198974440791
 20
330.9358497468958262
 30
0.0
 40
0.1882707198559211
 50
269.952233926064423
 51
275.8160364277060808
  0
ARC
  5
345A1
  8
0
 10
6483.7145853554748101
 20
330.9299611381935051
 30
0.0
 40
0.1832410832349082
 50
264.4498837576799133
 51
265.3232896276356882
  0
LINE
  5
345A2
  8
0
 10
6490.0663167717875695
 20
332.3405528079258033
 30
0.0
 11
6490.0663167717875695
 21
329.7814976898258124
 31
0.0
  0
LINE
  5
345A3
  8
0
 10
6489.8694663780870542
 20
332.3208528079258031
 30
0.0
 11
6489.8694663780870542
 21
329.8011976898258126
 31
0.0
  0
LINE
  5
345A4
  8
0
 10
6489.8891663780868839
 20
332.3405528079258033
 30
0.0
 11
6490.0663167717875695
 21
332.3405528079258033
 31
0.0
  0
LINE
  5
345A5
  8
0
 10
6488.1174521811753948
 20
331.5137813679259011
 30
0.0
 11
6482.9179960282872344
 21
331.5137813679259011
 31
0.0
  0
LINE
  5
345A6
  8
0
 10
6483.1524999190705785
 20
330.9324445571510864
 30
0.0
 11
6484.0356407253893849
 21
330.6792080059755108
 31
0.0
  0
LINE
  5
345A7
  8
0
 10
6484.891390952087022
 20
330.9171713374258275
 30
0.0
 11
6488.0176445764873279
 21
330.7195409353587934
 31
0.0
  0
LINE
  5
345A8
  8
0
 10
6488.0176445764873279
 20
327.7842982994258136
 30
0.0
 11
6488.0176445764873279
 21
331.1799889017282794
 31
0.0
  0
LINE
  5
345A9
  8
0
 10
6488.6274613397872599
 20
331.8544210190257786
 30
0.0
 11
6488.9057456303917206
 21
331.2838542288565122
 31
0.0
  0
LINE
  5
345AA
  8
0
 10
6489.0812521069883587
 20
331.8716820376071155
 30
0.0
 11
6489.0812521069883587
 21
330.2503684601446139
 31
0.0
  0
LINE
  5
345AB
  8
0
 10
6489.1124772211205709
 20
331.9031808381835731
 30
0.0
 11
6489.8694663780870542
 21
331.9097869824258282
 31
0.0
  0
ARC
  5
345AC
  8
0
 10
6489.8891663780868839
 20
332.3208528079258031
 30
0.0
 40
0.0197
 50
90.0
 51
180.0000000000065086
  0
ARC
  5
345AD
  8
0
 10
6489.1127521069865907
 20
331.8716820376071155
 30
0.0
 40
0.0315
 50
90.4999999962134041
 51
179.9999999999967031
  0
ARC
  5
345AE
  8
0
 10
6488.7448132660920237
 20
331.1443755128890984
 30
0.0
 40
0.7280402575449294
 50
100.2982332349214971
 51
177.1961557087118138
  0
ARC
  5
345AF
  8
0
 10
6488.616807979819896
 20
331.8488665905722996
 30
0.0
 40
0.0120143977819838
 50
27.5365491436288714
 51
100.2982332349214971
  0
ARC
  5
345B0
  8
0
 10
6489.1681732102733804
 20
331.0610252489514096
 30
0.0
 40
0.7244094487709934
 50
97.7069701283114256
 51
126.997007903449699
  0
ARC
  5
345B1
  8
0
 10
6489.0694410833866641
 20
331.7905953628257976
 30
0.0
 40
0.011811023600007
 50
277.7069701250503044
 51
359.9999999999836859
  0
LINE
  5
345B2
  8
0
 10
6488.9836396063874417
 20
330.9575343664932916
 30
0.0
 11
6488.9836396063874417
 21
330.2774561725004219
 31
0.0
  0
ARC
  5
345B3
  8
0
 10
6488.1945988181341818
 20
330.9416436323286916
 30
0.0
 40
0.7892007862134941
 50
1.1537412909598601
 51
25.6973014218022584
  0
ARC
  5
345B4
  8
0
 10
6485.3906443395917449
 20
332.2025716839493157
 30
0.0
 40
2.5908906078735079
 50
196.0090681544054121
 51
206.5652731481511921
  0
ARC
  5
345B5
  8
0
 10
6483.7201464057698104
 20
331.3963459424329017
 30
0.0
 40
0.7366546075791714
 50
208.5853112428006
 51
218.3670853892909918
  0
ARC
  5
345B6
  8
0
 10
6483.1579290524878161
 20
330.9512635892803019
 30
0.0
 40
0.0195865121943919
 50
218.3670853892587047
 51
254.0924084700058074
  0
ARC
  5
345B7
  8
0
 10
6482.9189927310753774
 20
331.4940924568787182
 30
0.0
 40
0.0197141227213244
 50
92.8979843748327454
 51
197.9058255300552105
  0
ARC
  5
345B8
  8
0
 10
6484.9695020059143644
 20
329.1600043712240904
 30
0.0
 40
1.7769248095572421
 50
112.2171851015243931
 51
121.1154437614864037
  0
ARC
  5
345B9
  8
0
 10
6486.4682152765881256
 20
325.4906659891684058
 30
0.0
 40
5.7405324629099859
 50
110.1157821055059998
 51
112.2171851015243931
  0
ARC
  5
345BA
  8
0
 10
6484.7647354252057994
 20
329.9916854601601131
 30
0.0
 40
0.9296514068245604
 50
94.6920844860842124
 51
106.9349748426424043
  0
ARC
  5
345BB
  8
0
 10
6484.7827837430422733
 20
329.516850108603478
 30
0.0
 40
1.404526635470897
 50
85.5650874410123663
 51
93.8413386482090743
  0
ARC
  5
345BC
  8
0
 10
6484.0410707812980036
 20
330.698144861385515
 30
0.0
 40
0.0197
 50
254.0000000006616858
 51
301.115443761541087
  0
LINE
  5
345BD
  8
0
 10
6483.5102108638247955
 20
330.8263693389047262
 30
0.0
 11
6483.511139085094328
 21
330.8296064311466012
 31
0.0
  0
LINE
  5
345BE
  8
0
 10
6483.4593848241829619
 20
330.8432673937784898
 30
0.0
 11
6483.4586434908906085
 21
330.8446593005559748
 31
0.0
  0
LINE
  5
345BF
  8
0
 10
6483.437498227607648
 20
330.8507226072327967
 30
0.0
 11
6483.4398727756070002
 21
330.8488624091114048
 31
0.0
  0
LINE
  5
345C0
  8
0
 10
6483.4414935472495927
 20
330.8478793238815001
 30
0.0
 11
6483.459010680987376
 21
330.8428563666258242
 31
0.0
  0
LINE
  5
345C1
  8
0
 10
6483.4385684538001442
 20
330.8504157248103752
 30
0.0
 11
6483.4402933210849369
 21
330.8491258460372819
 31
0.0
  0
LINE
  5
345C2
  8
0
 10
6483.4402933210849369
 20
330.8491258460372819
 30
0.0
 11
6483.4577297631403781
 21
330.844131145142228
 31
0.0
  0
LINE
  5
345C3
  8
0
 10
6483.4577297631403781
 20
330.844131145142228
 30
0.0
 11
6483.4572334275280809
 21
330.8450636297192773
 31
0.0
  0
LINE
  5
345C4
  8
0
 10
6489.8891663780868839
 20
329.7814976898258124
 30
0.0
 11
6490.0663167717875695
 21
329.7814976898258124
 31
0.0
  0
LINE
  5
345C5
  8
0
 10
6489.1124772211205709
 20
330.2188696595679858
 30
0.0
 11
6489.8694663780870542
 21
330.2122635153259012
 31
0.0
  0
ARC
  5
345C6
  8
0
 10
6489.8891663780868839
 20
329.8011976898258126
 30
0.0
 40
0.0197
 50
179.9999999999934914
 51
270.0
  0
ARC
  5
345C7
  8
0
 10
6489.1127521069865907
 20
330.2503684601446139
 30
0.0
 40
0.0315
 50
180.0
 51
269.5000000037865107
  0
ARC
  5
345C8
  8
0
 10
6489.1681732102733804
 20
331.0610252488003198
 30
0.0
 40
0.7244094487709934
 50
255.2420216517147935
 51
262.2930298716885886
  0
ARC
  5
345C9
  8
0
 10
6489.0694410833866641
 20
330.3314551349258181
 30
0.0
 40
0.011811023600007
 50
0.0000000000162844
 51
82.2930298749496529
  0
LINE
  5
345CA
  8
0
 10
6488.1722656689871656
 20
329.4912167524511233
 30
0.0
 11
6488.1722656689871656
 21
327.7733736987721045
 31
0.0
  0
ARC
  5
345CB
  8
0
 10
6488.0475052740894171
 20
327.595670742693585
 30
0.0
 40
0.015061992640282
 50
198.7295401176008909
 51
295.7680383127390087
  0
ARC
  5
345CC
  8
0
 10
6487.9524800549279462
 20
327.792624526552288
 30
0.0
 40
0.2337411757369679
 50
295.7569008050321031
 51
313.5171773769848755
  0
ARC
  5
345CD
  8
0
 10
6487.9428965247543601
 20
327.7765484856237777
 30
0.0
 40
0.2293911149059207
 50
318.0225294356296786
 51
359.2069976417147927
  0
ARC
  5
345CE
  8
0
 10
6489.2594246629296322
 20
327.7739191133854888
 30
0.0
 40
1.2418234619251269
 50
179.5211151205537874
 51
185.8367580250939
  0
ARC
  5
345CF
  8
0
 10
6488.5132392818259177
 20
327.6977416372807284
 30
0.0
 40
0.4917597277223927
 50
185.8484595910690018
 51
192.5562196485986988
  0
ARC
  5
345D0
  8
0
 10
6488.945504224609067
 20
329.4911885350387024
 30
0.0
 40
0.7732385561363656
 50
138.8964827045346908
 51
179.9979091353133924
  0
ARC
  5
345D1
  8
0
 10
6488.943543622010111
 20
329.492925929347507
 30
0.0
 40
0.7706189967985752
 50
111.4495561178326
 51
138.8979863896765892
  0
ARC
  5
345D2
  8
0
 10
6488.9653641711593082
 20
329.4106517963144256
 30
0.0
 40
0.8552300802410407
 50
89.5587623754071558
 51
110.7945419563006055
  0
ARC
  5
345D3
  8
0
 10
6488.9720396063867156
 20
330.2774561725004219
 30
0.0
 40
0.0116
 50
269.5587623754071842
 51
0.0
  0
ARC
  5
345D5
  8
0
 10
6488.6457385930161763
 20
331.1570498504127045
 30
0.0
 40
0.6091438309560023
 50
87.6474231119303511
 51
181.9922442543006014
  0
LINE
  5
345D6
  8
0
 10
6488.0369629639380946
 20
331.1358734429758215
 30
0.0
 11
6488.0369629639380946
 21
327.584913265341811
 31
0.0
  0
ENDSEC
  0
EOF
