  0
SECTION
  2
HEADER
  9
$ACADVER
  1
AC1009
  9
$INSBASE
 10
6824.0560295832583506
 20
218.6755745367590862
 30
0.0
  9
$EXTMIN
 10
6823.0544487694633062
 20
213.6231087914543991
 30
0.0
  9
$EXTMAX
 10
6825.0576115674994071
 20
220.3666703986035031
 30
0.0
  9
$LIMMIN
 10
0.0
 20
0.0
  9
$LIMMAX
 10
11.6929133858000007
 20
8.2677165353999982
  9
$ORTHOMODE
 70
     0
  9
$REGENMODE
 70
     1
  9
$FILLMODE
 70
     1
  9
$QTEXTMODE
 70
     0
  9
$MIRRTEXT
 70
     0
  9
$DRAGMODE
 70
     2
  9
$LTSCALE
 40
0.6431102362
  9
$OSMODE
 70
  4095
  9
$ATTMODE
 70
     1
  9
$TEXTSIZE
 40
0.2
  9
$TRACEWID
 40
0.05
  9
$TEXTSTYLE
  7
STANDARD
  9
$CLAYER
  8
0
  9
$CELTYPE
  6
BYLAYER
  9
$CECOLOR
 62
   256
  9
$DIMSCALE
 40
1.0
  9
$DIMASZ
 40
0.1875
  9
$DIMEXO
 40
0.0625
  9
$DIMDLI
 40
0.4443307087
  9
$DIMRND
 40
0.0
  9
$DIMDLE
 40
0.0
  9
$DIMEXE
 40
0.125
  9
$DIMTP
 40
0.01
  9
$DIMTM
 40
0.01
  9
$DIMTXT
 40
2.0
  9
$DIMCEN
 40
0.1052362205
  9
$DIMTSZ
 40
0.0
  9
$DIMTOL
 70
     1
  9
$DIMLIM
 70
     0
  9
$DIMTIH
 70
     1
  9
$DIMTOH
 70
     1
  9
$DIMSE1
 70
     0
  9
$DIMSE2
 70
     0
  9
$DIMTAD
 70
     0
  9
$DIMZIN
 70
     0
  9
$DIMBLK
  1

  9
$DIMASO
 70
     1
  9
$DIMSHO
 70
     1
  9
$DIMPOST
  1
\X
  9
$DIMAPOST
  1

  9
$DIMALT
 70
     1
  9
$DIMALTD
 70
     2
  9
$DIMALTF
 40
25.3999999999999986
  9
$DIMLFAC
 40
1.0
  9
$DIMTOFL
 70
     0
  9
$DIMTVP
 40
0.0
  9
$DIMTIX
 70
     0
  9
$DIMSOXD
 70
     0
  9
$DIMSAH
 70
     0
  9
$DIMBLK1
  1

  9
$DIMBLK2
  1

  9
$DIMSTYLE
  2
STANDARD
  9
$DIMCLRD
 70
     0
  9
$DIMCLRE
 70
     0
  9
$DIMCLRT
 70
     0
  9
$DIMTFAC
 40
1.0
  9
$DIMGAP
 40
0.09
  9
$LUNITS
 70
     2
  9
$LUPREC
 70
     4
  9
$SKETCHINC
 40
0.1
  9
$FILLETRAD
 40
0.0
  9
$AUNITS
 70
     0
  9
$AUPREC
 70
     0
  9
$MENU
  1
.
  9
$ELEVATION
 40
0.0
  9
$PELEVATION
 40
0.0
  9
$THICKNESS
 40
0.0
  9
$LIMCHECK
 70
     0
  9
$BLIPMODE
 70
     0
  9
$CHAMFERA
 40
0.0
  9
$CHAMFERB
 40
0.0
  9
$SKPOLY
 70
     0
  9
$TDCREATE
 40
2458060.468368056230247
  9
$TDUPDATE
 40
2460437.6588773149996996
  9
$TDINDWG
 40
0.9791390046
  9
$TDUSRTIMER
 40
0.9791390046
  9
$USRTIMER
 70
     1
  9
$ANGBASE
 50
0.0
  9
$ANGDIR
 70
     0
  9
$PDMODE
 70
     0
  9
$PDSIZE
 40
0.3125
  9
$PLINEWID
 40
0.0
  9
$COORDS
 70
     1
  9
$SPLFRAME
 70
     0
  9
$SPLINETYPE
 70
     6
  9
$SPLINESEGS
 70
     8
  9
$ATTDIA
 70
     1
  9
$ATTREQ
 70
     1
  9
$HANDLING
 70
     1
  9
$HANDSEED
  5
307C3
  9
$SURFTAB1
 70
     6
  9
$SURFTAB2
 70
     6
  9
$SURFTYPE
 70
     6
  9
$SURFU
 70
     6
  9
$SURFV
 70
     6
  9
$UCSNAME
  2

  9
$UCSORG
 10
0.0
 20
0.0
 30
0.0
  9
$UCSXDIR
 10
1.0
 20
0.0
 30
0.0
  9
$UCSYDIR
 10
0.0
 20
1.0
 30
0.0
  9
$PUCSNAME
  2

  9
$PUCSORG
 10
0.0
 20
0.0
 30
0.0
  9
$PUCSXDIR
 10
1.0
 20
0.0
 30
0.0
  9
$PUCSYDIR
 10
0.0
 20
1.0
 30
0.0
  9
$USERI1
 70
     0
  9
$USERI2
 70
     0
  9
$USERI3
 70
     0
  9
$USERI4
 70
     0
  9
$USERI5
 70
     0
  9
$USERR1
 40
0.0
  9
$USERR2
 40
0.0
  9
$USERR3
 40
0.0
  9
$USERR4
 40
0.0
  9
$USERR5
 40
0.0
  9
$WORLDVIEW
 70
     1
  9
$SHADEDGE
 70
     3
  9
$SHADEDIF
 70
    70
  9
$TILEMODE
 70
     1
  9
$MAXACTVP
 70
    64
  9
$PLIMCHECK
 70
     0
  9
$PEXTMIN
 10
1.0000000000000000E+20
 20
1.0000000000000000E+20
 30
1.0000000000000000E+20
  9
$PEXTMAX
 10
-1.0000000000000000E+20
 20
-1.0000000000000000E+20
 30
-1.0000000000000000E+20
  9
$PLIMMIN
 10
0.0
 20
0.0
  9
$PLIMMAX
 10
12.0
 20
9.0
  9
$UNITMODE
 70
     0
  9
$VISRETAIN
 70
     1
  9
$PLINEGEN
 70
     0
  9
$PSLTSCALE
 70
     1
  0
ENDSEC
  0
SECTION
  2
TABLES
  0
TABLE
  2
VPORT
 70
     1
  0
VPORT
  2
*ACTIVE
 70
     0
 10
0.0
 20
0.0
 11
1.0
 21
1.0
 12
2912.6906737231688567
 22
84.4152844924898602
 13
0.0
 23
0.0
 14
1.0
 24
1.0
 15
0.0
 25
0.0
 16
0.0
 26
0.0
 36
60.4960186965801583
 17
3911.3653564453120453
 27
132.5796051025390057
 37
0.0
 40
6.7908080704341032
 41
2.1211111111111101
 42
50.0
 43
0.0
 44
0.0
 50
0.0
 51
0.0
 71
     0
 72
   100
 73
     1
 74
     1
 75
     0
 76
     0
 77
     0
 78
     0
  0
ENDTAB
  0
TABLE
  2
LTYPE
 70
     2
  0
LTYPE
  2
CONTINUOUS
 70
     0
  3
Solid line
 72
    65
 73
     0
 40
0.0
  0
LTYPE
  2
PHANTOM2
 70
     0
  3
___ _ _ ___ _ _ ___ _ _ ___ _ _
 72
    65
 73
     6
 40
1.25
 49
0.625
 49
-0.125
 49
0.125
 49
-0.125
 49
0.125
 49
-0.125
  0
ENDTAB
  0
TABLE
  2
LAYER
 70
     2
  0
LAYER
  2
0
 70
     0
 62
   255
  6
CONTINUOUS
  0
LAYER
  2
DEFPOINTS
 70
     0
 62
     7
  6
CONTINUOUS
  0
ENDTAB
  0
TABLE
  2
STYLE
 70
     1
  0
STYLE
  2
STANDARD
 70
     0
 40
0.0
 41
0.8
 50
0.0
 71
     0
 42
0.2
  3
txt
  4

  0
ENDTAB
  0
TABLE
  2
VIEW
 70
     0
  0
ENDTAB
  0
TABLE
  2
UCS
 70
     0
  0
ENDTAB
  0
TABLE
  2
APPID
 70
    11
  0
APPID
  2
ACAD
 70
     0
  0
APPID
  2
ACAD_MLEADERVER
 70
     0
  0
APPID
  2
ACAD_EXEMPT_FROM_CAD_STANDARDS
 70
     0
  0
APPID
  2
ACAD_NAV_VCDISPLAY
 70
     0
  0
APPID
  2
ACAECLAYERSTANDARD
 70
     0
  0
APPID
  2
ACCMTRANSPARENCY
 70
     0
  0
APPID
  2
ACAD_DSTYLE_DIMJAG
 70
     0
  0
APPID
  2
ACAD_DSTYLE_DIMTALN
 70
     0
  0
APPID
  2
ACDBATTR
 70
     0
  0
APPID
  2
ACADANNOTATIVE
 70
     0
  0
APPID
  2
DCO15
 70
     0
  0
ENDTAB
  0
TABLE
  2
DIMSTYLE
 70
     1
  0
DIMSTYLE
  2
STANDARD
 70
     0
  3

  4

  5

  6

  7

 40
1.0
 41
0.1875
 42
0.0625
 43
0.38
 44
0.125
 45
0.0
 46
0.0
 47
0.01
 48
0.01
140
0.15625
141
0.09
142
0.0
143
25.3999999999999986
144
1.0
145
0.0
146
1.0
147
0.09
 71
     1
 72
     0
 73
     1
 74
     1
 75
     0
 76
     0
 77
     0
 78
     4
170
     0
171
     2
172
     0
173
     0
174
     0
175
     0
176
     0
177
     0
178
     0
  0
ENDTAB
  0
ENDSEC
  0
SECTION
  2
BLOCKS
  0
BLOCK
  8
0
  2
$MODEL_SPACE
 70
     0
 10
0.0
 20
0.0
 30
0.0
  3
$MODEL_SPACE
  1

  0
ENDBLK
  5
21
  8
0
  0
BLOCK
 67
     1
  8
0
  2
$PAPER_SPACE
 70
     0
 10
0.0
 20
0.0
 30
0.0
  3
$PAPER_SPACE
  1

  0
ENDBLK
  5
1D
 67
     1
  8
0
  0
ENDSEC
  0
SECTION
  2
ENTITIES
  0
ATTDEF
  5
256E4
  8
DEFPOINTS
 10
6824.0504977384125596
 20
218.6740061433850997
 30
0.0
 40
0.001
  1
K-30091T-4
  3

  2
MODELNUMBER
 70
     0
1001
ACDBATTR
1070
     0
1070
     1
  0
ATTDEF
  5
256E5
  8
DEFPOINTS
 10
6824.0503719287553395
 20
218.6723393030059981
 30
0.0
 40
0.001
  1
FORE TRI
  3

  2
TRADENAME
 70
     0
1001
ACDBATTR
1070
     0
1070
     1
  0
ATTDEF
  5
256E6
  8
DEFPOINTS
 10
6824.0504977384125596
 20
218.6706728100517978
 30
0.0
 40
0.001
  1
BATHROOM SINK FAUCET
  3

  2
PRODUCT
 70
     0
1001
ACDBATTR
1070
     0
1070
     1
  0
LINE
  5
3069A
  8
0
 10
6823.6742268543257524
 20
213.6231918929281051
 30
0.0
 11
6824.4378334826378705
 21
213.6231918929281051
 31
0.0
  0
ARC
  5
3069B
  8
0
 10
6823.8704540005601302
 20
218.2097051402546128
 30
0.0
 40
1.4277570854148189
 50
93.6869807707414566
 51
101.279821227475594
  0
ARC
  5
3069C
  8
0
 10
6823.7712811747132946
 20
218.7207261825716955
 30
0.0
 40
0.9072128595144919
 50
101.4502756786726962
 51
113.2861867234528006
  0
ARC
  5
3069D
  8
0
 10
6823.6543719320279706
 20
218.9842432548933004
 30
0.0
 40
0.6189527297225891
 50
112.9889118138735995
 51
136.790672049100408
  0
ARC
  5
3069E
  8
0
 10
6823.5945477954392118
 20
219.0488017444203876
 30
0.0
 40
0.5311834526633412
 50
137.4480529692613118
 51
161.4436481378141934
  0
ARC
  5
3069F
  8
0
 10
6823.7157229308113529
 20
219.0058890136209868
 30
0.0
 40
0.6597186599137503
 50
161.2595882932384086
 51
173.8919831191784056
  0
ARC
  5
306A0
  8
0
 10
6823.9481720174162547
 20
218.9783282655843095
 30
0.0
 40
0.8937846910377522
 50
173.7207617665602868
 51
177.3619899437113077
  0
ARC
  5
306A1
  8
0
 10
6824.2369626623440126
 20
218.9737049235187101
 30
0.0
 40
1.1825138928804639
 50
177.7822392836056906
 51
182.4993163658812136
  0
ARC
  5
306A2
  8
0
 10
6824.6703623515286381
 20
218.9994560870777036
 30
0.0
 40
1.6166386661466801
 50
182.7412821168236121
 51
189.0380055784285105
  0
ARC
  5
306A3
  8
0
 10
6827.3159847551660278
 20
219.3263118430708971
 30
0.0
 40
4.2817654064299662
 50
187.7960914595902011
 51
193.2787184775106937
  0
ARC
  5
306A4
  8
0
 10
6824.168903634697017
 20
218.5903447252420904
 30
0.0
 40
1.0498013265481549
 50
193.6365908649482037
 51
212.5065387011902942
  0
ARC
  5
306A5
  8
0
 10
6823.8283437767649957
 20
218.3891184180048981
 30
0.0
 40
0.6545941947693455
 50
213.6720855711446916
 51
228.4678565363524001
  0
ARC
  5
306A6
  8
0
 10
6824.1079067540467804
 20
203.9459432672989863
 30
0.0
 40
15.4977441141729599
 50
90.1917901687651948
 51
90.723063753183169
  0
ARC
  5
306A7
  8
0
 10
6823.943235379437283
 20
217.420554802886187
 30
0.0
 40
2.0221346483149731
 50
90.8756359230240065
 51
96.2122290931908282
  0
ARC
  5
306A8
  8
0
 10
6823.8232808987968383
 20
218.5062217173615124
 30
0.0
 40
0.929864111353443
 50
96.1032646887764344
 51
106.4253206248975943
  0
ARC
  5
306A9
  8
0
 10
6823.6998628508863476
 20
218.9209520589801059
 30
0.0
 40
0.4971621736244053
 50
106.2974133358852953
 51
125.9759924815032974
  0
ARC
  5
306AA
  8
0
 10
6823.6500229008843235
 20
219.0012566380877104
 30
0.0
 40
0.4029544161864895
 50
126.9487533409449043
 51
150.2817893920422136
  0
ARC
  5
306AB
  8
0
 10
6823.7623816093982896
 20
218.9376567197932957
 30
0.0
 40
0.5320639242089552
 50
150.3318889952674056
 51
169.5435437248659127
  0
ARC
  5
306AC
  8
0
 10
6823.9170436763297403
 20
218.9003011306589883
 30
0.0
 40
0.6909914785145418
 50
168.8249650555839878
 51
176.579199011491994
  0
ARC
  5
306AD
  8
0
 10
6824.0177604231930673
 20
218.8900354235281043
 30
0.0
 40
0.7921526490651027
 50
176.272682900599392
 51
185.0024354516982896
  0
ARC
  5
306AE
  8
0
 10
6824.4669751250039553
 20
218.9239127366680009
 30
0.0
 40
1.242622156428046
 50
184.7524149831951092
 51
190.1263795021193062
  0
ARC
  5
306AF
  8
0
 10
6826.9568434932289165
 20
219.3418513604468956
 30
0.0
 40
3.767278237389962
 50
189.7257689275623136
 51
190.2912101231096926
  0
ARC
  5
306B0
  8
0
 10
6826.9381865147979624
 20
219.6403453580356882
 30
0.0
 40
3.8138316341453971
 50
194.7579865245621988
 51
197.7032343011904061
  0
ARC
  5
306B1
  8
0
 10
6824.3157099272548294
 20
197.6711439885141033
 30
0.0
 40
21.7554575747933683
 50
90.6839160922797589
 51
91.2265695629184989
  0
ARC
  5
306B2
  8
0
 10
6823.924580387525566
 20
217.691818584961112
 30
0.0
 40
1.7314045492379559
 50
92.4683971090376247
 51
96.89056180146423
  0
ARC
  5
306B3
  8
0
 10
6823.8152273238074486
 20
218.5524246751240867
 30
0.0
 40
0.8639114071489919
 50
96.5381633822345293
 51
107.354977723434601
  0
ARC
  5
306B4
  8
0
 10
6823.6902866819227711
 20
218.9533435202845055
 30
0.0
 40
0.443975861524943
 50
107.3985597430799999
 51
127.4401196129449971
  0
ARC
  5
306B5
  8
0
 10
6823.6674014765803804
 20
218.9939744090688123
 30
0.0
 40
0.3978563252719009
 50
128.3805856307735098
 51
139.8954692904084141
  0
ARC
  5
306B6
  8
0
 10
6823.6987430838707951
 20
218.9752168946561994
 30
0.0
 40
0.4339512224598933
 50
140.6669200080492885
 51
162.7178672355416893
  0
ARC
  5
306B7
  8
0
 10
6824.3417488836248594
 20
218.7997089474098971
 30
0.0
 40
1.1003166040575301
 50
163.938421892305513
 51
170.4636123553416951
  0
ARC
  5
306B8
  8
0
 10
6824.1968725308352077
 20
218.8947568315508079
 30
0.0
 40
0.9442736877966206
 50
174.6986109079369953
 51
186.1611966699107086
  0
ARC
  5
306B9
  8
0
 10
6834.687732580681768
 20
220.7306399618549904
 30
0.0
 40
11.5926885093706797
 50
189.6197008950082079
 51
190.6763478087148087
  0
ARC
  5
306BA
  8
0
 10
6763.0214647093744134
 20
207.0823705659250038
 30
0.0
 40
61.3616304418970486
 50
10.3888710724537603
 51
10.8024465259953892
  0
ARC
  5
306BB
  8
0
 10
6813.5085263128976294
 20
216.3049563435727123
 30
0.0
 40
10.0391900687218705
 50
8.1647597891547488
 51
10.5762976635246098
  0
ARC
  5
306BC
  8
0
 10
6820.1272253052411543
 20
217.2659838789201103
 30
0.0
 40
3.3511135222054871
 50
1.384272768681422
 51
7.9715949209749279
  0
LINE
  5
306BD
  8
0
 10
6823.4818695062749612
 20
215.1655770940560046
 30
0.0
 11
6823.4818695062749612
 21
217.1946304127721987
 31
0.0
  0
LINE
  5
306BE
  8
0
 10
6823.4387268543259779
 20
213.8588532028836937
 30
0.0
 11
6823.4387268543259779
 21
216.9795511487265003
 31
0.0
  0
ARC
  5
306BF
  8
0
 10
6850.3971537026582155
 20
218.0676022462573087
 30
0.0
 40
26.9294374838051205
 50
181.5334845153824972
 51
181.857683293170993
  0
ARC
  5
306C0
  8
0
 10
6818.0140464389924091
 20
217.2766989826590134
 30
0.0
 40
5.4261572200890731
 50
10.2159311608061891
 51
12.8189869550853999
  0
ARC
  5
306C1
  8
0
 10
6817.7001736202701068
 20
217.404752198495089
 30
0.0
 40
5.7152314622433584
 50
5.798960632849492
 51
8.3941525597716975
  0
ARC
  5
306C2
  8
0
 10
6814.7395244327508408
 20
217.0908839259116974
 30
0.0
 40
8.69245225866241
 50
3.334139191120888
 51
5.8854618040997231
  0
ARC
  5
306C3
  8
0
 10
6811.7308246899401638
 20
216.9074433800790018
 30
0.0
 40
11.7067308269165906
 50
2.0680624614679428
 51
3.3740150092073029
  0
ARC
  5
306C4
  8
0
 10
6808.4338729956180032
 20
216.7781034557546889
 30
0.0
 40
15.0062060659632408
 50
0.7691783817622218
 51
2.10733877049221
  0
ARC
  5
306C5
  8
0
 10
6823.6680525348092488
 20
213.8525218549368958
 30
0.0
 40
0.2294130634825636
 50
178.418548727657992
 51
271.5422189368323984
  0
LINE
  5
306C6
  8
0
 10
6823.7173695062747356
 20
214.9300770940560028
 30
0.0
 11
6824.3946908306879777
 21
214.9300770940560028
 31
0.0
  0
ARC
  5
306C7
  8
0
 10
6823.7173695062747356
 20
215.1655770940558909
 30
0.0
 40
0.2355
 50
180.0
 51
270.0
  0
ARC
  5
306C8
  8
0
 10
6824.1773445264243492
 20
217.3332968904323081
 30
0.0
 40
2.3064968763490228
 50
86.1199819205945829
 51
88.2577454143879265
  0
ARC
  5
306C9
  8
0
 10
6824.2416063364025831
 20
218.2097051402546128
 30
0.0
 40
1.4277570854148189
 50
78.7201787725243349
 51
86.3130192292585718
  0
ARC
  5
306CA
  8
0
 10
6824.3407791622503282
 20
218.7207261825716955
 30
0.0
 40
0.9072128595144919
 50
66.7138132765471283
 51
78.5497243213272185
  0
ARC
  5
306CB
  8
0
 10
6824.4576884049347427
 20
218.9842432548933004
 30
0.0
 40
0.6189527297225891
 50
43.2093279508996133
 51
67.0110881861263437
  0
ARC
  5
306CC
  8
0
 10
6824.5175125415244111
 20
219.0488017444203876
 30
0.0
 40
0.5311834526633412
 50
18.5563518621857817
 51
42.5519470307386882
  0
ARC
  5
306CD
  8
0
 10
6824.39633740615227
 20
219.0058890136209868
 30
0.0
 40
0.6597186599137503
 50
6.1080168808215554
 51
18.7404117067615488
  0
ARC
  5
306CE
  8
0
 10
6824.1638883195446397
 20
218.9783282655843095
 30
0.0
 40
0.8937846910377522
 50
2.6380100562887332
 51
6.2792382334396377
  0
ARC
  5
306CF
  8
0
 10
6823.8750976746187007
 20
218.9737049235187101
 30
0.0
 40
1.1825138928804639
 50
357.5006836341187864
 51
2.2177607163943001
  0
ARC
  5
306D0
  8
0
 10
6823.4416979854340752
 20
218.9994560870777036
 30
0.0
 40
1.6166386661466801
 50
350.9619944215716032
 51
357.2587178831748247
  0
ARC
  5
306D1
  8
0
 10
6820.7960755817957761
 20
219.3263118430708971
 30
0.0
 40
4.2817654064299662
 50
346.7212815224892779
 51
352.2039085404097136
  0
ARC
  5
306D2
  8
0
 10
6823.9431567022666059
 20
218.5903447252420904
 30
0.0
 40
1.0498013265481549
 50
327.4934612988097911
 51
346.3634091350518247
  0
ARC
  5
306D3
  8
0
 10
6824.2837165601986271
 20
218.3891184180048981
 30
0.0
 40
0.6545941947693455
 50
311.5321434636476283
 51
326.3279144288551947
  0
ARC
  5
306D4
  8
0
 10
6824.0041535829150234
 20
203.9459432672989863
 30
0.0
 40
15.4977441141729599
 50
89.2769362468168453
 51
89.8082098312348194
  0
ARC
  5
306D5
  8
0
 10
6824.1688249575263399
 20
217.420554802886187
 30
0.0
 40
2.0221346483149731
 50
83.787770906809186
 51
89.1243640769760361
  0
ARC
  5
306D6
  8
0
 10
6824.288779438164056
 20
218.5062217173615124
 30
0.0
 40
0.929864111353443
 50
73.5746793751023631
 51
83.8967353112235656
  0
ARC
  5
306D7
  8
0
 10
6824.4121974860772752
 20
218.9209520589801059
 30
0.0
 40
0.4971621736244053
 50
54.0240075184966884
 51
73.7025866641147331
  0
ARC
  5
306D8
  8
0
 10
6824.4620374360765709
 20
219.0012566380877104
 30
0.0
 40
0.4029544161864895
 50
29.7182106079577792
 51
53.0512466590550673
  0
ARC
  5
306D9
  8
0
 10
6824.3496787275626048
 20
218.9376567197932957
 30
0.0
 40
0.5320639242089552
 50
10.4564562751340802
 51
29.6681110047326015
  0
ARC
  5
306DA
  8
0
 10
6824.1950166606311541
 20
218.9003011306589883
 30
0.0
 40
0.6909914785145418
 50
3.4208009885079811
 51
11.1750349444160406
  0
ARC
  5
306DB
  8
0
 10
6824.0942999137696461
 20
218.8900354235281043
 30
0.0
 40
0.7921526490651027
 50
354.9975645483017956
 51
3.7273170994005862
  0
ARC
  5
306DC
  8
0
 10
6823.645085211956939
 20
218.9239127366680009
 30
0.0
 40
1.242622156428046
 50
349.8736204978807791
 51
355.2475850168049192
  0
ARC
  5
306DD
  8
0
 10
6821.1552168437319779
 20
219.3418513604468956
 30
0.0
 40
3.767278237389962
 50
349.7087898768901937
 51
350.2742310724376011
  0
ARC
  5
306DE
  8
0
 10
6821.1738738221647509
 20
219.6403453580356882
 30
0.0
 40
3.8138316341453971
 50
342.2967656988095086
 51
345.2420134754377727
  0
ARC
  5
306DF
  8
0
 10
6823.796350409707884
 20
197.6711439885141033
 30
0.0
 40
21.7554575747933683
 50
88.7734304370814868
 51
89.3160839077202553
  0
ARC
  5
306E0
  8
0
 10
6824.1874799494362378
 20
217.691818584961112
 30
0.0
 40
1.7314045492379559
 50
83.1094381985357558
 51
87.5316028909623753
  0
ARC
  5
306E1
  8
0
 10
6824.2968330131561743
 20
218.5524246751240867
 30
0.0
 40
0.8639114071489919
 50
72.6450222765654132
 51
83.4618366177654849
  0
ARC
  5
306E2
  8
0
 10
6824.4217736550390327
 20
218.9533435202845055
 30
0.0
 40
0.443975861524943
 50
52.55988038705501
 51
72.6014402569199149
  0
ARC
  5
306E3
  8
0
 10
6824.4446588603823329
 20
218.9939744090688123
 30
0.0
 40
0.3978563252719009
 50
40.1045307095915504
 51
51.6194143692264618
  0
ARC
  5
306E4
  8
0
 10
6824.4133172530919182
 20
218.9752168946561994
 30
0.0
 40
0.4339512224598933
 50
17.2821327644583
 51
39.3330799919507186
  0
ARC
  5
306E5
  8
0
 10
6823.7703114533360349
 20
218.7997089474098971
 30
0.0
 40
1.1003166040575301
 50
9.5363876446582356
 51
16.061578107694519
  0
ARC
  5
306E6
  8
0
 10
6823.9151878061284151
 20
218.8947568315508079
 30
0.0
 40
0.9442736877966206
 50
353.8388033300877282
 51
5.3013890920629771
  0
ARC
  5
306E7
  8
0
 10
6813.4243277562800358
 20
220.7306399618549904
 30
0.0
 40
11.5926885093706797
 50
349.3236521912851913
 51
350.3802991049917068
  0
ARC
  5
306E8
  8
0
 10
6885.0905956275892095
 20
207.0823705659250038
 30
0.0
 40
61.3616304418970486
 50
169.197553474004593
 51
169.61112892754619
  0
ARC
  5
306E9
  8
0
 10
6834.6035340240650839
 20
216.3049563435727123
 30
0.0
 40
10.0391900687218705
 50
169.4237023364752872
 51
171.8352402108451997
  0
ARC
  5
306EA
  8
0
 10
6827.9848350317215591
 20
217.2659838789201103
 30
0.0
 40
3.3511135222054871
 50
172.0284050790251058
 51
178.6157272313186013
  0
LINE
  5
306EB
  8
0
 10
6824.6301908306877522
 20
215.1655770940560046
 30
0.0
 11
6824.6301908306877522
 21
217.1946304127721987
 31
0.0
  0
LINE
  5
306EC
  8
0
 10
6824.6733334826367354
 20
213.8588532028836937
 30
0.0
 11
6824.6733334826367354
 21
216.9795511487265003
 31
0.0
  0
ARC
  5
306ED
  8
0
 10
6797.7149066343026789
 20
218.0676022462573087
 30
0.0
 40
26.9294374838051205
 50
358.1423167068289786
 51
358.4665154846173891
  0
ARC
  5
306EE
  8
0
 10
6830.0980138979712137
 20
217.2766989826590134
 30
0.0
 40
5.4261572200890731
 50
167.1810130449144935
 51
169.7840688391937931
  0
ARC
  5
306EF
  8
0
 10
6830.4118867166926066
 20
217.404752198495089
 30
0.0
 40
5.7152314622433584
 50
171.6058474402283025
 51
174.2010393671521058
  0
ARC
  5
306F0
  8
0
 10
6833.3725359042100536
 20
217.0908839259116974
 30
0.0
 40
8.69245225866241
 50
174.1145381959003089
 51
176.6658608088791027
  0
ARC
  5
306F1
  8
0
 10
6836.38123564702164
 20
216.9074433800790018
 30
0.0
 40
11.7067308269165906
 50
176.6259849907926878
 51
177.9319375385319972
  0
ARC
  5
306F2
  8
0
 10
6839.6781873404070211
 20
216.7781034557822863
 30
0.0
 40
15.0062060650245996
 50
177.8926882183793907
 51
179.2308240078799031
  0
ARC
  5
306F3
  8
0
 10
6824.4425661245877563
 20
213.8539625456749889
 30
0.0
 40
0.2308191761294253
 50
268.8251434859071196
 51
1.2140888495667641
  0
ARC
  5
306F4
  8
0
 10
6824.3946908306879777
 20
215.1655770940558909
 30
0.0
 40
0.2355
 50
270.0
 51
0.0
  0
LINE
  5
306F6
  8
0
 10
6823.9811244274587807
 20
220.3313134556356943
 30
0.0
 11
6823.9811244274587807
 21
219.4433982215730055
 31
0.0
  0
LINE
  5
306F7
  8
0
 10
6824.1378353362388225
 20
220.3313135082059091
 30
0.0
 11
6824.1378353362388225
 21
219.443341958730997
 31
0.0
  0
ARC
  5
306F8
  8
0
 10
6824.0594799050440997
 20
220.2621690805680998
 30
0.0
 40
0.1045013180354127
 50
41.4266595896697609
 51
138.5733788511954003
  0
ARC
  5
306F9
  8
0
 10
6823.9324763938084288
 20
217.4508965275987009
 30
0.0
 40
2.1890227315134512
 50
88.7265748959983824
 51
94.0298225493331756
  0
ARC
  5
306FA
  8
0
 10
6824.1234745544370526
 20
215.4845715787994891
 30
0.0
 40
4.1560060421307163
 50
88.2903148177024093
 51
89.8020181354980878
  0
ENDSEC
  0
EOF
