  0
SECTION
  2
HEADER
  9
$ACADVER
  1
AC1009
  9
$INSBASE
 10
6715.4108007612221627
 20
351.0010868264250803
 30
0.0
  9
$EXTMIN
 10
6714.1312732021724514
 20
347.2534820052580926
 30
0.0
  9
$EXTMAX
 10
6720.690328320271874
 20
352.2806143854750758
 30
0.0
  9
$LIMMIN
 10
0.0
 20
0.0
  9
$LIMMAX
 10
11.6929133858000007
 20
8.2677165353999982
  9
$ORTHOMODE
 70
     0
  9
$REGENMODE
 70
     1
  9
$FILLMODE
 70
     1
  9
$QTEXTMODE
 70
     0
  9
$MIRRTEXT
 70
     0
  9
$DRAGMODE
 70
     2
  9
$LTSCALE
 40
0.6431102362
  9
$OSMODE
 70
  4095
  9
$ATTMODE
 70
     1
  9
$TEXTSIZE
 40
0.2
  9
$TRACEWID
 40
0.05
  9
$TEXTSTYLE
  7
STANDARD
  9
$CLAYER
  8
0
  9
$CELTYPE
  6
BYLAYER
  9
$CECOLOR
 62
   256
  9
$DIMSCALE
 40
1.0
  9
$DIMASZ
 40
0.1875
  9
$DIMEXO
 40
0.0625
  9
$DIMDLI
 40
0.4443307087
  9
$DIMRND
 40
0.0
  9
$DIMDLE
 40
0.0
  9
$DIMEXE
 40
0.125
  9
$DIMTP
 40
0.01
  9
$DIMTM
 40
0.01
  9
$DIMTXT
 40
2.0
  9
$DIMCEN
 40
0.1052362205
  9
$DIMTSZ
 40
0.0
  9
$DIMTOL
 70
     1
  9
$DIMLIM
 70
     0
  9
$DIMTIH
 70
     1
  9
$DIMTOH
 70
     1
  9
$DIMSE1
 70
     0
  9
$DIMSE2
 70
     0
  9
$DIMTAD
 70
     0
  9
$DIMZIN
 70
     0
  9
$DIMBLK
  1

  9
$DIMASO
 70
     1
  9
$DIMSHO
 70
     1
  9
$DIMPOST
  1
\X
  9
$DIMAPOST
  1

  9
$DIMALT
 70
     1
  9
$DIMALTD
 70
     2
  9
$DIMALTF
 40
25.3999999999999986
  9
$DIMLFAC
 40
1.0
  9
$DIMTOFL
 70
     0
  9
$DIMTVP
 40
0.0
  9
$DIMTIX
 70
     0
  9
$DIMSOXD
 70
     0
  9
$DIMSAH
 70
     0
  9
$DIMBLK1
  1

  9
$DIMBLK2
  1

  9
$DIMSTYLE
  2
STANDARD
  9
$DIMCLRD
 70
     0
  9
$DIMCLRE
 70
     0
  9
$DIMCLRT
 70
     0
  9
$DIMTFAC
 40
1.0
  9
$DIMGAP
 40
0.09
  9
$LUNITS
 70
     2
  9
$LUPREC
 70
     4
  9
$SKETCHINC
 40
0.1
  9
$FILLETRAD
 40
0.0
  9
$AUNITS
 70
     0
  9
$AUPREC
 70
     0
  9
$MENU
  1
.
  9
$ELEVATION
 40
0.0
  9
$PELEVATION
 40
0.0
  9
$THICKNESS
 40
0.0
  9
$LIMCHECK
 70
     0
  9
$BLIPMODE
 70
     0
  9
$CHAMFERA
 40
0.0
  9
$CHAMFERB
 40
0.0
  9
$SKPOLY
 70
     0
  9
$TDCREATE
 40
2458060.468368056230247
  9
$TDUPDATE
 40
2460362.8849652782082558
  9
$TDINDWG
 40
0.9546945602
  9
$TDUSRTIMER
 40
0.9546945602
  9
$USRTIMER
 70
     1
  9
$ANGBASE
 50
0.0
  9
$ANGDIR
 70
     0
  9
$PDMODE
 70
     0
  9
$PDSIZE
 40
0.3125
  9
$PLINEWID
 40
0.0
  9
$COORDS
 70
     1
  9
$SPLFRAME
 70
     0
  9
$SPLINETYPE
 70
     6
  9
$SPLINESEGS
 70
     8
  9
$ATTDIA
 70
     1
  9
$ATTREQ
 70
     1
  9
$HANDLING
 70
     1
  9
$HANDSEED
  5
3C6C4
  9
$SURFTAB1
 70
     6
  9
$SURFTAB2
 70
     6
  9
$SURFTYPE
 70
     6
  9
$SURFU
 70
     6
  9
$SURFV
 70
     6
  9
$UCSNAME
  2

  9
$UCSORG
 10
0.0
 20
0.0
 30
0.0
  9
$UCSXDIR
 10
1.0
 20
0.0
 30
0.0
  9
$UCSYDIR
 10
0.0
 20
1.0
 30
0.0
  9
$PUCSNAME
  2

  9
$PUCSORG
 10
0.0
 20
0.0
 30
0.0
  9
$PUCSXDIR
 10
1.0
 20
0.0
 30
0.0
  9
$PUCSYDIR
 10
0.0
 20
1.0
 30
0.0
  9
$USERI1
 70
     0
  9
$USERI2
 70
     0
  9
$USERI3
 70
     0
  9
$USERI4
 70
     0
  9
$USERI5
 70
     0
  9
$USERR1
 40
0.0
  9
$USERR2
 40
0.0
  9
$USERR3
 40
0.0
  9
$USERR4
 40
0.0
  9
$USERR5
 40
0.0
  9
$WORLDVIEW
 70
     1
  9
$SHADEDGE
 70
     3
  9
$SHADEDIF
 70
    70
  9
$TILEMODE
 70
     1
  9
$MAXACTVP
 70
    64
  9
$PLIMCHECK
 70
     0
  9
$PEXTMIN
 10
1.0000000000000000E+20
 20
1.0000000000000000E+20
 30
1.0000000000000000E+20
  9
$PEXTMAX
 10
-1.0000000000000000E+20
 20
-1.0000000000000000E+20
 30
-1.0000000000000000E+20
  9
$PLIMMIN
 10
0.0
 20
0.0
  9
$PLIMMAX
 10
12.0
 20
9.0
  9
$UNITMODE
 70
     0
  9
$VISRETAIN
 70
     1
  9
$PLINEGEN
 70
     0
  9
$PSLTSCALE
 70
     1
  0
ENDSEC
  0
SECTION
  2
TABLES
  0
TABLE
  2
VPORT
 70
     1
  0
VPORT
  2
*ACTIVE
 70
     0
 10
0.0
 20
0.0
 11
1.0
 21
1.0
 12
2806.0454443159092079
 22
217.187443092827607
 13
0.0
 23
0.0
 14
1.0
 24
1.0
 15
0.0
 25
0.0
 16
0.0
 26
0.0
 36
60.4960186965801583
 17
3911.3653564453120453
 27
132.5796051025390057
 37
0.0
 40
5.0726267908977434
 41
2.8610271903323259
 42
50.0
 43
0.0
 44
0.0
 50
0.0
 51
0.0
 71
     0
 72
   100
 73
     1
 74
     1
 75
     0
 76
     0
 77
     0
 78
     0
  0
ENDTAB
  0
TABLE
  2
LTYPE
 70
     2
  0
LTYPE
  2
CONTINUOUS
 70
     0
  3
Solid line
 72
    65
 73
     0
 40
0.0
  0
LTYPE
  2
PHANTOM2
 70
     0
  3
___ _ _ ___ _ _ ___ _ _ ___ _ _
 72
    65
 73
     6
 40
1.25
 49
0.625
 49
-0.125
 49
0.125
 49
-0.125
 49
0.125
 49
-0.125
  0
ENDTAB
  0
TABLE
  2
LAYER
 70
     2
  0
LAYER
  2
0
 70
     0
 62
   255
  6
CONTINUOUS
  0
LAYER
  2
DEFPOINTS
 70
     0
 62
     7
  6
CONTINUOUS
  0
ENDTAB
  0
TABLE
  2
STYLE
 70
     1
  0
STYLE
  2
STANDARD
 70
     0
 40
0.0
 41
0.8
 50
0.0
 71
     0
 42
0.2
  3
txt
  4

  0
ENDTAB
  0
TABLE
  2
VIEW
 70
     0
  0
ENDTAB
  0
TABLE
  2
UCS
 70
     0
  0
ENDTAB
  0
TABLE
  2
APPID
 70
    11
  0
APPID
  2
ACAD
 70
     0
  0
APPID
  2
ACAD_MLEADERVER
 70
     0
  0
APPID
  2
ACAD_EXEMPT_FROM_CAD_STANDARDS
 70
     0
  0
APPID
  2
ACAD_NAV_VCDISPLAY
 70
     0
  0
APPID
  2
ACAECLAYERSTANDARD
 70
     0
  0
APPID
  2
ACCMTRANSPARENCY
 70
     0
  0
APPID
  2
ACAD_DSTYLE_DIMJAG
 70
     0
  0
APPID
  2
ACAD_DSTYLE_DIMTALN
 70
     0
  0
APPID
  2
ACDBATTR
 70
     0
  0
APPID
  2
ACADANNOTATIVE
 70
     0
  0
APPID
  2
DCO15
 70
     0
  0
ENDTAB
  0
TABLE
  2
DIMSTYLE
 70
     1
  0
DIMSTYLE
  2
STANDARD
 70
     0
  3

  4

  5

  6

  7

 40
1.0
 41
0.1875
 42
0.0625
 43
0.38
 44
0.125
 45
0.0
 46
0.0
 47
0.01
 48
0.01
140
0.15625
141
0.09
142
0.0
143
25.3999999999999986
144
1.0
145
0.0
146
1.0
147
0.09
 71
     1
 72
     0
 73
     1
 74
     1
 75
     0
 76
     0
 77
     0
 78
     4
170
     0
171
     2
172
     0
173
     0
174
     0
175
     0
176
     0
177
     0
178
     0
  0
ENDTAB
  0
ENDSEC
  0
SECTION
  2
BLOCKS
  0
BLOCK
  8
0
  2
$MODEL_SPACE
 70
     0
 10
0.0
 20
0.0
 30
0.0
  3
$MODEL_SPACE
  1

  0
ENDBLK
  5
21
  8
0
  0
BLOCK
 67
     1
  8
0
  2
$PAPER_SPACE
 70
     0
 10
0.0
 20
0.0
 30
0.0
  3
$PAPER_SPACE
  1

  0
ENDBLK
  5
1D
 67
     1
  8
0
  0
BLOCK
  8
0
  2
_FILLED
 70
     0
 10
0.0
 20
0.0
 30
0.0
  3
_FILLED
  1

  0
SOLID
  5
2853B
  8
0
  6
BYBLOCK
 62
     0
 10
0.0
 20
0.0
 30
0.0
 11
-1.0
 21
0.1666666667
 31
0.0
 12
-1.0
 22
-0.1666666667
 32
0.0
 13
-1.0
 23
-0.1666666667
 33
0.0
  0
ENDBLK
  5
2853C
  8
0
  6
BYBLOCK
 62
     0
  0
ENDSEC
  0
SECTION
  2
ENTITIES
  0
ATTDEF
  5
2842F
  8
DEFPOINTS
 10
6715.4004075823222593
 20
350.9988839042724749
 30
0.0
 40
0.001
  1
K-30097T-4
  3

  2
MODELNUMBER
 70
     0
1001
ACDBATTR
1070
     0
1070
     1
  0
ATTDEF
  5
28430
  8
DEFPOINTS
 10
6715.4002817726650392
 20
350.9972170638934017
 30
0.0
 40
0.001
  1
FORE TRI
  3

  2
TRADENAME
 70
     0
1001
ACDBATTR
1070
     0
1070
     1
  0
ATTDEF
  5
28431
  8
DEFPOINTS
 10
6715.4004075823222593
 20
350.9955505709392014
 30
0.0
 40
0.001
  1
BATHROOM SINK FAUCET
  3

  2
PRODUCT
 70
     0
1001
ACDBATTR
1070
     0
1070
     1
  0
ARC
  5
3C0FC
  8
0
 10
6715.4194481052008996
 20
349.7245728644738278
 30
0.0
 40
1.103531332494134
 50
90.4488446827889874
 51
99.5093885296139149
  0
ARC
  5
3C0FD
  8
0
 10
6715.3142406202423444
 20
350.3916898041873083
 30
0.0
 40
0.4282489119710796
 50
100.3726512275868004
 51
111.3063250414857066
  0
ARC
  5
3C0FE
  8
0
 10
6715.207718292550453
 20
350.6648163533595266
 30
0.0
 40
0.1350849336928298
 50
111.3063250414857066
 51
129.7584675707292945
  0
ARC
  5
3C0FF
  8
0
 10
6715.1453198593326306
 20
350.7398197651239116
 30
0.0
 40
0.0375191802537123
 50
129.7584675706893051
 51
163.391349077991805
  0
ARC
  5
3C100
  8
0
 10
6715.1350427264051177
 20
350.7448110120279807
 30
0.0
 40
0.0263089575117235
 50
167.4137150176447051
 51
220.7597405975770926
  0
ARC
  5
3C101
  8
0
 10
6715.1965970243318225
 20
350.8036101776993974
 30
0.0
 40
0.1114077478048264
 50
222.9972442512535054
 51
250.3301612096144027
  0
ARC
  5
3C102
  8
0
 10
6715.3315167259215741
 20
351.1548706242194839
 30
0.0
 40
0.4876649514041838
 50
249.2946979652489858
 51
262.6810283842544891
  0
ARC
  5
3C103
  8
0
 10
6715.4863643225153282
 20
352.802161908925882
 30
0.0
 40
2.1420002942591658
 50
264.1862851932467038
 51
267.9784202892145117
  0
ARC
  5
3C104
  8
0
 10
6715.4453239575996122
 20
349.3547773488414236
 30
0.0
 40
1.4587801336409969
 50
91.355976022545974
 51
95.297112803934823
  0
ARC
  5
3C105
  8
0
 10
6715.3772419407259804
 20
350.2463401355497012
 30
0.0
 40
0.564926122355166
 50
96.7697338347186928
 51
104.1656563351182996
  0
ARC
  5
3C106
  8
0
 10
6715.2952331835658697
 20
350.5712544169199987
 30
0.0
 40
0.2298220691280018
 50
104.1656563351182996
 51
119.2897970576064068
  0
ARC
  5
3C107
  8
0
 10
6715.2048240895783238
 20
350.7324287719690119
 30
0.0
 40
0.0450222395796416
 50
119.2897970576064068
 51
155.7284323197472986
  0
ARC
  5
3C108
  8
0
 10
6715.1863607010036503
 20
350.7448605791249179
 30
0.0
 40
0.0233822197226905
 50
164.9407248376886059
 51
230.4973137167534105
  0
ARC
  5
3C109
  8
0
 10
6715.2452210798010128
 20
350.8106257760924223
 30
0.0
 40
0.1116257278452573
 50
228.658324236255595
 51
251.0044009323385978
  0
ARC
  5
3C10A
  8
0
 10
6715.3325670221183827
 20
351.0405735148441977
 30
0.0
 40
0.3575658834624445
 50
249.7636687732417045
 51
259.5895046456242881
  0
ARC
  5
3C10B
  8
0
 10
6715.396558234882832
 20
351.3738782441222952
 30
0.0
 40
0.696952315659946
 50
259.3667275267317791
 51
266.643789315327183
  0
ARC
  5
3C10C
  8
0
 10
6715.7992453934748482
 20
364.1041725015493853
 30
0.0
 40
13.4333738706171495
 50
268.1080944856291239
 51
268.3429930758073851
  0
LINE
  5
3C10D
  8
0
 10
6715.1480080549090417
 20
350.7859882429694949
 30
0.0
 11
6715.1480080549090417
 21
350.7666549130639169
 31
0.0
  0
ARC
  5
3C10E
  8
0
 10
6715.2024171151570044
 20
350.7735265207467137
 30
0.0
 40
0.0548412693978213
 50
187.1980771752710098
 51
229.9830932198665892
  0
ARC
  5
3C10F
  8
0
 10
6715.1404842755746358
 20
350.7635188161423798
 30
0.0
 40
0.0161867791403729
 50
139.8886358726529124
 51
172.7911925442438985
  0
ARC
  5
3C110
  8
0
 10
6715.1468590347549252
 20
350.7645695134024209
 30
0.0
 40
0.0224550062673683
 50
177.4973462078617104
 51
201.6834062067221964
  0
ARC
  5
3C111
  8
0
 10
6715.1665450402106217
 20
350.7745876917177839
 30
0.0
 40
0.0444961087720802
 50
204.3056706565452032
 51
234.3167922905259104
  0
ARC
  5
3C112
  8
0
 10
6715.2287090134059326
 20
350.8596034860756845
 30
0.0
 40
0.1498137363353343
 50
233.9714465850950091
 51
253.434022767546395
  0
ARC
  5
3C113
  8
0
 10
6715.4358375744723162
 20
349.3427663644930021
 30
0.0
 40
1.4681543336375791
 50
90.977026737633949
 51
93.6650192201740452
  0
ARC
  5
3C114
  8
0
 10
6715.3947333837659244
 20
350.1621415970752196
 30
0.0
 40
0.6479268955500118
 50
94.6693481275121655
 51
102.3281073738890967
  0
ARC
  5
3C115
  8
0
 10
6715.313761171238184
 20
350.5326403747606037
 30
0.0
 40
0.2686831171327472
 50
102.3281073738890967
 51
114.250024207373599
  0
ARC
  5
3C116
  8
0
 10
6715.240068583347238
 20
350.6962316691426054
 30
0.0
 40
0.0892598491108168
 50
114.250024207373599
 51
129.8124425182944037
  0
ARC
  5
3C117
  8
0
 10
6715.2021672654573194
 20
350.7400812996996251
 30
0.0
 40
0.0313268673794519
 50
127.9139948130879958
 51
163.839161907599788
  0
ARC
  5
3C118
  8
0
 10
6715.1910369172110222
 20
350.7447520762517001
 30
0.0
 40
0.0193860754841429
 50
167.9456515076452092
 51
209.95169883407101
  0
ARC
  5
3C119
  8
0
 10
6715.2163377798660804
 20
350.7615590290208161
 30
0.0
 40
0.0497365999171632
 50
212.1760153548717085
 51
240.2222590034045879
  0
ARC
  5
3C11A
  8
0
 10
6715.2850057203386314
 20
350.8787664838645242
 30
0.0
 40
0.1855760443174107
 50
239.7926713049280067
 51
254.8348273609200874
  0
ARC
  5
3C11B
  8
0
 10
6715.3657196727735936
 20
351.1580435051474183
 30
0.0
 40
0.4762670406147471
 50
254.252127676807703
 51
262.619749003957395
  0
ARC
  5
3C11C
  8
0
 10
6715.4036011439338836
 20
351.4206053851161187
 30
0.0
 40
0.7415296897125885
 50
262.3229977528087034
 51
266.8886390480985824
  0
ARC
  5
3C11D
  8
0
 10
6715.5004641521327358
 20
354.7838865216423869
 30
0.0
 40
4.1060076506427086
 50
268.0863808080985109
 51
268.7487614601815267
  0
ARC
  5
3C11E
  8
0
 10
6715.4021585558148217
 20
349.7245728644738278
 30
0.0
 40
1.103531332494134
 50
80.4906114703860851
 51
89.5511553172109984
  0
ARC
  5
3C11F
  8
0
 10
6715.5073660407742864
 20
350.3916898041873083
 30
0.0
 40
0.4282489119710796
 50
68.6936749585142508
 51
79.6273487724132139
  0
ARC
  5
3C120
  8
0
 10
6715.6138883684670873
 20
350.6648163533595266
 30
0.0
 40
0.1350849336928298
 50
50.2415324292706273
 51
68.6936749585142508
  0
ARC
  5
3C121
  8
0
 10
6715.6762868016840002
 20
350.7398197651239116
 30
0.0
 40
0.0375191802537123
 50
16.6086509220081489
 51
50.241532429310702
  0
ARC
  5
3C122
  8
0
 10
6715.6865639346124226
 20
350.7448110120279807
 30
0.0
 40
0.0263089575117235
 50
319.2402594024229074
 51
12.5862849823553091
  0
ARC
  5
3C123
  8
0
 10
6715.6250096366848084
 20
350.8036101776993974
 30
0.0
 40
0.1114077478048264
 50
289.6698387903855973
 51
317.0027557487464946
  0
ARC
  5
3C124
  8
0
 10
6715.4900899350941472
 20
351.1548706242194839
 30
0.0
 40
0.4876649514041838
 50
277.3189716157453972
 51
290.7053020347510142
  0
ARC
  5
3C125
  8
0
 10
6715.3352423385031216
 20
352.802161908925882
 30
0.0
 40
2.1420002942591658
 50
272.0215797107854883
 51
275.8137148067532962
  0
ARC
  5
3C126
  8
0
 10
6715.3762827034161091
 20
349.3547773488414236
 30
0.0
 40
1.4587801336409969
 50
84.7028871960651628
 51
88.644023977454026
  0
ARC
  5
3C127
  8
0
 10
6715.4443647202906504
 20
350.2463401355497012
 30
0.0
 40
0.564926122355166
 50
75.8343436648816436
 51
83.230266165281293
  0
ARC
  5
3C128
  8
0
 10
6715.5263734774507611
 20
350.5712544169199987
 30
0.0
 40
0.2298220691280018
 50
60.7102029423935932
 51
75.8343436648816436
  0
ARC
  5
3C129
  8
0
 10
6715.6167825714392166
 20
350.7324287719690119
 30
0.0
 40
0.0450222395796416
 50
24.2715676802526694
 51
60.7102029423935932
  0
ARC
  5
3C12A
  8
0
 10
6715.63524596001389
 20
350.7448605791249179
 30
0.0
 40
0.0233822197226905
 50
309.5026862832465895
 51
15.0592751623113799
  0
ARC
  5
3C12B
  8
0
 10
6715.5763855812147085
 20
350.8106257760924223
 30
0.0
 40
0.1116257278452573
 50
288.9955990676613737
 51
311.3416757637443766
  0
ARC
  5
3C12C
  8
0
 10
6715.4890396389000671
 20
351.0405735148441977
 30
0.0
 40
0.3575658834624445
 50
280.4104953543755983
 51
290.2363312267582955
  0
ARC
  5
3C12D
  8
0
 10
6715.4250484261328893
 20
351.3738782441222952
 30
0.0
 40
0.696952315659946
 50
273.3562106846727033
 51
280.6332724732682209
  0
ARC
  5
3C12E
  8
0
 10
6715.0223612675426921
 20
364.1041725015493853
 30
0.0
 40
13.4333738706171495
 50
271.6570069241925012
 51
271.8919055143708761
  0
LINE
  5
3C12F
  8
0
 10
6715.6735986061075891
 20
350.7859882429694949
 30
0.0
 11
6715.6735986061075891
 21
350.7666549130639169
 31
0.0
  0
ARC
  5
3C130
  8
0
 10
6715.6191895458614454
 20
350.7735265207467137
 30
0.0
 40
0.0548412693978213
 50
310.0169067801334108
 51
352.8019228247289902
  0
ARC
  5
3C131
  8
0
 10
6715.681122385443814
 20
350.7635188161423798
 30
0.0
 40
0.0161867791403729
 50
7.2088074557560837
 51
40.1113641273471302
  0
ARC
  5
3C132
  8
0
 10
6715.6747476262626151
 20
350.7645695134024209
 30
0.0
 40
0.0224550062673683
 50
338.3165937932777751
 51
2.502653792138315
  0
ARC
  5
3C133
  8
0
 10
6715.6550616208069187
 20
350.7745876917177839
 30
0.0
 40
0.0444961087720802
 50
305.683207709474118
 51
335.6943293434547968
  0
ARC
  5
3C134
  8
0
 10
6715.5928976476097887
 20
350.8596034860756845
 30
0.0
 40
0.1498137363353343
 50
286.5659772324535197
 51
306.0285534149048772
  0
ARC
  5
3C135
  8
0
 10
6715.3857690865452241
 20
349.3427663644930021
 30
0.0
 40
1.4681543336375791
 50
86.3349807798259832
 51
89.0229732623660368
  0
ARC
  5
3C136
  8
0
 10
6715.4268732772488875
 20
350.1621415970752196
 30
0.0
 40
0.6479268955500118
 50
77.6718926261109317
 51
85.330651872487806
  0
ARC
  5
3C137
  8
0
 10
6715.5078454897793563
 20
350.5326403747606037
 30
0.0
 40
0.2686831171327472
 50
65.7499757926264152
 51
77.6718926261109317
  0
ARC
  5
3C138
  8
0
 10
6715.5815380776703023
 20
350.6962316691426054
 30
0.0
 40
0.0892598491108168
 50
50.1875574817056105
 51
65.7499757926264152
  0
ARC
  5
3C139
  8
0
 10
6715.6194393955602209
 20
350.7400812996996251
 30
0.0
 40
0.0313268673794519
 50
16.1608380924001906
 51
52.0860051869119474
  0
ARC
  5
3C13A
  8
0
 10
6715.6305697438074276
 20
350.7447520762517001
 30
0.0
 40
0.0193860754841429
 50
330.04830116592899
 51
12.0543484923547908
  0
ARC
  5
3C13B
  8
0
 10
6715.6052688811523694
 20
350.7615590290208161
 30
0.0
 40
0.0497365999171632
 50
299.7777409965954121
 51
327.8239846451282915
  0
ARC
  5
3C13C
  8
0
 10
6715.53660094067709
 20
350.8787664838645242
 30
0.0
 40
0.1855760443174107
 50
285.165172639079799
 51
300.2073286950720217
  0
ARC
  5
3C13D
  8
0
 10
6715.4558869882421277
 20
351.1580435051474183
 30
0.0
 40
0.4762670406147471
 50
277.3802509960427187
 51
285.7478723231923254
  0
ARC
  5
3C13E
  8
0
 10
6715.4180055170836567
 20
351.4206053851161187
 30
0.0
 40
0.7415296897125885
 50
273.1113609519014176
 51
277.677002247191183
  0
ARC
  5
3C13F
  8
0
 10
6715.3211425088848046
 20
354.7838865216423869
 30
0.0
 40
4.1060076506427086
 50
271.2512385398184733
 51
271.9136191919014891
  0
LINE
  5
3C140
  8
0
 10
6715.304897128851735
 20
350.8038102882857743
 30
0.0
 11
6715.3226686151856484
 21
350.7909335176499894
 31
0.0
  0
LINE
  5
3C141
  8
0
 10
6715.3226686151856484
 20
350.7909335176499894
 30
0.0
 11
6715.3504860130078669
 21
350.7941681268018215
 31
0.0
  0
LINE
  5
3C142
  8
0
 10
6715.3504860130078669
 20
350.7941681268018215
 30
0.0
 11
6715.3530985893930847
 21
350.8085874339712973
 31
0.0
  0
LINE
  5
3C143
  8
0
 10
6715.3551734988714088
 20
350.8087030801415267
 30
0.0
 11
6715.3524557211612773
 21
350.7937406618838736
 31
0.0
  0
LINE
  5
3C144
  8
0
 10
6715.3524557211612773
 20
350.7937406618838736
 30
0.0
 11
6715.3765272433092832
 21
350.7793547421018161
 31
0.0
  0
LINE
  5
3C145
  8
0
 10
6715.3765272433092832
 20
350.7793547421018161
 30
0.0
 11
6715.4043446411087643
 21
350.7856872429018154
 31
0.0
  0
LINE
  5
3C146
  8
0
 10
6715.4043446411087643
 20
350.7856872429018154
 30
0.0
 11
6715.4080905167256788
 21
350.8065708777043028
 31
0.0
  0
LINE
  5
3C147
  8
0
 10
6715.4080905167256788
 20
350.8065708777043028
 30
0.0
 11
6715.4012459700097679
 21
350.8105131302122004
 31
0.0
  0
LINE
  5
3C148
  8
0
 10
6715.4226208220989065
 20
350.8104581226511982
 30
0.0
 11
6715.4100611981602924
 21
350.8063816405546049
 31
0.0
  0
LINE
  5
3C149
  8
0
 10
6715.4100611981602924
 20
350.8063816405546049
 30
0.0
 11
6715.4063143493322059
 21
350.7855013454122854
 31
0.0
  0
LINE
  5
3C14A
  8
0
 10
6715.4063143493322059
 20
350.7855013454122854
 30
0.0
 11
6715.4303858714320086
 21
350.7743067326661048
 31
0.0
  0
LINE
  5
3C14B
  8
0
 10
6715.4303858714320086
 20
350.7743067326661048
 30
0.0
 11
6715.4582032691259883
 21
350.7837129973281094
 31
0.0
  0
LINE
  5
3C14C
  8
0
 10
6715.4582032691259883
 20
350.7837129973281094
 30
0.0
 11
6715.4619483266542375
 21
350.8045933447427274
 31
0.0
  0
LINE
  5
3C14D
  8
0
 10
6715.4619483266542375
 20
350.8045933447427274
 30
0.0
 11
6715.4511232081149501
 21
350.8094653745740175
 31
0.0
  0
LINE
  5
3C14E
  8
0
 10
6715.472440465759064
 20
350.8083601756848111
 30
0.0
 11
6715.4639188528690283
 21
350.8046467578030843
 31
0.0
  0
LINE
  5
3C14F
  8
0
 10
6715.4639188528690283
 20
350.8046467578030843
 30
0.0
 11
6715.460172977320326
 21
350.7837631231756177
 31
0.0
  0
LINE
  5
3C150
  8
0
 10
6715.460172977320326
 20
350.7837631231756177
 30
0.0
 11
6715.4842444994201287
 21
350.7756422742295968
 31
0.0
  0
LINE
  5
3C151
  8
0
 10
6715.4842444994201287
 20
350.7756422742295968
 30
0.0
 11
6715.5120618972086959
 21
350.7882398458017974
 31
0.0
  0
LINE
  5
3C152
  8
0
 10
6715.5120618972086959
 20
350.7882398458017974
 30
0.0
 11
6715.5149209127848735
 21
350.8040581616330087
 31
0.0
  0
LINE
  5
3C153
  8
0
 10
6715.5167979250900316
 20
350.8037979067049719
 30
0.0
 11
6715.5140316054048526
 21
350.7885315391383756
 31
0.0
  0
LINE
  5
3C154
  8
0
 10
6715.5140316054048526
 20
350.7885315391383756
 30
0.0
 11
6715.5381031275701389
 21
350.7835085817724803
 31
0.0
  0
LINE
  5
3C155
  8
0
 10
6715.5381031275701389
 20
350.7835085817724803
 30
0.0
 11
6715.5604237050165466
 21
350.7961554338485826
 31
0.0
  0
LINE
  5
3C156
  8
0
 10
6715.5620613820910876
 20
350.7958082588829143
 30
0.0
 11
6715.5388746909220572
 21
350.7826448728746982
 31
0.0
  0
LINE
  5
3C157
  8
0
 10
6715.5388746909220572
 20
350.7826448728746982
 30
0.0
 11
6715.5351288153242422
 21
350.7650243439089195
 31
0.0
  0
LINE
  5
3C158
  8
0
 10
6715.5351288153242422
 20
350.7650243439089195
 30
0.0
 11
6715.5592003374722481
 21
350.7630992781477062
 31
0.0
  0
LINE
  5
3C159
  8
0
 10
6715.5592003374722481
 20
350.7630992781477062
 30
0.0
 11
6715.5870177352071551
 21
350.7789599556019766
 31
0.0
  0
LINE
  5
3C15A
  8
0
 10
6715.5870177352071551
 20
350.7789599556019766
 30
0.0
 11
6715.5891176531986275
 21
350.788736944212701
 31
0.0
  0
LINE
  5
3C15B
  8
0
 10
6715.5908344421522997
 20
350.7881857742814873
 30
0.0
 11
6715.5889874434096782
 21
350.7796227456017846
 31
0.0
  0
LINE
  5
3C15C
  8
0
 10
6715.5889874434096782
 20
350.7796227456017846
 30
0.0
 11
6715.6108723687957536
 21
350.7807856540472926
 31
0.0
  0
LINE
  5
3C15D
  8
0
 10
6715.587778670195803
 20
350.7783276472247849
 30
0.0
 11
6715.5599760338527631
 21
350.7624793163989239
 31
0.0
  0
LINE
  5
3C15E
  8
0
 10
6715.5599760338527631
 20
350.7624793163989239
 30
0.0
 11
6715.5562260252627311
 21
350.7480479147407095
 31
0.0
  0
LINE
  5
3C15F
  8
0
 10
6715.5562260252627311
 20
350.7480479147407095
 30
0.0
 11
6715.5802975473252445
 21
350.7491966129132948
 31
0.0
  0
LINE
  5
3C160
  8
0
 10
6715.5802975473252445
 20
350.7491966129132948
 30
0.0
 11
6715.608114945151101
 21
350.7650536493715094
 31
0.0
  0
LINE
  5
3C161
  8
0
 10
6715.608114945151101
 20
350.7650536493715094
 30
0.0
 11
6715.6118608207480065
 21
350.7797707342888884
 31
0.0
  0
LINE
  5
3C162
  8
0
 10
6715.6118608207480065
 20
350.7797707342888884
 30
0.0
 11
6715.587778670195803
 21
350.7783276472247849
 31
0.0
  0
LINE
  5
3C163
  8
0
 10
6715.61362002516762
 20
350.7796269434145984
 30
0.0
 11
6715.6100846534300217
 21
350.7658380919759225
 31
0.0
  0
LINE
  5
3C164
  8
0
 10
6715.6100846534300217
 20
350.7658380919759225
 30
0.0
 11
6715.6318767749253311
 21
350.7699428366951224
 31
0.0
  0
LINE
  5
3C165
  8
0
 10
6715.6328089649896356
 20
350.7692975077865185
 30
0.0
 11
6715.6088865084866484
 21
350.7646711720113899
 31
0.0
  0
LINE
  5
3C166
  8
0
 10
6715.6088865084866484
 20
350.7646711720113899
 30
0.0
 11
6715.5810691109008985
 21
350.7488104947148031
 31
0.0
  0
LINE
  5
3C167
  8
0
 10
6715.5810691109008985
 20
350.7488104947148031
 30
0.0
 11
6715.5773232354158608
 21
350.7374550366204744
 31
0.0
  0
LINE
  5
3C168
  8
0
 10
6715.5773232354158608
 20
350.7374550366204744
 30
0.0
 11
6715.6013947571946119
 21
350.7417950416414101
 31
0.0
  0
LINE
  5
3C169
  8
0
 10
6715.6013947571946119
 20
350.7417950416414101
 30
0.0
 11
6715.6292121550895899
 21
350.7578521182135205
 31
0.0
  0
LINE
  5
3C16A
  8
0
 10
6715.6292121550895899
 20
350.7578521182135205
 30
0.0
 11
6715.6329208449797079
 21
350.7692188727260145
 31
0.0
  0
LINE
  5
3C16B
  8
0
 10
6715.5369049826431365
 20
350.7822338029761795
 30
0.0
 11
6715.5128334612682011
 21
350.7872567604889014
 31
0.0
  0
LINE
  5
3C16C
  8
0
 10
6715.5128334612682011
 20
350.7872567604889014
 30
0.0
 11
6715.4850160628420781
 21
350.7746697324315051
 31
0.0
  0
LINE
  5
3C16D
  8
0
 10
6715.4850160628420781
 20
350.7746697324315051
 30
0.0
 11
6715.4812701872560865
 21
350.7572610189242823
 31
0.0
  0
LINE
  5
3C16E
  8
0
 10
6715.4812701872560865
 20
350.7572610189242823
 30
0.0
 11
6715.5053417093467942
 21
350.7522380616326245
 31
0.0
  0
LINE
  5
3C16F
  8
0
 10
6715.5053417093467942
 20
350.7522380616326245
 30
0.0
 11
6715.5330188689085844
 21
350.7645559451017903
 31
0.0
  0
LINE
  5
3C170
  8
0
 10
6715.5330188689085844
 20
350.7645559451017903
 30
0.0
 11
6715.5369049832488599
 21
350.7822338032131029
 31
0.0
  0
LINE
  5
3C171
  8
0
 10
6715.5061132727723816
 20
350.7515048452908104
 30
0.0
 11
6715.502367397109083
 21
350.7372552420018224
 31
0.0
  0
LINE
  5
3C172
  8
0
 10
6715.502367397109083
 20
350.7372552420018224
 30
0.0
 11
6715.5264389192570889
 21
350.7352180494751224
 31
0.0
  0
LINE
  5
3C173
  8
0
 10
6715.5264389192570889
 20
350.7352180494751224
 30
0.0
 11
6715.5542563170665744
 21
350.7475347257802127
 31
0.0
  0
LINE
  5
3C174
  8
0
 10
6715.5542563170665744
 20
350.7475347257802127
 30
0.0
 11
6715.5580021988025692
 21
350.7619554586285062
 31
0.0
  0
LINE
  5
3C175
  8
0
 10
6715.5580021988025692
 20
350.7619554586285062
 30
0.0
 11
6715.5339306706300704
 21
350.7638856754118137
 31
0.0
  0
LINE
  5
3C176
  8
0
 10
6715.5339306706300704
 20
350.7638856754118137
 30
0.0
 11
6715.5061132729933888
 21
350.7515048453802819
 31
0.0
  0
LINE
  5
3C177
  8
0
 10
6715.527210482641749
 20
350.7347139195765067
 30
0.0
 11
6715.5234646070202871
 21
350.7234705882772232
 31
0.0
  0
LINE
  5
3C178
  8
0
 10
6715.5234646070202871
 20
350.7234705882772232
 30
0.0
 11
6715.5475361291710215
 21
350.7244396679237184
 31
0.0
  0
LINE
  5
3C179
  8
0
 10
6715.5475361291710215
 20
350.7244396679237184
 30
0.0
 11
6715.5753535269150234
 21
350.7368204980020892
 31
0.0
  0
LINE
  5
3C17A
  8
0
 10
6715.5753535269150234
 20
350.7368204980020892
 30
0.0
 11
6715.5790994096487339
 21
350.748170805904806
 31
0.0
  0
LINE
  5
3C17B
  8
0
 10
6715.5790994096487339
 20
350.748170805904806
 30
0.0
 11
6715.5550278804330446
 21
350.7470305959207053
 31
0.0
  0
LINE
  5
3C17C
  8
0
 10
6715.5550278804330446
 20
350.7470305959207053
 30
0.0
 11
6715.5272104826617579
 21
350.7347139196423882
 31
0.0
  0
LINE
  5
3C17D
  8
0
 10
6715.5470279485089122
 20
350.7211255418018254
 30
0.0
 11
6715.5483076925629575
 21
350.7241646243535911
 31
0.0
  0
LINE
  5
3C17E
  8
0
 10
6715.5483076925629575
 20
350.7241646243535911
 30
0.0
 11
6715.576125089960442
 21
350.7365503806134939
 31
0.0
  0
LINE
  5
3C17F
  8
0
 10
6715.576125089960442
 20
350.7365503806134939
 30
0.0
 11
6715.6001966125140825
 21
350.7408798424306724
 31
0.0
  0
LINE
  5
3C180
  8
0
 10
6715.6001966125140825
 20
350.7408798424306724
 30
0.0
 11
6715.5964507368717022
 21
350.7326222759389225
 31
0.0
  0
LINE
  5
3C181
  8
0
 10
6715.5964507368717022
 20
350.7326222759389225
 30
0.0
 11
6715.5869471776086357
 21
350.7280726623018268
 31
0.0
  0
LINE
  5
3C182
  8
0
 10
6715.5869471776086357
 20
350.7280726623018268
 30
0.0
 11
6715.5470279484898128
 21
350.7211255417860798
 31
0.0
  0
LINE
  5
3C183
  8
0
 10
6715.4311574347393616
 20
350.7732215279734191
 30
0.0
 11
6715.4589748398047959
 21
350.7826193010405973
 31
0.0
  0
LINE
  5
3C184
  8
0
 10
6715.4589748398047959
 20
350.7826193010405973
 30
0.0
 11
6715.4830463547277759
 21
350.7745036057958146
 31
0.0
  0
LINE
  5
3C185
  8
0
 10
6715.4830463547277759
 20
350.7745036057958146
 30
0.0
 11
6715.4793004790153645
 21
350.7570998183276174
 31
0.0
  0
LINE
  5
3C186
  8
0
 10
6715.4793004790153645
 20
350.7570998183276174
 30
0.0
 11
6715.4514830814041488
 21
350.7478731722720795
 31
0.0
  0
LINE
  5
3C187
  8
0
 10
6715.4514830814041488
 20
350.7478731722720795
 30
0.0
 11
6715.4274115591761074
 21
350.7558818943896881
 31
0.0
  0
LINE
  5
3C188
  8
0
 10
6715.4274115591761074
 20
350.7558818943896881
 30
0.0
 11
6715.4311574347393616
 21
350.7732215279734191
 31
0.0
  0
LINE
  5
3C189
  8
0
 10
6715.4522546447251443
 20
350.747030304745806
 30
0.0
 11
6715.4800720424427709
 21
350.7562522852692268
 31
0.0
  0
LINE
  5
3C18A
  8
0
 10
6715.4800720424427709
 20
350.7562522852692268
 30
0.0
 11
6715.5041435646471655
 21
350.7512293279318101
 31
0.0
  0
LINE
  5
3C18B
  8
0
 10
6715.5041435646471655
 20
350.7512293279318101
 30
0.0
 11
6715.5003976891021011
 21
350.7369843900814885
 31
0.0
  0
LINE
  5
3C18C
  8
0
 10
6715.5003976891021011
 20
350.7369843900814885
 30
0.0
 11
6715.4725802912653307
 21
350.7278426110996179
 31
0.0
  0
LINE
  5
3C18D
  8
0
 10
6715.4725802912653307
 20
350.7278426110996179
 30
0.0
 11
6715.4485087690836735
 21
350.7328655684573846
 31
0.0
  0
LINE
  5
3C18E
  8
0
 10
6715.4485087690836735
 20
350.7328655684573846
 30
0.0
 11
6715.4522546446560227
 21
350.7470303046749791
 31
0.0
  0
LINE
  5
3C18F
  8
0
 10
6715.4720721105086341
 20
350.7231936114018254
 30
0.0
 11
6715.4733511017948331
 21
350.7272246793011732
 31
0.0
  0
LINE
  5
3C190
  8
0
 10
6715.4733511017948331
 20
350.7272246793011732
 30
0.0
 11
6715.5011692523312377
 21
350.7363674055015963
 31
0.0
  0
LINE
  5
3C191
  8
0
 10
6715.5011692523312377
 20
350.7363674055015963
 30
0.0
 11
6715.5252407750313068
 21
350.7343271356837135
 31
0.0
  0
LINE
  5
3C192
  8
0
 10
6715.5252407750313068
 20
350.7343271356837135
 30
0.0
 11
6715.5214948989150798
 21
350.723086881723475
 31
0.0
  0
LINE
  5
3C193
  8
0
 10
6715.5214948989150798
 20
350.723086881723475
 30
0.0
 11
6715.511996674043985
 21
350.7197434635019135
 31
0.0
  0
LINE
  5
3C194
  8
0
 10
6715.511996674043985
 20
350.7197434635019135
 30
0.0
 11
6715.4720721105422854
 21
350.7231936113092274
 31
0.0
  0
LINE
  5
3C195
  8
0
 10
6715.3221604343652871
 20
350.7833251926621756
 30
0.0
 11
6715.3234401786157832
 21
350.789590853335028
 31
0.0
  0
LINE
  5
3C196
  8
0
 10
6715.3234401786157832
 20
350.789590853335028
 30
0.0
 11
6715.3512575768736497
 21
350.7928254621788255
 31
0.0
  0
LINE
  5
3C197
  8
0
 10
6715.3512575768736497
 20
350.7928254621788255
 30
0.0
 11
6715.37532909850961
 21
350.7784500862018149
 31
0.0
  0
LINE
  5
3C198
  8
0
 10
6715.37532909850961
 20
350.7784500862018149
 30
0.0
 11
6715.371583222909976
 21
350.7610413726018237
 31
0.0
  0
LINE
  5
3C199
  8
0
 10
6715.371583222909976
 20
350.7610413726018237
 30
0.0
 11
6715.362079664070734
 21
350.7597183373562189
 31
0.0
  0
LINE
  5
3C19A
  8
0
 10
6715.362079664070734
 20
350.7597183373562189
 30
0.0
 11
6715.3221604346090317
 21
350.7833251927017955
 31
0.0
  0
LINE
  5
3C19B
  8
0
 10
6715.3735529310870334
 20
350.7607444004984814
 30
0.0
 11
6715.3772988066757534
 21
350.7781481876970133
 31
0.0
  0
LINE
  5
3C19C
  8
0
 10
6715.3772988066757534
 20
350.7781481876970133
 30
0.0
 11
6715.4051162323075914
 21
350.7844755236018273
 31
0.0
  0
LINE
  5
3C19D
  8
0
 10
6715.4051162323075914
 20
350.7844755236018273
 30
0.0
 11
6715.4291877266086885
 21
350.7732894138018196
 31
0.0
  0
LINE
  5
3C19E
  8
0
 10
6715.4291877266086885
 20
350.7732894138018196
 30
0.0
 11
6715.4254418509335665
 21
350.7559497802722035
 31
0.0
  0
LINE
  5
3C19F
  8
0
 10
6715.4254418509335665
 20
350.7559497802722035
 30
0.0
 11
6715.397624453276876
 21
350.7497294062280844
 31
0.0
  0
LINE
  5
3C1A0
  8
0
 10
6715.397624453276876
 20
350.7497294062280844
 30
0.0
 11
6715.3735529310852144
 21
350.7607444004818262
 31
0.0
  0
LINE
  5
3C1A1
  8
0
 10
6715.397120874268694
 20
350.7437105794589911
 30
0.0
 11
6715.3983960166087854
 21
350.7487736839017884
 31
0.0
  0
LINE
  5
3C1A2
  8
0
 10
6715.3983960166087854
 20
350.7487736839017884
 30
0.0
 11
6715.4262134148084442
 21
350.7549909804017716
 31
0.0
  0
LINE
  5
3C1A3
  8
0
 10
6715.4262134148084442
 20
350.7549909804017716
 30
0.0
 11
6715.4502849365080692
 21
350.7469853358018099
 31
0.0
  0
LINE
  5
3C1A4
  8
0
 10
6715.4502849365080692
 20
350.7469853358018099
 30
0.0
 11
6715.4465398237089175
 21
350.7328247751017898
 31
0.0
  0
LINE
  5
3C1A5
  8
0
 10
6715.4465398237089175
 20
350.7328247751017898
 30
0.0
 11
6715.4370355019618728
 21
350.7305046317642905
 31
0.0
  0
LINE
  5
3C1A6
  8
0
 10
6715.4370355019618728
 20
350.7305046317642905
 30
0.0
 11
6715.397120874268694
 21
350.7437105794589911
 31
0.0
  0
LINE
  5
3C1A7
  8
0
 10
6715.598420444983276
 20
350.7333929245440913
 30
0.0
 11
6715.6021663206329322
 21
350.741650491024302
 31
0.0
  0
LINE
  5
3C1A8
  8
0
 10
6715.6021663206329322
 20
350.741650491024302
 30
0.0
 11
6715.6299837192082123
 21
350.7577190283017785
 31
0.0
  0
LINE
  5
3C1A9
  8
0
 10
6715.6299837192082123
 20
350.7577190283017785
 30
0.0
 11
6715.6391261329090412
 21
350.7603496552018214
 31
0.0
  0
LINE
  5
3C1AA
  8
0
 10
6715.6391261329090412
 20
350.7603496552018214
 30
0.0
 11
6715.6441825554857132
 21
350.7592945414021983
 31
0.0
  0
LINE
  5
3C1AB
  8
0
 10
6715.5984204452151971
 20
350.7333929246076991
 30
0.0
 11
6715.6224919671212774
 21
350.74120389516969
 31
0.0
  0
LINE
  5
3C1AC
  8
0
 10
6715.6224919671212774
 20
350.74120389516969
 30
0.0
 11
6715.6334037345086472
 21
350.7477349585017805
 31
0.0
  0
LINE
  5
3C1AD
  8
0
 10
6715.6334037345086472
 20
350.7477349585017805
 30
0.0
 11
6715.6492907534820915
 21
350.7495823022803165
 31
0.0
  0
LINE
  5
3C1AE
  8
0
 10
6715.3473640871079624
 20
350.808252491828398
 30
0.0
 11
6715.3473640871079624
 21
350.7992545726697244
 31
0.0
  0
ARC
  5
3C1AF
  8
0
 10
6715.3533676755159831
 20
350.7994381157016051
 30
0.0
 40
0.0060063934113104
 50
181.7511138072910057
 51
241.3298888433616867
  0
LINE
  5
3C1B0
  8
0
 10
6715.3239671065075527
 20
350.8061923683503096
 30
0.0
 11
6715.3239671065075527
 21
350.7961273274660243
 31
0.0
  0
LINE
  5
3C1B1
  8
0
 10
6715.3239671065075527
 20
350.7961273274660243
 30
0.0
 11
6715.3226686151856484
 21
350.7909335176499894
 31
0.0
  0
LINE
  5
3C1B2
  8
0
 10
6715.3591545490608041
 20
350.8089167186493
 30
0.0
 11
6715.3570640337084114
 21
350.797405243301796
 31
0.0
  0
LINE
  5
3C1B3
  8
0
 10
6715.4007738932068605
 20
350.8105019284262767
 30
0.0
 11
6715.4007738932177745
 21
350.7904238425435892
 31
0.0
  0
ARC
  5
3C1B4
  8
0
 10
6715.3519037851347093
 20
350.7991645677009274
 30
0.0
 40
0.0054519159650542
 50
275.8104112155559733
 51
341.1738103547833134
  0
ARC
  5
3C1B5
  8
0
 10
6715.4067263256711158
 20
350.7911969345174725
 30
0.0
 40
0.0060024264302495
 50
187.4000559799868029
 51
246.6225308577157875
  0
LINE
  5
3C1B6
  8
0
 10
6715.3473640871079624
 20
350.7992545726697244
 30
0.0
 11
6715.3239671065075527
 21
350.7961273274660243
 31
0.0
  0
LINE
  5
3C1B7
  8
0
 10
6715.3120394866418792
 20
350.8047697798958211
 30
0.0
 11
6715.3239671065075527
 21
350.7961273274660243
 31
0.0
  0
LINE
  5
3C1B8
  8
0
 10
6715.3570640337084114
 20
350.797405243301796
 30
0.0
 11
6715.3773769127092237
 21
350.7843918038017819
 31
0.0
  0
LINE
  5
3C1B9
  8
0
 10
6715.3773769127092237
 20
350.7843918038017819
 30
0.0
 11
6715.4007738932314169
 21
350.7904238426087886
 31
0.0
  0
LINE
  5
3C1BA
  8
0
 10
6715.3773769127092237
 20
350.7843918038017819
 30
0.0
 11
6715.3765272433092832
 21
350.7793547421018161
 31
0.0
  0
LINE
  5
3C1BB
  8
0
 10
6715.4137975728990568
 20
350.8075943571773223
 30
0.0
 11
6715.4103219924090808
 21
350.7886749242018141
 31
0.0
  0
ARC
  5
3C1BC
  8
0
 10
6715.4051227078743977
 20
350.7911234136092276
 30
0.0
 40
0.0057469696511952
 50
281.9671749080586096
 51
334.7829329960717928
  0
LINE
  5
3C1BD
  8
0
 10
6715.454183699407622
 20
350.8080879480979775
 30
0.0
 11
6715.454183699407622
 21
350.7886886223025726
 31
0.0
  0
ARC
  5
3C1BE
  8
0
 10
6715.4600753921577052
 20
350.7893368177499269
 30
0.0
 40
0.0059272422577943
 50
186.2783481767932017
 51
251.5878285476254064
  0
LINE
  5
3C1BF
  8
0
 10
6715.4103219923690631
 20
350.7886749240947779
 30
0.0
 11
6715.4307867188281307
 21
350.7791504661274757
 31
0.0
  0
LINE
  5
3C1C0
  8
0
 10
6715.4307867188281307
 20
350.7791504661274757
 30
0.0
 11
6715.4545618624915733
 21
350.7871612278516977
 31
0.0
  0
LINE
  5
3C1C1
  8
0
 10
6715.4307867188281307
 20
350.7791504661274757
 30
0.0
 11
6715.4303858714320086
 21
350.7743067326661048
 31
0.0
  0
LINE
  5
3C1C2
  8
0
 10
6715.4672340216229713
 20
350.806091391241921
 30
0.0
 11
6715.4638827801099978
 21
350.7874945262017832
 31
0.0
  0
LINE
  5
3C1C3
  8
0
 10
6715.5075935056092931
 20
350.8050206733490768
 30
0.0
 11
6715.5075935056092931
 21
350.7929682873242996
 31
0.0
  0
ARC
  5
3C1C4
  8
0
 10
6715.5134147619046416
 20
350.7939938496265881
 30
0.0
 40
0.0059109054215327
 50
189.9915781226713136
 51
256.7690907363568726
  0
ARC
  5
3C1C5
  8
0
 10
6715.4586209946328381
 20
350.7890159870984803
 30
0.0
 40
0.0054773378256751
 50
286.4600164696969955
 51
343.8726175236689073
  0
LINE
  5
3C1C6
  8
0
 10
6715.4637410319810442
 20
350.7870701075511874
 30
0.0
 11
6715.484222639993277
 21
350.7802374114075974
 31
0.0
  0
LINE
  5
3C1C7
  8
0
 10
6715.484222639993277
 20
350.7802374114075974
 30
0.0
 11
6715.5080573876621202
 21
350.7914963820866205
 31
0.0
  0
LINE
  5
3C1C8
  8
0
 10
6715.484222639993277
 20
350.7802374114075974
 30
0.0
 11
6715.4842444994201287
 21
350.7756422742295968
 31
0.0
  0
LINE
  5
3C1C9
  8
0
 10
6715.5193259253837823
 20
350.8034385406438105
 30
0.0
 11
6715.5172935047348801
 21
350.7922404773240146
 31
0.0
  0
ARC
  5
3C1CA
  8
0
 10
6715.5119575852741036
 20
350.793644417482426
 30
0.0
 40
0.0055175252117231
 50
292.0797520611936875
 51
345.2589394659830191
  0
LINE
  5
3C1CB
  8
0
 10
6715.5172270918210415
 20
350.7920087570021224
 30
0.0
 11
6715.5377108962084094
 21
350.7877939659018125
 31
0.0
  0
LINE
  5
3C1CC
  8
0
 10
6715.5377108962084094
 20
350.7877939659018125
 30
0.0
 11
6715.5531634034550734
 21
350.7976414523075732
 31
0.0
  0
LINE
  5
3C1CD
  8
0
 10
6715.5377108962084094
 20
350.7877939659018125
 30
0.0
 11
6715.5381031275701389
 21
350.7835085817724803
 31
0.0
  0
LINE
  5
3C1CE
  8
0
 10
6715.5415205872259321
 20
350.7841469826030902
 30
0.0
 11
6715.5382751355818982
 21
350.7689602368458281
 31
0.0
  0
ARC
  5
3C1CF
  8
0
 10
6715.5329071665400988
 20
350.7700258331091163
 30
0.0
 40
0.0054727157370323
 50
293.9506707934493761
 51
348.773374447941876
  0
LINE
  5
3C1D0
  8
0
 10
6715.5819247109429853
 20
350.7909093942420213
 30
0.0
 11
6715.5819247153131073
 21
350.7835376977300825
 31
0.0
  0
ARC
  5
3C1D1
  8
0
 10
6715.5874132602593818
 20
350.7845220216950111
 30
0.0
 40
0.0055761114845425
 50
190.1674251479136046
 51
265.9324768319236227
  0
LINE
  5
3C1D2
  8
0
 10
6715.5382588236316224
 20
350.7688811130989848
 30
0.0
 11
6715.558683821307568
 21
350.767333033401826
 31
0.0
  0
LINE
  5
3C1D3
  8
0
 10
6715.558683821307568
 20
350.767333033401826
 30
0.0
 11
6715.5823602160317023
 21
350.7821641066557277
 31
0.0
  0
LINE
  5
3C1D4
  8
0
 10
6715.558683821307568
 20
350.767333033401826
 30
0.0
 11
6715.5592003374722481
 21
350.7630992781477062
 31
0.0
  0
LINE
  5
3C1D5
  8
0
 10
6715.5623265840122258
 20
350.7638192000011941
 30
0.0
 11
6715.5591724619480374
 21
350.7517026029931912
 31
0.0
  0
LINE
  5
3C1D6
  8
0
 10
6715.6028461114092352
 20
350.7792305412356768
 30
0.0
 11
6715.6028461114092352
 21
350.7695055077018083
 31
0.0
  0
ARC
  5
3C1D7
  8
0
 10
6715.6079904851712854
 20
350.7702501459472728
 30
0.0
 40
0.0051979868168887
 50
188.2362504823082929
 51
271.3720144615625145
  0
ARC
  5
3C1D8
  8
0
 10
6715.5532479409730513
 20
350.7534639319554799
 30
0.0
 40
0.0061807951366931
 50
298.8049035035252246
 51
343.4430629033782907
  0
LINE
  5
3C1D9
  8
0
 10
6715.6237675111287899
 20
350.7675489916401261
 30
0.0
 11
6715.6237675110469354
 21
350.7621253498522265
 31
0.0
  0
LINE
  5
3C1DA
  8
0
 10
6715.5830836657733016
 20
350.749959135763504
 30
0.0
 11
6715.579871566708789
 21
350.7402801509018104
 31
0.0
  0
ARC
  5
3C1DB
  8
0
 10
6715.5750254875019891
 20
350.7420895586785718
 30
0.0
 40
0.0051728560962649
 50
296.37173659602729
 51
339.5255945841880134
  0
ARC
  5
3C1DC
  8
0
 10
6715.6285782228296739
 20
350.7626496097934137
 30
0.0
 40
0.0048391936900654
 50
186.219412633698596
 51
277.5273570664115255
  0
LINE
  5
3C1DD
  8
0
 10
6715.5592764439215898
 20
350.752102050964595
 30
0.0
 11
6715.5794491309188743
 21
350.7547241092379977
 31
0.0
  0
LINE
  5
3C1DE
  8
0
 10
6715.5794491309188743
 20
350.7547241092379977
 30
0.0
 11
6715.6032083826194139
 21
350.7682128531017156
 31
0.0
  0
LINE
  5
3C1DF
  8
0
 10
6715.5794491309188743
 20
350.7547241092379977
 30
0.0
 11
6715.5802975473252445
 21
350.7491966129132948
 31
0.0
  0
LINE
  5
3C1E0
  8
0
 10
6715.5804676217949236
 20
350.7420762375236905
 30
0.0
 11
6715.6006669503640296
 21
350.7457817394658264
 31
0.0
  0
LINE
  5
3C1E1
  8
0
 10
6715.6006669503640296
 20
350.7457817394658264
 30
0.0
 11
6715.6239854765262862
 21
350.7611249862490013
 31
0.0
  0
LINE
  5
3C1E2
  8
0
 10
6715.6006669503640296
 20
350.7457817394658264
 30
0.0
 11
6715.6013947571946119
 21
350.7417950416414101
 31
0.0
  0
LINE
  5
3C1E3
  8
0
 10
6715.303023719156954
 20
350.8035452136803087
 30
0.0
 11
6715.3214704704696487
 21
350.7901376944848266
 31
0.0
  0
LINE
  5
3C1E4
  8
0
 10
6715.3214704704696487
 20
350.7901376944848266
 30
0.0
 11
6715.3177245948527343
 21
350.7725171655811778
 31
0.0
  0
LINE
  5
3C1E5
  8
0
 10
6715.3177245948527343
 20
350.7725171655811778
 30
0.0
 11
6715.3072704468204392
 21
350.7721656608434841
 31
0.0
  0
LINE
  5
3C1E6
  8
0
 10
6715.3054641629723847
 20
350.8017714435060839
 30
0.0
 11
6715.3054641629723847
 21
350.7755104492441092
 31
0.0
  0
ARC
  5
3C1E7
  8
0
 10
6715.5333130676481233
 20
351.1168158725694752
 30
0.0
 40
0.4121638446947921
 50
236.7406949735998012
 51
245.3193490067862115
  0
ARC
  5
3C1E8
  8
0
 10
6715.3094641629722901
 20
350.7755104492441092
 30
0.0
 40
0.004
 50
180.0
 51
236.7406949735998012
  0
ARC
  5
3C1E9
  8
0
 10
6715.5152766049714046
 20
351.0775668818258168
 30
0.0
 40
0.3689689693011027
 50
245.3193490067862115
 51
253.5517499532710985
  0
ARC
  5
3C1EA
  8
0
 10
6715.4944601987872375
 20
351.0093654777074903
 30
0.0
 40
0.2976652163241891
 50
253.6775072778980018
 51
263.6514940591613936
  0
ARC
  5
3C1EB
  8
0
 10
6715.5014832536571703
 20
351.0155852840144917
 30
0.0
 40
0.3046884388786508
 50
262.4681747307781734
 51
272.4634199058534136
  0
ARC
  5
3C1EC
  8
0
 10
6715.5080952778062056
 20
350.9988303092878255
 30
0.0
 40
0.2877249594143539
 50
271.2912842685321948
 51
276.9698773008590251
  0
ARC
  5
3C1ED
  8
0
 10
6715.5018809026141753
 20
350.9980482464303009
 30
0.0
 40
0.287770944069938
 50
278.2170220590847975
 51
283.2347696067614038
  0
ARC
  5
3C1EE
  8
0
 10
6715.5665260596897497
 20
350.7223524319610988
 30
0.0
 40
0.0046015275905582
 50
285.6019707617368226
 51
335.411924700669374
  0
ARC
  5
3C1EF
  8
0
 10
6715.3419294124742009
 20
351.2590498683280771
 30
0.0
 40
0.5851868903003219
 50
293.0138481334212202
 51
295.0169774535464171
  0
ARC
  5
3C1F0
  8
0
 10
6716.0614653682532662
 20
349.7750301928750218
 30
0.0
 40
1.064169164300879
 50
115.8648163446389958
 51
116.3339645256969987
  0
ARC
  5
3C1F1
  8
0
 10
6715.5422912650992657
 20
350.9431755737753065
 30
0.0
 40
0.2176251632934385
 50
284.6202423703568911
 51
291.2858572038445004
  0
ARC
  5
3C1F2
  8
0
 10
6715.5370215094053492
 20
350.7997874151134283
 30
0.0
 40
0.1030974795949863
 50
321.3040986088865907
 51
324.8257820865272834
  0
ARC
  5
3C1F3
  8
0
 10
6715.1268514901730668
 20
351.7273103281897875
 30
0.0
 40
1.106681205257747
 50
295.2266436710684729
 51
296.434498715173504
  0
ARC
  5
3C1F4
  8
0
 10
6715.5944549289251881
 20
350.7368551553291809
 30
0.0
 40
0.0114277785838914
 50
273.1654727690636832
 51
290.8322691272524025
  0
ARC
  5
3C1F5
  8
0
 10
6715.5940457370152217
 20
350.7448267355521239
 30
0.0
 40
0.0194098172049672
 50
265.7409577516269223
 51
273.0721288581709132
  0
ARC
  5
3C1F6
  8
0
 10
6715.5864222565278396
 20
350.7277705966150165
 30
0.0
 40
0.0065960139799056
 50
300.401980980483188
 51
339.5917374978631074
  0
ARC
  5
3C1F7
  8
0
 10
6715.5274700020527234
 20
350.8576795244071036
 30
0.0
 40
0.1492209238568175
 50
285.9507005019466988
 51
294.672847121003997
  0
ARC
  5
3C1F8
  8
0
 10
6715.5637104593106415
 20
350.7290536591248156
 30
0.0
 40
0.0155961995129273
 50
268.5860104821857135
 51
287.797229048836698
  0
ARC
  5
3C1F9
  8
0
 10
6715.5632824931190044
 20
350.7453951548533837
 30
0.0
 40
0.0319329752136081
 50
264.2237698175883907
 51
270.0773505472760121
  0
ARC
  5
3C1FA
  8
0
 10
6715.555595016211555
 20
350.7158281200426018
 30
0.0
 40
0.0049869930640754
 50
294.928606471636499
 51
333.77418797139768
  0
ARC
  5
3C1FB
  8
0
 10
6715.5512880917904113
 20
350.7288129495506723
 30
0.0
 40
0.0186433892065406
 50
274.7250610515806102
 51
290.1062305750007226
  0
ARC
  5
3C1FC
  8
0
 10
6715.5532403108909421
 20
350.7146405186695119
 30
0.0
 40
0.0044272310802544
 50
186.5573852336534912
 51
264.602062585179624
  0
LINE
  5
3C1FD
  8
0
 10
6715.5585349120601677
 20
350.7117998310475855
 30
0.0
 11
6715.5665847675090845
 21
350.7101222944017991
 31
0.0
  0
LINE
  5
3C1FE
  8
0
 10
6715.5716076035496371
 20
350.7151356495797927
 30
0.0
 11
6715.5727193767088465
 21
350.7149036581017754
 31
0.0
  0
ARC
  5
3C1FF
  8
0
 10
6715.5672706735022075
 20
350.7155683702196143
 30
0.0
 40
0.0054890990921618
 50
262.821678620842988
 51
353.0445960447912057
  0
ARC
  5
3C200
  8
0
 10
6715.5927670886976557
 20
350.7261958277704252
 30
0.0
 40
0.0024282799154253
 50
294.0959971038860203
 51
341.971221991790685
  0
ARC
  5
3C201
  8
0
 10
6715.7052420144445932
 20
350.474707846136198
 30
0.0
 40
0.2730654837672511
 50
114.0959971038860061
 51
114.9231938234069048
  0
LINE
  5
3C202
  8
0
 10
6715.6091449360674233
 20
350.7312499273515982
 30
0.0
 11
6715.6090989315080151
 21
350.7259207160017809
 31
0.0
  0
ARC
  5
3C203
  8
0
 10
6715.6038567293762753
 20
350.7260944956311732
 30
0.0
 40
0.0052450817490938
 50
274.5713034953154761
 51
358.1013333346735976
  0
LINE
  5
3C204
  8
0
 10
6715.5923615930560118
 20
350.7233496947700928
 30
0.0
 11
6715.6042747607089041
 21
350.7208660989018085
 31
0.0
  0
LINE
  5
3C205
  8
0
 10
6715.6195176550490942
 20
350.7363394204145948
 30
0.0
 11
6715.6232635304859286
 21
350.7413189266458744
 31
0.0
  0
LINE
  5
3C206
  8
0
 10
6715.6232635304859286
 20
350.7413189266458744
 30
0.0
 11
6715.6332443918090576
 21
350.7469486247018153
 31
0.0
  0
LINE
  5
3C207
  8
0
 10
6715.6332443918090576
 20
350.7469486247018153
 30
0.0
 11
6715.6495167392904477
 21
350.7488406383711776
 31
0.0
  0
LINE
  5
3C208
  8
0
 10
6715.6359661813075945
 20
350.7472650918215891
 30
0.0
 11
6715.6359661813075945
 21
350.7389304845580114
 31
0.0
  0
LINE
  5
3C209
  8
0
 10
6715.6195176550490942
 20
350.7363394204145948
 30
0.0
 11
6715.6323942583076132
 21
350.7336046069017925
 31
0.0
  0
ARC
  5
3C20A
  8
0
 10
6715.6302369547292983
 20
350.7389121876358899
 30
0.0
 40
0.005729255797035
 50
292.1196299244952002
 51
0.1829798200563077
  0
LINE
  5
3C20B
  8
0
 10
6715.5161399287089807
 20
350.7111544211626892
 30
0.0
 11
6715.5161399287089807
 21
350.7019157693108014
 31
0.0
  0
LINE
  5
3C20C
  8
0
 10
6715.5161399287089807
 20
350.7021482455804176
 30
0.0
 11
6715.5505624213483316
 21
350.7111149998933115
 31
0.0
  0
ARC
  5
3C20D
  8
0
 10
6715.3947811146072127
 20
351.0793765646574798
 30
0.0
 40
0.3910494074948758
 50
262.3380026122275126
 51
266.3848288463534004
  0
ARC
  5
3C20E
  8
0
 10
6715.4038288061510684
 20
350.9512315392357209
 30
0.0
 40
0.26428431196277
 50
262.6728872219550226
 51
269.0056307992787765
  0
ARC
  5
3C20F
  8
0
 10
6715.404019505260294
 20
351.5960358999521986
 30
0.0
 40
0.9090614249247577
 50
269.698908682812089
 51
272.0147889680303024
  0
ARC
  5
3C210
  8
0
 10
6715.4134898464508296
 20
351.1390215565547237
 30
0.0
 40
0.4520996629897281
 50
272.8513866639855792
 51
282.7179667707576982
  0
ARC
  5
3C211
  8
0
 10
6715.5121399287090753
 20
350.7019157693108014
 30
0.0
 40
0.004
 50
282.7179667707576982
 51
0.0
  0
LINE
  5
3C212
  8
0
 10
6715.5285149054088834
 20
350.7839845440623776
 30
0.0
 11
6715.5285149054088834
 21
350.770209277545689
 31
0.0
  0
LINE
  5
3C213
  8
0
 10
6715.4880767525719421
 20
350.776054656604515
 30
0.0
 11
6715.4847377377027442
 21
350.7606256000324265
 31
0.0
  0
ARC
  5
3C214
  8
0
 10
6715.4795290141546502
 20
350.762524604810892
 30
0.0
 40
0.0055440977760984
 50
288.3040081796461891
 51
339.9690748501881217
  0
ARC
  5
3C215
  8
0
 10
6715.53420072762583
 20
350.770118323805093
 30
0.0
 40
0.0056865496450934
 50
179.0835413366964985
 51
258.0045470753821064
  0
LINE
  5
3C216
  8
0
 10
6715.4848168626431288
 20
350.7609912237898016
 30
0.0
 11
6715.505216501122959
 21
350.7565230445916882
 31
0.0
  0
LINE
  5
3C217
  8
0
 10
6715.505216501122959
 20
350.7565230445916882
 30
0.0
 11
6715.5288859049942403
 21
350.7680960707854751
 31
0.0
  0
LINE
  5
3C218
  8
0
 10
6715.505216501122959
 20
350.7565230445916882
 30
0.0
 11
6715.5053417093467942
 21
350.7522380616326245
 31
0.0
  0
LINE
  5
3C219
  8
0
 10
6715.5088705186635707
 20
350.7527320266742095
 30
0.0
 11
6715.505601013528576
 21
350.7403894732020149
 31
0.0
  0
LINE
  5
3C21A
  8
0
 10
6715.5494363052093831
 20
350.7626423295018867
 30
0.0
 11
6715.5494363052093831
 21
350.7517428704958888
 31
0.0
  0
ARC
  5
3C21B
  8
0
 10
6715.5547127333356912
 20
350.7529220001006252
 30
0.0
 40
0.0054065738148282
 50
192.5969819674542123
 51
265.1573977269752049
  0
ARC
  5
3C21C
  8
0
 10
6715.5005301709052219
 20
350.7423859180651107
 30
0.0
 40
0.0054497006328476
 50
289.7017639760043721
 51
338.5099107946099934
  0
LINE
  5
3C21D
  8
0
 10
6715.5058512065288596
 20
350.7413339649162936
 30
0.0
 11
6715.526136354747905
 21
350.7396972176063059
 31
0.0
  0
LINE
  5
3C21E
  8
0
 10
6715.526136354747905
 20
350.7396972176063059
 30
0.0
 11
6715.5496324060413826
 21
350.7510723204042051
 31
0.0
  0
LINE
  5
3C21F
  8
0
 10
6715.526136354747905
 20
350.7396972176063059
 30
0.0
 11
6715.5264389192570889
 21
350.7352180494751224
 31
0.0
  0
LINE
  5
3C220
  8
0
 10
6715.5703577051081083
 20
350.7477567325524888
 30
0.0
 11
6715.5703577051081083
 21
350.7411357465342121
 31
0.0
  0
ARC
  5
3C221
  8
0
 10
6715.5752405782077403
 20
350.7417392253802859
 30
0.0
 40
0.0049200240274593
 50
187.0455111199183875
 51
271.3154514468475895
  0
LINE
  5
3C222
  8
0
 10
6715.5296069190762864
 20
350.7357749869568124
 30
0.0
 11
6715.5264684685089378
 21
350.7264404499018156
 31
0.0
  0
ARC
  5
3C223
  8
0
 10
6715.5217216886039751
 20
350.7282375162524772
 30
0.0
 40
0.0050755656754231
 50
290.0837857344682789
 51
339.2640154196146227
  0
LINE
  5
3C224
  8
0
 10
6715.5269575419169996
 20
350.7278950765547734
 30
0.0
 11
6715.5471103759036851
 21
350.7287959861949957
 31
0.0
  0
LINE
  5
3C225
  8
0
 10
6715.5471103759036851
 20
350.7287959861949957
 30
0.0
 11
6715.5704976497108873
 21
350.7404310718408169
 31
0.0
  0
LINE
  5
3C226
  8
0
 10
6715.5471103759036851
 20
350.7287959861949957
 30
0.0
 11
6715.5475361291710215
 21
350.7244396679237184
 31
0.0
  0
LINE
  5
3C227
  8
0
 10
6715.5912791049086081
 20
350.7392759551569839
 30
0.0
 11
6715.5912791049086081
 21
350.7366054018463046
 31
0.0
  0
ARC
  5
3C228
  8
0
 10
6715.5958054617021844
 20
350.7371334084768932
 30
0.0
 40
0.0045570491351451
 50
186.6535717463061985
 51
278.1404039899529721
  0
ARC
  5
3C229
  8
0
 10
6715.5449879835032334
 20
350.7260224689243273
 30
0.0
 40
0.005304842367792
 50
292.6156644581578234
 51
348.9380095175985161
  0
LINE
  5
3C22A
  8
0
 10
6715.5520342268282548
 20
350.7258238717815857
 30
0.0
 11
6715.5863069379083754
 21
350.7321478272017998
 31
0.0
  0
LINE
  5
3C22B
  8
0
 10
6715.5863069379083754
 20
350.7321478272017998
 30
0.0
 11
6715.5915821765756846
 21
350.7354215207575976
 31
0.0
  0
LINE
  5
3C22C
  8
0
 10
6715.5863069379083754
 20
350.7321478272017998
 30
0.0
 11
6715.5869471776086357
 21
350.7280726623018268
 31
0.0
  0
LINE
  5
3C22D
  8
0
 10
6715.5169478989082563
 20
350.7350300286857987
 30
0.0
 11
6715.5169478989082563
 21
350.7272323478744056
 31
0.0
  0
ARC
  5
3C22E
  8
0
 10
6715.521949574815153
 20
350.7281520444553848
 30
0.0
 40
0.0050855288489718
 50
190.419029668477009
 51
264.8705744674905986
  0
LINE
  5
3C22F
  8
0
 10
6715.4761175803168953
 20
350.7281339114093157
 30
0.0
 11
6715.4755668614716342
 21
350.7264148432531101
 31
0.0
  0
ARC
  5
3C230
  8
0
 10
6715.4707121704659585
 20
350.7281753890190998
 30
0.0
 40
0.0051640629509969
 50
285.268749664579218
 51
340.0669062115634915
  0
LINE
  5
3C231
  8
0
 10
6715.4960264999199353
 20
350.7529230999116976
 30
0.0
 11
6715.4960264999199353
 21
350.7415772380625754
 31
0.0
  0
ARC
  5
3C232
  8
0
 10
6715.5013319514118848
 20
350.7422501012745215
 30
0.0
 40
0.0053479491802515
 50
187.2279421182358021
 51
259.9390651710619977
  0
LINE
  5
3C233
  8
0
 10
6715.4553999383106202
 20
350.748073027594728
 30
0.0
 11
6715.4524022394507483
 21
350.7368351170114238
 31
0.0
  0
ARC
  5
3C234
  8
0
 10
6715.4473150975863973
 20
350.7379305621058165
 30
0.0
 40
0.0052037498309936
 50
283.2609725337239865
 51
347.8477169086024219
  0
LINE
  5
3C235
  8
0
 10
6715.4523806063170923
 20
350.7367390783213068
 30
0.0
 11
6715.4726356343344378
 21
350.7328334850765827
 31
0.0
  0
LINE
  5
3C236
  8
0
 10
6715.4726356343344378
 20
350.7328334850765827
 30
0.0
 11
6715.4961922060219877
 21
350.7407724078834121
 31
0.0
  0
LINE
  5
3C237
  8
0
 10
6715.4726356343344378
 20
350.7328334850765827
 30
0.0
 11
6715.4726356343344378
 21
350.7278607987860823
 31
0.0
  0
LINE
  5
3C238
  8
0
 10
6715.4758593528540587
 20
350.727327854721409
 30
0.0
 11
6715.5117913216799934
 21
350.7243092741239252
 31
0.0
  0
LINE
  5
3C239
  8
0
 10
6715.5117913216799934
 20
350.7243092741239252
 30
0.0
 11
6715.5172192534082569
 21
350.7262847836112201
 31
0.0
  0
LINE
  5
3C23A
  8
0
 10
6715.5117913216799934
 20
350.7243092741239252
 30
0.0
 11
6715.511996674043985
 21
350.7197434635019135
 31
0.0
  0
LINE
  5
3C23B
  8
0
 10
6715.4751050992081218
 20
350.7771809948119994
 30
0.0
 11
6715.4751050992081218
 21
350.761629295324326
 31
0.0
  0
ARC
  5
3C23C
  8
0
 10
6715.4807996031122457
 20
350.7626960674692214
 30
0.0
 40
0.0057935634555137
 50
190.6104469695781916
 51
255.0036905541576004
  0
LINE
  5
3C23D
  8
0
 10
6715.4346162537276541
 20
350.7743900480368211
 30
0.0
 11
6715.4315160315700268
 21
350.7601380385033849
 31
0.0
  0
ARC
  5
3C23E
  8
0
 10
6715.4263373550620599
 20
350.7610249931021258
 30
0.0
 40
0.0052540821124504
 50
281.7973827512781781
 51
350.2812190463595243
  0
LINE
  5
3C23F
  8
0
 10
6715.4313294488056272
 20
350.7593865856783282
 30
0.0
 11
6715.4517186626962939
 21
350.7526985496708107
 31
0.0
  0
LINE
  5
3C240
  8
0
 10
6715.4517186626962939
 20
350.7526985496708107
 30
0.0
 11
6715.475352465387914
 21
350.7607227281343967
 31
0.0
  0
LINE
  5
3C241
  8
0
 10
6715.4517186626962939
 20
350.7526985496708107
 30
0.0
 11
6715.4514830814041488
 21
350.7478731722720795
 31
0.0
  0
LINE
  5
3C242
  8
0
 10
6715.4426166929079045
 20
350.7495356204798895
 30
0.0
 11
6715.4426166929079045
 21
350.7371563110617103
 31
0.0
  0
ARC
  5
3C243
  8
0
 10
6715.4480513353610149
 20
350.7381361560186974
 30
0.0
 40
0.005522267171842
 50
190.2204069229842958
 51
254.1147182531518069
  0
LINE
  5
3C244
  8
0
 10
6715.4019027401745916
 20
350.7495574502336808
 30
0.0
 11
6715.4013249378467663
 21
350.7472880898828862
 31
0.0
  0
ARC
  5
3C245
  8
0
 10
6715.3963178253416118
 20
350.748913201460482
 30
0.0
 40
0.0052642343478681
 50
278.7746214478643765
 51
342.0186105156543022
  0
LINE
  5
3C246
  8
0
 10
6715.4013330186407984
 20
350.7473198277925803
 30
0.0
 11
6715.4373876617382848
 21
350.7354268237597239
 31
0.0
  0
LINE
  5
3C247
  8
0
 10
6715.4373876617382848
 20
350.7354268237597239
 30
0.0
 11
6715.4426756850507445
 21
350.7368721075749818
 31
0.0
  0
LINE
  5
3C248
  8
0
 10
6715.4216952931083142
 20
350.7767711745415227
 30
0.0
 11
6715.4216952931083142
 21
350.7601332587049114
 31
0.0
  0
LINE
  5
3C249
  8
0
 10
6715.381152405472676
 20
350.7790247251003848
 30
0.0
 11
6715.3779620036593769
 21
350.7643293994235023
 31
0.0
  0
ARC
  5
3C24A
  8
0
 10
6715.372915902819841
 20
350.7660316466917152
 30
0.0
 40
0.0053254837800904
 50
276.8701060385843107
 51
341.3587552935027247
  0
ARC
  5
3C24B
  8
0
 10
6715.4276419029692988
 20
350.7616894335836264
 30
0.0
 40
0.0061468568465813
 50
194.6649364676904099
 51
249.0277982003964041
  0
LINE
  5
3C24C
  8
0
 10
6715.3778676606489171
 20
350.7640718324411182
 30
0.0
 11
6715.3982858469089479
 21
350.7545399926017922
 31
0.0
  0
LINE
  5
3C24D
  8
0
 10
6715.3982858469089479
 20
350.7545399926017922
 30
0.0
 11
6715.4218083715422836
 21
350.7597519712826966
 31
0.0
  0
LINE
  5
3C24E
  8
0
 10
6715.3277090972869701
 20
350.7900872434705093
 30
0.0
 11
6715.3268241410132759
 21
350.7862935932122923
 31
0.0
  0
LINE
  5
3C24F
  8
0
 10
6715.3682854869093717
 20
350.7826564910366756
 30
0.0
 11
6715.3682854869093717
 21
350.7653087646314134
 31
0.0
  0
ARC
  5
3C250
  8
0
 10
6715.3742932229961298
 20
350.7665434950721988
 30
0.0
 40
0.0061333067874475
 50
191.6139032751885907
 51
243.778037689393301
  0
ARC
  5
3C251
  8
0
 10
6715.3218223041512829
 20
350.789004251382778
 30
0.0
 40
0.0056891158986854
 50
273.4073611340867274
 51
331.5452947665216925
  0
LINE
  5
3C252
  8
0
 10
6715.3267616859220652
 20
350.7861813898177843
 30
0.0
 11
6715.3630090491087685
 21
350.7643138552018058
 31
0.0
  0
LINE
  5
3C253
  8
0
 10
6715.3630090491087685
 20
350.7643138552018058
 30
0.0
 11
6715.3683428883741726
 21
350.7650565619770759
 31
0.0
  0
ARC
  5
3C254
  8
0
 10
6715.4979353156622892
 20
351.0320195126511749
 30
0.0
 40
0.324551769663488
 50
284.6529413031548756
 51
287.570671158951825
  0
ARC
  5
3C255
  8
0
 10
6715.5483304434073943
 20
350.889840358672302
 30
0.0
 40
0.1736285465286012
 50
290.49066809392491
 51
296.7844999528746257
  0
ARC
  5
3C256
  8
0
 10
6715.6000195589231225
 20
350.7977204546016878
 30
0.0
 40
0.0678076685741726
 50
302.013982760077397
 51
313.4693140390190251
  0
ARC
  5
3C257
  8
0
 10
6715.464094335138725
 20
351.1292406680706222
 30
0.0
 40
0.4352471202381826
 50
274.9687539887755179
 51
288.9746872215794724
  0
ARC
  5
3C258
  8
0
 10
6715.5626909816428451
 20
350.8424837306477002
 30
0.0
 40
0.1320131513922658
 50
288.9746872215794724
 51
304.2450757843845963
  0
ARC
  5
3C259
  8
0
 10
6715.6088606251496458
 20
350.7746619980297282
 30
0.0
 40
0.0499678992636297
 50
304.2450757843845963
 51
321.6598130563847917
  0
ARC
  5
3C25A
  8
0
 10
6715.6297267228555938
 20
350.7523643388174719
 30
0.0
 40
0.0202856011349021
 50
334.6072331251501737
 51
348.6443060113749084
  0
ARC
  5
3C25B
  8
0
 10
6715.2067947714785987
 20
350.7596396529900744
 30
0.0
 40
0.0366732527362641
 50
198.2034512673880897
 51
236.5020485734139015
  0
ARC
  5
3C25C
  8
0
 10
6715.2612842676899163
 20
350.8364899156223942
 30
0.0
 40
0.1308672207887987
 50
235.1775882153208101
 51
250.332159404451005
  0
ARC
  5
3C25D
  8
0
 10
6715.3325905204237642
 20
351.0287842173801209
 30
0.0
 40
0.3359510739832635
 50
249.918347426662308
 51
258.8392650369327725
  0
ARC
  5
3C25E
  8
0
 10
6715.388414017609648
 20
351.2990440691360732
 30
0.0
 40
0.6119100191414646
 50
258.6093253625512034
 51
264.6186117177040842
  0
ARC
  5
3C25F
  8
0
 10
6715.4100417761537756
 20
351.5147012564082161
 30
0.0
 40
0.8286460817362035
 50
264.528237697048894
 51
270.0526568067360813
  0
ARC
  5
3C260
  8
0
 10
6715.4134932083043168
 20
351.4640045600339135
 30
0.0
 40
0.7779536857326148
 50
269.8018918671763799
 51
278.599739037814004
  0
ARC
  5
3C261
  8
0
 10
6715.4818021801183932
 20
351.0434877622903969
 30
0.0
 40
0.3519812932118534
 50
277.8410367557560789
 51
292.3330331274127047
  0
ARC
  5
3C262
  8
0
 10
6715.5822677925607422
 20
350.7967964144419284
 30
0.0
 40
0.0856220230647641
 50
292.8753098189133084
 51
316.7843159417154197
  0
ARC
  5
3C263
  8
0
 10
6715.6231473934813039
 20
350.7552066746022206
 30
0.0
 40
0.027449323002322
 50
321.6277861780707212
 51
335.1366272312862975
  0
LINE
  5
3C264
  8
0
 10
6715.6232635304859286
 20
350.7413189266458744
 30
0.0
 11
6715.6359661813075945
 21
350.7389304845580114
 31
0.0
  0
LINE
  5
3C265
  8
0
 10
6715.6013859273944036
 20
350.7275301733743049
 30
0.0
 11
6715.6090989315080151
 21
350.7259207160017809
 31
0.0
  0
ARC
  5
3C266
  8
0
 10
6715.3009876698088192
 20
351.1327411339140099
 30
0.0
 40
0.3622709388474637
 50
255.8451441490510945
 51
257.1402128128632967
  0
ARC
  5
3C267
  8
0
 10
6715.3498298288732258
 20
350.4455379156487993
 30
0.0
 40
0.3582337822930732
 50
104.5979625213214064
 51
111.1871668666317987
  0
ARC
  5
3C268
  8
0
 10
6715.7666133114898912
 20
349.1800738076361768
 30
0.0
 40
1.6899985577658001
 50
106.4857593421261015
 51
107.4601388080625952
  0
LINE
  5
3C269
  8
0
 10
6715.287030549749943
 20
350.8005970255790089
 30
0.0
 11
6715.2877022354941801
 21
350.8011671014772901
 31
0.0
  0
ARC
  5
3C26A
  8
0
 10
6715.4338220293384438
 20
350.3149921585016955
 30
0.0
 40
0.5095745557053725
 50
108.3915451736496038
 51
110.6779776015429064
  0
ARC
  5
3C26B
  8
0
 10
6715.1527237582949965
 20
351.0597627630908732
 30
0.0
 40
0.2864778869406657
 50
289.4031035037073138
 51
290.6779776015429206
  0
ARC
  5
3C26C
  8
0
 10
6715.2425942196359756
 20
350.8046058704546795
 30
0.0
 40
0.0159566499161973
 50
266.7600407871784114
 51
289.4031035037073138
  0
ARC
  5
3C26D
  8
0
 10
6715.2359673968448988
 20
350.7923606079716023
 30
0.0
 40
0.0068089067495593
 50
290.8529526719992191
 51
327.2256093940342794
  0
LINE
  5
3C26E
  8
0
 10
6715.2216441002319698
 20
350.7850389933414021
 30
0.0
 11
6715.2290002394001931
 21
350.782779154354273
 31
0.0
  0
LINE
  5
3C26F
  8
0
 10
6715.2290002394001931
 20
350.782779154354273
 30
0.0
 11
6715.2302446730400334
 21
350.7880138502056866
 31
0.0
  0
LINE
  5
3C270
  8
0
 10
6715.2508417815079156
 20
350.7898238567718749
 30
0.0
 11
6715.2508417815079156
 21
350.7560470606009062
 31
0.0
  0
ARC
  5
3C271
  8
0
 10
6715.4772299795422441
 20
351.0929300392705272
 30
0.0
 40
0.4076665108007106
 50
236.5698067873921104
 51
246.7845965181332133
  0
ARC
  5
3C272
  8
0
 10
6715.254841781507821
 20
350.7560470606009062
 30
0.0
 40
0.004
 50
180.0
 51
236.5698067873939863
  0
ARC
  5
3C273
  8
0
 10
6715.4568276461732239
 20
351.0453631505515091
 30
0.0
 40
0.3559087663623938
 50
246.7845965181332133
 51
258.4283453881946002
  0
ARC
  5
3C274
  8
0
 10
6715.4472473120631548
 20
350.9985738961012203
 30
0.0
 40
0.3081487712445323
 50
258.4283453881946002
 51
267.0156146042479008
  0
ARC
  5
3C275
  8
0
 10
6715.4469995898853085
 20
350.9938222990109011
 30
0.0
 40
0.3033907210990501
 50
267.0156146042479008
 51
274.5314693676123738
  0
ARC
  5
3C276
  8
0
 10
6715.4418446922682051
 20
351.0415997964964845
 30
0.0
 40
0.3514287887778371
 50
274.7538592117468284
 51
278.0905127142165156
  0
LINE
  5
3C277
  8
0
 10
6715.2017770194152035
 20
350.7768609243477158
 30
0.0
 11
6715.2003128385958917
 21
350.7726341040042826
 31
0.0
  0
LINE
  5
3C278
  8
0
 10
6715.2003128385958917
 20
350.7726341040042826
 30
0.0
 11
6715.2243843607056988
 21
350.7547886794379224
 31
0.0
  0
LINE
  5
3C279
  8
0
 10
6715.2243843607056988
 20
350.7547886794379224
 30
0.0
 11
6715.2522017585088179
 21
350.748660326101799
 31
0.0
  0
LINE
  5
3C27A
  8
0
 10
6715.2522017585088179
 20
350.748660326101799
 30
0.0
 11
6715.2526380990921098
 21
350.7527088299610227
 31
0.0
  0
LINE
  5
3C27B
  8
0
 10
6715.2074482127327428
 20
350.779395663024502
 30
0.0
 11
6715.2060892618819707
 21
350.7754209036821749
 31
0.0
  0
ARC
  5
3C27C
  8
0
 10
6715.201591362988438
 20
350.7773640317595891
 30
0.0
 40
0.0048996776620381
 50
254.8741239620293015
 51
336.6352716979009756
  0
LINE
  5
3C27D
  8
0
 10
6715.2061196974736959
 20
350.7755099239378751
 30
0.0
 11
6715.2261629195672867
 21
350.7587057707045233
 31
0.0
  0
LINE
  5
3C27E
  8
0
 10
6715.2261629195672867
 20
350.7587057707045233
 30
0.0
 11
6715.2523374035472443
 21
350.7529280718193263
 31
0.0
  0
LINE
  5
3C27F
  8
0
 10
6715.2261629195672867
 20
350.7587057707045233
 30
0.0
 11
6715.2243843607056988
 21
350.7547886794379224
 31
0.0
  0
LINE
  5
3C280
  8
0
 10
6715.1966611549505615
 20
350.7742260011369808
 30
0.0
 11
6715.1983431304088299
 21
350.7736921910018282
 31
0.0
  0
LINE
  5
3C281
  8
0
 10
6715.1983431304088299
 20
350.7736921910018282
 30
0.0
 11
6715.1989733585105569
 21
350.7754686753893907
 31
0.0
  0
LINE
  5
3C282
  8
0
 10
6715.1956733957122196
 20
350.7736680170556838
 30
0.0
 11
6715.1991146938544262
 21
350.7725688996891904
 31
0.0
  0
LINE
  5
3C283
  8
0
 10
6715.1991146938544262
 20
350.7725688996891904
 30
0.0
 11
6715.2231862160224409
 21
350.7547120144884047
 31
0.0
  0
LINE
  5
3C284
  8
0
 10
6715.2231862160224409
 20
350.7547120144884047
 30
0.0
 11
6715.2194403404018885
 21
350.7464544480470749
 31
0.0
  0
LINE
  5
3C285
  8
0
 10
6715.2194403404018885
 20
350.7464544480470749
 30
0.0
 11
6715.1916229426151403
 21
350.7560537668944107
 31
0.0
  0
LINE
  5
3C286
  8
0
 10
6715.1916229426151403
 20
350.7560537668944107
 30
0.0
 11
6715.1813647132730694
 21
350.7635040758469245
 31
0.0
  0
LINE
  5
3C287
  8
0
 10
6715.2174104617088233
 20
350.7589966202143046
 30
0.0
 11
6715.2174104617088233
 21
350.7500122162700791
 31
0.0
  0
ARC
  5
3C288
  8
0
 10
6715.2222165921239139
 20
350.7503963898657844
 30
0.0
 40
0.0048214602479645
 50
184.5701680401209046
 51
234.843525931356595
  0
LINE
  5
3C289
  8
0
 10
6715.1940134812075485
 20
350.7726924318271244
 30
0.0
 11
6715.1940134812075485
 21
350.7616049487917849
 31
0.0
  0
LINE
  5
3C28A
  8
0
 10
6715.1916229426151403
 20
350.7560537668944107
 30
0.0
 11
6715.1935516804232975
 21
350.7597391657595267
 31
0.0
  0
ARC
  5
3C28B
  8
0
 10
6715.1900134812076431
 20
350.7616049487917849
 30
0.0
 40
0.004
 50
332.1961707791280105
 51
0.0
  0
LINE
  5
3C28C
  8
0
 10
6715.1809423561053336
 20
350.7631220428045822
 30
0.0
 11
6715.1904247977809064
 21
350.7562366841573862
 31
0.0
  0
LINE
  5
3C28D
  8
0
 10
6715.1904247977809064
 20
350.7562366841573862
 30
0.0
 11
6715.1866789220175633
 21
350.7512571779269024
 31
0.0
  0
LINE
  5
3C28E
  8
0
 10
6715.1866789220175633
 20
350.7512571779269024
 30
0.0
 11
6715.1850784185226075
 21
350.7519624881072104
 31
0.0
  0
LINE
  5
3C28F
  8
0
 10
6715.1849301303209359
 20
350.7602264536075722
 30
0.0
 11
6715.1848817809386674
 21
350.7546357391743186
 31
0.0
  0
ARC
  5
3C290
  8
0
 10
6715.1892759221273081
 20
350.7548058398531907
 30
0.0
 40
0.0043974323225711
 50
182.2168580180839115
 51
233.80239516120551
  0
LINE
  5
3C291
  8
0
 10
6715.1726289270836787
 20
350.7505148602609779
 30
0.0
 11
6715.1850784185226075
 21
350.7519624881072104
 31
0.0
  0
LINE
  5
3C292
  8
0
 10
6715.1726107901085925
 20
350.7499238526975773
 30
0.0
 11
6715.1852792614090504
 21
350.7513969435017884
 31
0.0
  0
LINE
  5
3C293
  8
0
 10
6715.1852792614090504
 20
350.7513969435017884
 30
0.0
 11
6715.1874504856687054
 21
350.7505032315518179
 31
0.0
  0
LINE
  5
3C294
  8
0
 10
6715.1874504856687054
 20
350.7505032315518179
 30
0.0
 11
6715.2115220077130289
 21
350.735731035199592
 31
0.0
  0
LINE
  5
3C295
  8
0
 10
6715.1831279603447911
 20
350.7511467900508819
 30
0.0
 11
6715.1831279603447911
 21
350.7402641657729987
 31
0.0
  0
ARC
  5
3C296
  8
0
 10
6715.189219724123177
 20
350.7407008638567731
 30
0.0
 40
0.0061073964286292
 50
184.1003277983323017
 51
243.1342647263830941
  0
LINE
  5
3C297
  8
0
 10
6715.1864597837084148
 20
350.7352526513017779
 30
0.0
 11
6715.2006824235577369
 21
350.7369526566017726
 31
0.0
  0
LINE
  5
3C298
  8
0
 10
6715.2006824235577369
 20
350.7369526566017726
 30
0.0
 11
6715.2085451682078201
 21
350.733430323083212
 31
0.0
  0
LINE
  5
3C299
  8
0
 10
6715.2085451682078201
 20
350.733430323083212
 30
0.0
 11
6715.2338165428391221
 21
350.7215306514337954
 31
0.0
  0
ARC
  5
3C29A
  8
0
 10
6715.2058793795140446
 20
350.7427525476692267
 30
0.0
 40
0.0090078236973521
 50
280.4345762871336092
 51
308.7860563526691067
  0
LINE
  5
3C29B
  8
0
 10
6715.2214100485098243
 20
350.7455480277017728
 30
0.0
 11
6715.2251559237010952
 21
350.7538055943331869
 31
0.0
  0
LINE
  5
3C29C
  8
0
 10
6715.2251559237010952
 20
350.7538055943331869
 30
0.0
 11
6715.2346594846067092
 21
350.7514661295018072
 31
0.0
  0
LINE
  5
3C29D
  8
0
 10
6715.2346594846067092
 20
350.7514661295018072
 30
0.0
 11
6715.2745787125077186
 21
350.7278592747018138
 31
0.0
  0
LINE
  5
3C29E
  8
0
 10
6715.2745787125077186
 20
350.7278592747018138
 30
0.0
 11
6715.2732989684091081
 21
350.7252561135404108
 31
0.0
  0
LINE
  5
3C29F
  8
0
 10
6715.2732989684091081
 20
350.7252561135404108
 30
0.0
 11
6715.2455541875579001
 21
350.731328803251813
 31
0.0
  0
LINE
  5
3C2A0
  8
0
 10
6715.2455541875579001
 20
350.731328803251813
 30
0.0
 11
6715.2214100484407027
 21
350.745548027563018
 31
0.0
  0
ARC
  5
3C2A1
  8
0
 10
6715.2756138791128251
 20
350.7294657897854222
 30
0.0
 40
0.0048041841816485
 50
172.8243232821506012
 51
241.1935036074208085
  0
LINE
  5
3C2A2
  8
0
 10
6715.2291546255064532
 20
350.7528212451683203
 30
0.0
 11
6715.226714465450641
 21
350.747619904405326
 31
0.0
  0
ARC
  5
3C2A3
  8
0
 10
6715.2226629177457653
 20
350.7501665527984755
 30
0.0
 40
0.0047854421786956
 50
254.8226024255469895
 51
327.8480975119331902
  0
LINE
  5
3C2A4
  8
0
 10
6715.2272446003289588
 20
350.748749917225723
 30
0.0
 11
6715.2471737083096741
 21
350.7352796580070162
 31
0.0
  0
LINE
  5
3C2A5
  8
0
 10
6715.2471737083096741
 20
350.7352796580070162
 30
0.0
 11
6715.2705873445620455
 21
350.7302196320666212
 31
0.0
  0
LINE
  5
3C2A6
  8
0
 10
6715.2471737083096741
 20
350.7352796580070162
 30
0.0
 11
6715.2455541875579001
 21
350.731328803251813
 31
0.0
  0
LINE
  5
3C2A7
  8
0
 10
6715.1886486304083519
 20
350.7501909637018116
 30
0.0
 11
6715.1923945059579637
 21
350.7551785970754281
 31
0.0
  0
LINE
  5
3C2A8
  8
0
 10
6715.1923945059579637
 20
350.7551785970754281
 30
0.0
 11
6715.220211903803829
 21
350.74559073897791
 31
0.0
  0
LINE
  5
3C2A9
  8
0
 10
6715.220211903803829
 20
350.74559073897791
 30
0.0
 11
6715.2442834259090887
 21
350.731204819201821
 31
0.0
  0
LINE
  5
3C2AA
  8
0
 10
6715.2442834259090887
 20
350.731204819201821
 30
0.0
 11
6715.2405375503349205
 21
350.7260451444337264
 31
0.0
  0
LINE
  5
3C2AB
  8
0
 10
6715.2405375503349205
 20
350.7260451444337264
 30
0.0
 11
6715.2127201524090196
 21
350.7354366034018085
 31
0.0
  0
LINE
  5
3C2AC
  8
0
 10
6715.2127201524090196
 20
350.7354366034018085
 30
0.0
 11
6715.1886486304083519
 21
350.7501909637018116
 31
0.0
  0
LINE
  5
3C2AD
  8
0
 10
6715.2383318615084136
 20
350.7347616664848147
 30
0.0
 11
6715.2383318615084136
 21
350.7294289166126759
 31
0.0
  0
ARC
  5
3C2AE
  8
0
 10
6715.2426445496175802
 20
350.7298293452532789
 30
0.0
 40
0.0043312379086293
 50
185.3046452768585084
 51
240.8914451002821124
  0
LINE
  5
3C2AF
  8
0
 10
6715.1959094930443825
 20
350.753967081980818
 30
0.0
 11
6715.1936947477306603
 21
350.7512503113244975
 31
0.0
  0
ARC
  5
3C2B0
  8
0
 10
6715.1903965757610422
 20
350.7544128275051776
 30
0.0
 40
0.0045694033450483
 50
247.5093590647383053
 51
316.2028691421714939
  0
LINE
  5
3C2B1
  8
0
 10
6715.1951568407166633
 20
350.7530438228856724
 30
0.0
 11
6715.2145890245919873
 21
350.7393054813483104
 31
0.0
  0
LINE
  5
3C2B2
  8
0
 10
6715.2145890245919873
 20
350.7393054813483104
 30
0.0
 11
6715.2383318615084136
 21
350.731231575169204
 31
0.0
  0
LINE
  5
3C2B3
  8
0
 10
6715.2145890245919873
 20
350.7393054813483104
 30
0.0
 11
6715.2127201524090196
 21
350.7354366034018085
 31
0.0
  0
LINE
  5
3C2B4
  8
0
 10
6715.2134917159028191
 20
350.7348108209984048
 30
0.0
 11
6715.2097458402777193
 21
350.7330127729765081
 31
0.0
  0
LINE
  5
3C2B5
  8
0
 10
6715.2097458402777193
 20
350.7330127729765081
 30
0.0
 11
6715.2127889935936764
 21
350.7314320096018037
 31
0.0
  0
LINE
  5
3C2B6
  8
0
 10
6715.2134925069176461
 20
350.7348105192531875
 30
0.0
 11
6715.2413126844630824
 21
350.7254211875193164
 31
0.0
  0
LINE
  5
3C2B7
  8
0
 10
6715.2413126844630824
 20
350.7254211875193164
 30
0.0
 11
6715.2653806358266593
 21
350.7142283900810753
 31
0.0
  0
LINE
  5
3C2B8
  8
0
 10
6715.2653806358266593
 20
350.7142283900810753
 30
0.0
 11
6715.2616353112362049
 21
350.7121426325103926
 31
0.0
  0
LINE
  5
3C2B9
  8
0
 10
6715.2616353112362049
 20
350.7121426325103926
 30
0.0
 11
6715.2338165428391221
 21
350.7215306514337954
 31
0.0
  0
ARC
  5
3C2BA
  8
0
 10
6715.2632726172960247
 20
350.7158776520877268
 30
0.0
 40
0.0040781297647906
 50
163.6126520331503968
 51
246.3289827841643955
  0
ARC
  5
3C2BB
  8
0
 10
6715.2116235292678539
 20
350.7389136738714228
 30
0.0
 40
0.0061924427583007
 50
252.3487329752811945
 51
309.2570753542576085
  0
LINE
  5
3C2BC
  8
0
 10
6715.2425072504829586
 20
350.7252696856759826
 30
0.0
 11
6715.246253134086146
 21
350.7304345088949162
 31
0.0
  0
LINE
  5
3C2BD
  8
0
 10
6715.246253134086146
 20
350.7304345088949162
 30
0.0
 11
6715.2740705318583423
 21
350.7245228973126245
 31
0.0
  0
LINE
  5
3C2BE
  8
0
 10
6715.2740705318583423
 20
350.7245228973126245
 30
0.0
 11
6715.2981420537480517
 21
350.7135079031716032
 31
0.0
  0
LINE
  5
3C2BF
  8
0
 10
6715.2981420537480517
 20
350.7135079031716032
 30
0.0
 11
6715.2943961783557825
 21
350.7082361014439016
 31
0.0
  0
LINE
  5
3C2C0
  8
0
 10
6715.2943961783557825
 20
350.7082361014439016
 30
0.0
 11
6715.2665787806072331
 21
350.714083559272126
 31
0.0
  0
LINE
  5
3C2C1
  8
0
 10
6715.2665787806072331
 20
350.714083559272126
 30
0.0
 11
6715.2425072504829586
 21
350.7252696856759826
 31
0.0
  0
LINE
  5
3C2C2
  8
0
 10
6715.2495674710044113
 20
350.7297301629070034
 30
0.0
 11
6715.247341789157872
 21
350.7268528246024744
 31
0.0
  0
ARC
  5
3C2C3
  8
0
 10
6715.2437584294220869
 20
350.7296222244531236
 30
0.0
 40
0.0045288014464099
 50
253.9621961801566954
 51
322.3013542110692811
  0
LINE
  5
3C2C4
  8
0
 10
6715.2917416677091751
 20
350.7164366841207084
 30
0.0
 11
6715.2917416677091751
 21
350.7119450198213144
 31
0.0
  0
ARC
  5
3C2C5
  8
0
 10
6715.2960599709003873
 20
350.7122312840468794
 30
0.0
 40
0.0043277811479345
 50
183.7926401497039137
 51
247.3907288230730899
  0
LINE
  5
3C2C6
  8
0
 10
6715.2486986281392092
 20
350.7286069319023909
 30
0.0
 11
6715.268168307608903
 21
350.7183203330018273
 31
0.0
  0
LINE
  5
3C2C7
  8
0
 10
6715.268168307608903
 20
350.7183203330018273
 30
0.0
 11
6715.2917416677091751
 21
350.7133155845177725
 31
0.0
  0
LINE
  5
3C2C8
  8
0
 10
6715.268168307608903
 20
350.7183203330018273
 30
0.0
 11
6715.2665787806072331
 21
350.714083559272126
 31
0.0
  0
LINE
  5
3C2C9
  8
0
 10
6715.2963658866356127
 20
350.7077135458782209
 30
0.0
 11
6715.3001117621079175
 21
350.7129884248017788
 31
0.0
  0
LINE
  5
3C2CA
  8
0
 10
6715.3001117621079175
 20
350.7129884248017788
 30
0.0
 11
6715.3096099862768824
 21
350.7118539152850758
 31
0.0
  0
LINE
  5
3C2CB
  8
0
 10
6715.3096099862768824
 20
350.7118539152850758
 30
0.0
 11
6715.3495345505089062
 21
350.6986455690018261
 31
0.0
  0
LINE
  5
3C2CC
  8
0
 10
6715.3495345505089062
 20
350.6986455690018261
 30
0.0
 11
6715.3482548063411741
 21
350.6970368315160727
 31
0.0
  0
LINE
  5
3C2CD
  8
0
 10
6715.3482548063411741
 20
350.6970368315160727
 30
0.0
 11
6715.3203934356079117
 21
350.699720766301823
 31
0.0
  0
LINE
  5
3C2CE
  8
0
 10
6715.3203934356079117
 20
350.699720766301823
 30
0.0
 11
6715.2963658870930885
 21
350.7077135465233937
 31
0.0
  0
ARC
  5
3C2CF
  8
0
 10
6715.349397656344081
 20
350.7010828312158992
 30
0.0
 40
0.00420430965836
 50
194.3873877044646861
 51
254.2269144917883921
  0
LINE
  5
3C2D0
  8
0
 10
6715.3031249935047526
 20
350.7126285112394726
 30
0.0
 11
6715.3005884516087463
 21
350.7092402916018159
 31
0.0
  0
ARC
  5
3C2D1
  8
0
 10
6715.2971193569337629
 20
350.7122322614624181
 30
0.0
 40
0.0045811026513688
 50
260.5333514488884248
 51
319.2234073971623047
  0
LINE
  5
3C2D2
  8
0
 10
6715.2636207881869268
 20
350.7114842026377914
 30
0.0
 11
6715.2673503451987926
 21
350.7135794290550166
 31
0.0
  0
LINE
  5
3C2D3
  8
0
 10
6715.2673503451987926
 20
350.7135794290550166
 30
0.0
 11
6715.2951677417759129
 21
350.7077319715738213
 31
0.0
  0
LINE
  5
3C2D4
  8
0
 10
6715.2951677417759129
 20
350.7077319715738213
 30
0.0
 11
6715.3192392639157333
 21
350.6997232494003924
 31
0.0
  0
LINE
  5
3C2D5
  8
0
 10
6715.3192392639157333
 20
350.6997232494003924
 30
0.0
 11
6715.3154933882933619
 21
350.697457719961676
 31
0.0
  0
LINE
  5
3C2D6
  8
0
 10
6715.3154933882933619
 20
350.697457719961676
 30
0.0
 11
6715.2877201781084295
 21
350.7034020220017965
 31
0.0
  0
LINE
  5
3C2D7
  8
0
 10
6715.2877201781084295
 20
350.7034020220017965
 30
0.0
 11
6715.2636207881869268
 21
350.7114842026377914
 31
0.0
  0
LINE
  5
3C2D8
  8
0
 10
6715.2695463099826156
 20
350.7131178182543749
 30
0.0
 11
6715.2676933357079179
 21
350.7120930773018017
 31
0.0
  0
ARC
  5
3C2D9
  8
0
 10
6715.2648796292924089
 20
350.7169886123464835
 30
0.0
 40
0.0056465216878063
 50
257.1181698600972823
 51
299.8881151706286801
  0
ARC
  5
3C2DA
  8
0
 10
6715.3166167108793161
 20
350.7012744504481248
 30
0.0
 40
0.0039786034284088
 50
170.9120486257201037
 51
253.6000315428074998
  0
LINE
  5
3C2DB
  8
0
 10
6715.3174651924709906
 20
350.6970462566234232
 30
0.0
 11
6715.3212089720645963
 21
350.6993166259046006
 31
0.0
  0
LINE
  5
3C2DC
  8
0
 10
6715.3212089720645963
 20
350.6993166259046006
 30
0.0
 11
6715.3490263699213756
 21
350.696644065239127
 31
0.0
  0
LINE
  5
3C2DD
  8
0
 10
6715.3490263699213756
 20
350.696644065239127
 30
0.0
 11
6715.3730978917919856
 21
350.6916211080134076
 31
0.0
  0
LINE
  5
3C2DE
  8
0
 10
6715.3730978917919856
 20
350.6916211080134076
 30
0.0
 11
6715.3693520163487847
 21
350.6892707113493088
 31
0.0
  0
LINE
  5
3C2DF
  8
0
 10
6715.3693520163487847
 20
350.6892707113493088
 30
0.0
 11
6715.3415765439585812
 21
350.6920569662518119
 31
0.0
  0
LINE
  5
3C2E0
  8
0
 10
6715.3415765439585812
 20
350.6920569662518119
 30
0.0
 11
6715.3174651924709906
 21
350.6970462566234232
 31
0.0
  0
LINE
  5
3C2E1
  8
0
 10
6715.323235185645899
 20
350.6991219571314105
 30
0.0
 11
6715.3213595936204001
 21
350.6979773119145989
 31
0.0
  0
ARC
  5
3C2E2
  8
0
 10
6715.3180708638810756
 20
350.7031231080782163
 30
0.0
 40
0.0061069600832842
 50
264.3082060682154975
 51
302.5830524029748858
  0
ARC
  5
3C2E3
  8
0
 10
6715.3699804948046221
 20
350.6931157757725259
 30
0.0
 40
0.0038960884985992
 50
180.4588839939544016
 51
260.7170522588114068
  0
ARC
  5
3C2E4
  8
0
 10
6715.35044002907307
 20
351.0177926501784782
 30
0.0
 40
0.3184169846477284
 50
247.3406978099243076
 51
252.4760522021333884
  0
ARC
  5
3C2E5
  8
0
 10
6714.8496024959276838
 20
349.431650896369888
 30
0.0
 40
1.344918188365066
 50
71.0444729817530742
 51
72.4760522021334452
  0
ARC
  5
3C2E6
  8
0
 10
6715.3783335490006721
 20
351.0556761178772263
 30
0.0
 40
0.3638269622809822
 50
255.3762271921293916
 51
260.1773389877291152
  0
ARC
  5
3C2E7
  8
0
 10
6715.4224187321833597
 20
351.1516492932292977
 30
0.0
 40
0.4666996154818781
 50
256.8526387805176796
 51
260.1577522251939172
  0
ARC
  5
3C2E8
  8
0
 10
6715.2034365538002021
 20
350.7407257222010912
 30
0.0
 40
0.0046713228754372
 50
148.8064211127532133
 51
233.8726129239082923
  0
LINE
  5
3C2E9
  8
0
 10
6715.2085451682078201
 20
350.733430323083212
 30
0.0
 11
6715.2085451682078201
 21
350.7270871915291082
 31
0.0
  0
LINE
  5
3C2EA
  8
0
 10
6715.2284923596771478
 20
350.7240376789442848
 30
0.0
 11
6715.2133588171091105
 21
350.7222779494018141
 31
0.0
  0
ARC
  5
3C2EB
  8
0
 10
6715.214144359148122
 20
350.7278778621615061
 30
0.0
 40
0.005654741303622
 50
188.0376833324565098
 51
262.0147934933937108
  0
LINE
  5
3C2EC
  8
0
 10
6715.1831279603447911
 20
350.7402641657686786
 30
0.0
 11
6715.1991159918516132
 21
350.7425016731729102
 31
0.0
  0
LINE
  5
3C2ED
  8
0
 10
6715.2085451682078201
 20
350.7270871915304724
 30
0.0
 11
6715.2185442599056842
 21
350.7287219955887281
 31
0.0
  0
LINE
  5
3C2EE
  8
0
 10
6715.2473939373239773
 20
350.7165105911586238
 30
0.0
 11
6715.2473939373239773
 21
350.7156660493512845
 31
0.0
  0
ARC
  5
3C2EF
  8
0
 10
6715.2523939373240864
 20
350.7156660493512845
 30
0.0
 40
0.005
 50
180.0
 51
256.7341136122049079
  0
LINE
  5
3C2F0
  8
0
 10
6715.2568459680924207
 20
350.7134300067376103
 30
0.0
 11
6715.2562236693302111
 21
350.712087962242606
 31
0.0
  0
ARC
  5
3C2F1
  8
0
 10
6715.2535020282466576
 20
350.7133499724690182
 30
0.0
 40
0.003
 50
256.7341136122041121
 51
335.1231006178501843
  0
LINE
  5
3C2F2
  8
0
 10
6715.251246585969966
 20
350.7107994709978129
 30
0.0
 11
6715.2528136174360043
 21
350.7104300254567875
 31
0.0
  0
ARC
  5
3C2F3
  8
0
 10
6715.2755102014652948
 20
350.7121597508348145
 30
0.0
 40
0.0063309339812006
 50
207.8158344581281938
 51
258.0323564815932968
  0
ARC
  5
3C2F4
  8
0
 10
6715.2783902055161889
 20
350.7257468296176057
 30
0.0
 40
0.0202198912200985
 50
258.0323564815932968
 51
266.8610537995800769
  0
ARC
  5
3C2F5
  8
0
 10
6715.2776096549287104
 20
350.7115135489156046
 30
0.0
 40
0.0059652239578288
 50
266.8610537995800769
 51
290.7532744733034065
  0
LINE
  5
3C2F6
  8
0
 10
6715.3713283684091948
 20
350.6890923820017747
 30
0.0
 11
6715.3750753052636355
 21
350.6914415398110236
 31
0.0
  0
LINE
  5
3C2F7
  8
0
 10
6715.3750753052636355
 20
350.6914415398110236
 30
0.0
 11
6715.3845711590429346
 21
350.6913345487240008
 31
0.0
  0
LINE
  5
3C2F8
  8
0
 10
6715.3845711590429346
 20
350.6913345487240008
 30
0.0
 11
6715.424490388407321
 21
350.6878825885017932
 31
0.0
  0
LINE
  5
3C2F9
  8
0
 10
6715.424490388407321
 20
350.6878825885017932
 30
0.0
 11
6715.42321729080777
 21
350.687304034801798
 31
0.0
  0
LINE
  5
3C2FA
  8
0
 10
6715.42321729080777
 20
350.687304034801798
 30
0.0
 11
6715.4141013547377952
 21
350.6870303825887163
 31
0.0
  0
LINE
  5
3C2FB
  8
0
 10
6715.3713283684091948
 20
350.6890923820017747
 30
0.0
 11
6715.3835062652533452
 21
350.6877297519911281
 31
0.0
  0
ARC
  5
3C2FC
  8
0
 10
6715.37000462733522
 20
350.6996133406386775
 30
0.0
 40
0.0106039078204967
 50
277.171239540241686
 51
309.4293144959626147
  0
ARC
  5
3C2FD
  8
0
 10
6715.4232809594841456
 20
350.6909119481571793
 30
0.0
 40
0.0036084750906981
 50
228.9116710258765863
 51
268.9890090371650899
  0
LINE
  5
3C2FE
  8
0
 10
6715.3148756807077007
 20
350.7949309379574743
 30
0.0
 11
6715.3148756807077007
 21
350.7767347851009845
 31
0.0
  0
ARC
  5
3C2FF
  8
0
 10
6715.3209891842843717
 20
350.7777933285950098
 30
0.0
 40
0.006204469381563
 50
189.8232780045343873
 51
238.253135646101498
  0
LINE
  5
3C300
  8
0
 10
6715.3054641629723847
 20
350.8017208593190048
 30
0.0
 11
6715.2982343616076832
 21
350.7990884914017897
 31
0.0
  0
LINE
  5
3C301
  8
0
 10
6715.2982343616076832
 20
350.7990884914017897
 30
0.0
 11
6715.3054641629723847
 21
350.7997865961854131
 31
0.0
  0
ARC
  5
3C302
  8
0
 10
6715.2553682667930843
 20
350.7948367726579022
 30
0.0
 40
0.0046730659523897
 50
245.9947989147646012
 51
282.2954270087246869
  0
ARC
  5
3C303
  8
0
 10
6715.3199303391456851
 20
350.5096168222926281
 30
0.0
 40
0.2877628593640361
 50
92.8815405525981816
 51
102.761923513156205
  0
LINE
  5
3C304
  8
0
 10
6715.6343205201092132
 20
350.7682131558829042
 30
0.0
 11
6715.6311818631847927
 21
350.7587744335684192
 31
0.0
  0
LINE
  5
3C305
  8
0
 10
6715.6311818631847927
 20
350.7587744335684192
 30
0.0
 11
6715.6394847678466249
 21
350.7606628909888968
 31
0.0
  0
LINE
  5
3C306
  8
0
 10
6715.6394847678466249
 20
350.7606628909888968
 30
0.0
 11
6715.6395014903000629
 21
350.7609518698449165
 31
0.0
  0
LINE
  5
3C307
  8
0
 10
6715.6395014903000629
 20
350.7609518698449165
 30
0.0
 11
6715.6407824076513862
 21
350.7630126854996888
 31
0.0
  0
LINE
  5
3C308
  8
0
 10
6715.6394847678466249
 20
350.7606628909888968
 30
0.0
 11
6715.6391261329090412
 21
350.7603496552018214
 31
0.0
  0
LINE
  5
3C309
  8
0
 10
6720.5723283202723906
 20
352.2806143854750758
 30
0.0
 11
6718.2492732021719348
 21
352.2806143854750758
 31
0.0
  0
LINE
  5
3C30A
  8
0
 10
6716.5723283202705716
 20
352.2806143854750758
 30
0.0
 11
6714.2492732021719348
 21
352.2806143854750758
 31
0.0
  0
LINE
  5
3C30B
  8
0
 10
6716.0256883160236612
 20
351.4538427318751133
 30
0.0
 11
6714.7959132064197547
 21
351.4538427318751133
 31
0.0
  0
LINE
  5
3C30C
  8
0
 10
6714.1312732021724514
 20
352.1626143854751945
 30
0.0
 11
6714.1312732021724514
 21
349.8395592673750798
 31
0.0
  0
LINE
  5
3C30D
  8
0
 10
6718.8251632545016037
 20
349.7215592673751985
 30
0.0
 11
6718.2492732021719348
 21
349.7215592673751985
 31
0.0
  0
LINE
  5
3C30E
  8
0
 10
6716.5723283202705716
 20
349.7215592673751985
 30
0.0
 11
6714.2492732021719348
 21
349.7215592673751985
 31
0.0
  0
ARC
  5
3C30F
  8
0
 10
6714.2492732021719348
 20
349.8395592673750798
 30
0.0
 40
0.118
 50
180.0
 51
270.0
  0
ARC
  5
3C310
  8
0
 10
6714.2492732021719348
 20
352.1626143854751945
 30
0.0
 40
0.118
 50
90.0
 51
180.0
  0
ARC
  5
3C311
  8
0
 10
6715.8302003085082106
 20
338.5422098532745849
 30
0.0
 40
12.3443154481898407
 50
91.9470054426704735
 51
92.6959171931013799
  0
ARC
  5
3C312
  8
0
 10
6715.3528777891397112
 20
349.5583107930453934
 30
0.0
 40
1.318604351929118
 50
94.492991431279691
 51
99.3010050863824176
  0
ARC
  5
3C313
  8
0
 10
6715.2277123247977215
 20
350.3225666621419805
 30
0.0
 40
0.5441668612869317
 50
99.3010050863824176
 51
107.6185923544962009
  0
ARC
  5
3C314
  8
0
 10
6715.1847711439331761
 20
350.4392672187372
 30
0.0
 40
0.4199804258630619
 50
106.854032592870098
 51
115.1248915907831929
  0
ARC
  5
3C315
  8
0
 10
6715.0828523314858103
 20
350.6565947516605775
 30
0.0
 40
0.1799414688215815
 50
115.1248915907831929
 51
132.8133551989409966
  0
ARC
  5
3C316
  8
0
 10
6714.9995284663118582
 20
350.7495151194622736
 30
0.0
 40
0.0551870076818419
 50
134.9170526500325877
 51
163.0076343771260099
  0
ARC
  5
3C317
  8
0
 10
6714.9953139346926037
 20
350.7542966508959807
 30
0.0
 40
0.0498711364792327
 50
166.849040001796908
 51
203.932590974567205
  0
ARC
  5
3C318
  8
0
 10
6715.0361513876023309
 20
350.7809057227241851
 30
0.0
 40
0.0982981936222457
 50
208.4575809488686957
 51
235.7467667296702132
  0
ARC
  5
3C319
  8
0
 10
6715.1528500780996183
 20
350.95754815700991
 30
0.0
 40
0.3100016320482958
 50
236.2948224202700089
 51
254.736658050787014
  0
ARC
  5
3C31A
  8
0
 10
6715.2934539445823248
 20
351.4215584577989944
 30
0.0
 40
0.7947737556718401
 50
253.7640520220951998
 51
262.1737656198955051
  0
ARC
  5
3C31B
  8
0
 10
6715.4068369424958291
 20
352.1955022919242992
 30
0.0
 40
1.5769633051821379
 50
261.9216287519051889
 51
265.8360297882682062
  0
ARC
  5
3C31C
  8
0
 10
6715.4104318111640168
 20
352.2761937981396159
 30
0.0
 40
1.6577043993009399
 50
265.9146169408651872
 51
267.4100206696833197
  0
ARC
  5
3C31D
  8
0
 10
6715.4542662669819038
 20
354.3232267901236128
 30
0.0
 40
3.7049473713605332
 50
268.1633604933928723
 51
269.327804981948475
  0
ARC
  5
3C31E
  8
0
 10
6715.4424565405115573
 20
348.6027854277149913
 30
0.0
 40
2.2478431110873429
 50
90.8069079635385208
 51
93.2775250442889075
  0
ARC
  5
3C31F
  8
0
 10
6715.3962767225275456
 20
349.6996540546816732
 30
0.0
 40
1.1502482792949771
 50
94.1047432611011061
 51
98.240651423846046
  0
ARC
  5
3C320
  8
0
 10
6715.3475571995677456
 20
350.0360532610318955
 30
0.0
 40
0.810339441589349
 50
98.240651423846046
 51
103.8361589487262933
  0
ARC
  5
3C321
  8
0
 10
6715.263413012368801
 20
350.3776961233086809
 30
0.0
 40
0.4584870725701488
 50
103.8361589487262933
 51
110.8852239233959978
  0
ARC
  5
3C322
  8
0
 10
6715.1879513183475865
 20
350.5754637891387233
 30
0.0
 40
0.2468115734867305
 50
110.8852239233959978
 51
116.5529268174367985
  0
ARC
  5
3C323
  8
0
 10
6715.150496546211798
 20
350.6504129792105005
 30
0.0
 40
0.1630246947518298
 50
116.5529268174367985
 51
129.5625620214042897
  0
ARC
  5
3C324
  8
0
 10
6715.078813350436576
 20
350.7373744051952258
 30
0.0
 40
0.0503272249207864
 50
129.7046529222945992
 51
159.8193061383792042
  0
ARC
  5
3C325
  8
0
 10
6715.0598582787388295
 20
350.7454411358489779
 30
0.0
 40
0.0297708460908958
 50
161.8065259660141066
 51
201.7761062754238139
  0
ARC
  5
3C326
  8
0
 10
6715.0859192454208824
 20
350.7585760174620191
 30
0.0
 40
0.0588992445945094
 50
204.2374727118514102
 51
234.0474962152570981
  0
ARC
  5
3C327
  8
0
 10
6715.1710852638198048
 20
350.8755194285608923
 30
0.0
 40
0.2035677930275746
 50
233.9678241709414976
 51
250.851410538809688
  0
ARC
  5
3C328
  8
0
 10
6715.3229219020404344
 20
351.3156694616297955
 30
0.0
 40
0.6691707852837639
 50
250.932062730567992
 51
263.0362839289023213
  0
ARC
  5
3C329
  8
0
 10
6715.4013679685212992
 20
351.8406682682488054
 30
0.0
 40
1.199891822835625
 50
262.3574369827705937
 51
267.4954158119696785
  0
ARC
  5
3C32A
  8
0
 10
6715.4912739794162917
 20
355.5827172901674089
 30
0.0
 40
4.9428445562947712
 50
268.3498093864187126
 51
269.0671405040400259
  0
ARC
  5
3C32B
  8
0
 10
6715.4762297928309636
 20
346.9319554923736746
 30
0.0
 40
3.9166075049396292
 50
90.9572012902142149
 51
91.9516707130832742
  0
ARC
  5
3C32C
  8
0
 10
6715.4050093216555979
 20
349.625998737775717
 30
0.0
 40
1.2218746958595901
 50
92.916302346556094
 51
96.275132851883626
  0
ARC
  5
3C32D
  8
0
 10
6715.3777158707971466
 20
349.8742073378334112
 30
0.0
 40
0.9721699870483476
 50
96.275132851883626
 51
99.7566402536872232
  0
ARC
  5
3C32E
  8
0
 10
6715.3361252225040516
 20
350.116082696951878
 30
0.0
 40
0.726744904030812
 50
99.7566402536872232
 51
104.9912727827928052
  0
ARC
  5
3C32F
  8
0
 10
6715.2484664210487608
 20
350.4434292335345162
 30
0.0
 40
0.3878646589809986
 50
104.9912727827928052
 51
113.7609570785371034
  0
ARC
  5
3C330
  8
0
 10
6715.1593574825483302
 20
350.6458396888950233
 30
0.0
 40
0.1667077116338039
 50
113.7609570785371034
 51
125.3328522409728976
  0
ARC
  5
3C331
  8
0
 10
6715.1091649742411391
 20
350.7166429936771124
 30
0.0
 40
0.0799183352202975
 50
125.3328522409728976
 51
142.2656310147154102
  0
ARC
  5
3C332
  8
0
 10
6715.0737796672110562
 20
350.7440257879883916
 30
0.0
 40
0.0351753203696803
 50
142.2656310147179113
 51
169.4628191256857122
  0
ARC
  5
3C333
  8
0
 10
6715.0666924426941478
 20
350.7453440850694051
 30
0.0
 40
0.0279665300039136
 50
169.4628191256888954
 51
200.7299371573045903
  0
ARC
  5
3C334
  8
0
 10
6715.0826099019986941
 20
350.7513682980356862
 30
0.0
 40
0.0449858323574424
 50
200.7299371573045903
 51
225.7236986386845103
  0
ARC
  5
3C335
  8
0
 10
6715.1310599012786042
 20
350.8010579578198076
 30
0.0
 40
0.1143865868175496
 50
225.7236986386845103
 51
238.0975247763402081
  0
ARC
  5
3C336
  8
0
 10
6715.2004103020590264
 20
350.923622833188972
 30
0.0
 40
0.2551560167336695
 50
239.421944601753097
 51
252.1405619928723922
  0
ARC
  5
3C337
  8
0
 10
6715.2974294219911826
 20
351.2102751432452123
 30
0.0
 40
0.5577667704401497
 50
251.685226248368707
 51
258.5010340412956111
  0
ARC
  5
3C338
  8
0
 10
6715.3746404041303322
 20
351.587713025061305
 30
0.0
 40
0.9430209548534428
 50
258.4755831985121972
 51
264.4491403705627022
  0
ARC
  5
3C339
  8
0
 10
6715.405884133328982
 20
351.8780825873125195
 30
0.0
 40
1.23505474672801
 50
264.3095035946607254
 51
267.6986997898599725
  0
ARC
  5
3C33A
  8
0
 10
6715.4702966730510525
 20
354.9156152747394231
 30
0.0
 40
4.2731124319542007
 50
268.4711824092221946
 51
269.202226749314093
  0
ARC
  5
3C33B
  8
0
 10
6715.1282331028369299
 20
350.7054056596981013
 30
0.0
 40
0.1050561743833727
 50
127.3996175396159032
 51
141.2252353628580011
  0
ARC
  5
3C33C
  8
0
 10
6715.0773009705953882
 20
350.7473398587522979
 30
0.0
 40
0.0390951434578274
 50
142.3914528503900954
 51
158.5957432880742033
  0
ARC
  5
3C33D
  8
0
 10
6715.0702128338807597
 20
350.7501182766537795
 30
0.0
 40
0.0314819123354022
 50
158.5957432880771876
 51
184.4211220775804918
  0
ARC
  5
3C33E
  8
0
 10
6720.7708583696912683
 20
352.308014932273295
 30
0.0
 40
6.0585550208682086
 50
188.3236786064906028
 51
191.3186951394525863
  0
ARC
  5
3C33F
  8
0
 10
6717.3099564297363031
 20
351.615284054174424
 30
0.0
 40
2.5290057143049971
 50
191.3186951394525863
 51
197.3336577667292033
  0
ARC
  5
3C340
  8
0
 10
6715.565247458873273
 20
351.0707431804435146
 30
0.0
 40
0.7012928932717108
 50
197.3336577667292033
 51
208.4618098250269895
  0
ARC
  5
3C341
  8
0
 10
6714.7959132064197547
 20
351.4338427318750746
 30
0.0
 40
0.02
 50
90.0
 51
188.3236786064873911
  0
ARC
  5
3C342
  8
0
 10
6715.3985692360893154
 20
350.9517490413890073
 30
0.0
 40
0.4591707477188135
 50
217.7554894759628041
 51
237.5063696905201027
  0
ARC
  5
3C343
  8
0
 10
6715.371156473528572
 20
350.9087090651364065
 30
0.0
 40
0.4081423330169534
 50
237.5063696905201027
 51
258.2894437538898273
  0
ARC
  5
3C344
  8
0
 10
6715.4320615289452689
 20
351.3062836543757044
 30
0.0
 40
0.8100770724943998
 50
259.7789803472655876
 51
268.4960787162091265
  0
ARC
  5
3C345
  8
0
 10
6715.4112629506498706
 20
352.7759835081702136
 30
0.0
 40
2.216378877585842
 50
268.5162297937270068
 51
269.9880519057359152
  0
ARC
  5
3C346
  8
0
 10
6715.2600740452644459
 20
346.9391297952341802
 30
0.0
 40
3.6224325897700052
 50
88.51622979372695
 51
88.9426011416334461
  0
ARC
  5
3C347
  8
0
 10
6715.3219775170891808
 20
350.2532589730740824
 30
0.0
 40
0.3077262818316085
 50
89.079236328419185
 51
91.2409537983734396
  0
ARC
  5
3C348
  8
0
 10
6715.3174590793842071
 20
350.4716751877363095
 30
0.0
 40
0.0892636926019074
 50
91.3775889851978604
 51
96.5124849167504806
  0
ARC
  5
3C349
  8
0
 10
6715.3088768961515598
 20
350.5468543922289086
 30
0.0
 40
0.0135962183664981
 50
96.5124849167500969
 51
114.1099978982534964
  0
ARC
  5
3C34A
  8
0
 10
6715.3038902414327822
 20
350.5579969816964194
 30
0.0
 40
0.0013886786749484
 50
114.1099978982507963
 51
152.084659558064601
  0
ARC
  5
3C34B
  8
0
 10
6715.3038401634848924
 20
350.558124244172916
 30
0.0
 40
0.0012879271920164
 50
156.0475650572336974
 51
227.152075754591408
  0
ARC
  5
3C34C
  8
0
 10
6715.3361991754945848
 20
350.6093622746686265
 30
0.0
 40
0.061867180789458
 50
237.5069603891139991
 51
257.9370745330263048
  0
ARC
  5
3C34D
  8
0
 10
6715.3971287613194363
 20
350.8368725191767794
 30
0.0
 40
0.2973308971235069
 50
255.6167585450203035
 51
264.5223635567655833
  0
ARC
  5
3C34E
  8
0
 10
6715.4103333897346602
 20
350.9539304327723244
 30
0.0
 40
0.4151194226975685
 50
264.2504161180942219
 51
270.0645077485324919
  0
LINE
  5
3C34F
  8
0
 10
6715.3194169232901913
 20
350.5609746013565768
 30
0.0
 11
6715.3281235958711477
 21
350.5522679287751089
 31
0.0
  0
LINE
  5
3C350
  8
0
 10
6715.3281235958711477
 20
350.5522679287751089
 30
0.0
 11
6715.4934779265731777
 21
350.5522679287751089
 31
0.0
  0
LINE
  5
3C351
  8
0
 10
6716.690328320271874
 20
352.1626143854751945
 30
0.0
 11
6716.690328320271874
 21
349.8395592673750798
 31
0.0
  0
ARC
  5
3C352
  8
0
 10
6716.5723283202705716
 20
349.8395592673750798
 30
0.0
 40
0.118
 50
270.0
 51
0.0
  0
ARC
  5
3C353
  8
0
 10
6716.5723283202705716
 20
352.1626143854751945
 30
0.0
 40
0.118
 50
0.0
 51
90.0
  0
ARC
  5
3C354
  8
0
 10
6714.9914012139352053
 20
338.5422098532745849
 30
0.0
 40
12.3443154481898407
 50
87.3040828068986343
 51
88.0529945573295265
  0
ARC
  5
3C355
  8
0
 10
6715.4687237333046141
 20
349.5583107930453934
 30
0.0
 40
1.318604351929118
 50
80.6989949136175682
 51
85.507008568720309
  0
ARC
  5
3C356
  8
0
 10
6715.5938891976456944
 20
350.3225666621419805
 30
0.0
 40
0.5441668612869317
 50
72.3814076455038133
 51
80.6989949136175682
  0
ARC
  5
3C357
  8
0
 10
6715.6368303785102398
 20
350.4392672187372
 30
0.0
 40
0.4199804258630619
 50
64.8751084092167787
 51
73.1459674071298451
  0
ARC
  5
3C358
  8
0
 10
6715.7387491909594246
 20
350.6565947516605775
 30
0.0
 40
0.1799414688215815
 50
47.1866448010589608
 51
64.8751084092167787
  0
ARC
  5
3C359
  8
0
 10
6715.8220730561306482
 20
350.7495151194622736
 30
0.0
 40
0.0551870076818419
 50
16.9923656228740114
 51
45.082947349967327
  0
ARC
  5
3C35A
  8
0
 10
6715.8262875877508122
 20
350.7542966508959807
 30
0.0
 40
0.0498711364792327
 50
336.0674090254328235
 51
13.1509599982030707
  0
ARC
  5
3C35B
  8
0
 10
6715.7854501348410849
 20
350.7809057227241851
 30
0.0
 40
0.0982981936222457
 50
304.2532332703298152
 51
331.5424190511312759
  0
ARC
  5
3C35C
  8
0
 10
6715.6687514443437976
 20
350.95754815700991
 30
0.0
 40
0.3100016320482958
 50
285.263341949212986
 51
303.7051775797298774
  0
ARC
  5
3C35D
  8
0
 10
6715.5281475778620006
 20
351.4215584577989944
 30
0.0
 40
0.7947737556718401
 50
277.8262343801046086
 51
286.2359479779049138
  0
ARC
  5
3C35E
  8
0
 10
6715.4147645799475868
 20
352.1955022919242992
 30
0.0
 40
1.5769633051821379
 50
274.1639702117317938
 51
278.0783712480948111
  0
ARC
  5
3C35F
  8
0
 10
6715.411169711281218
 20
352.2761937981396159
 30
0.0
 40
1.6577043993009399
 50
272.5899793303166803
 51
274.0853830591348128
  0
ARC
  5
3C360
  8
0
 10
6715.3673352554606026
 20
354.3232267901236128
 30
0.0
 40
3.7049473713605332
 50
270.672195018051525
 51
271.8366395066071277
  0
ARC
  5
3C361
  8
0
 10
6715.3791449819318586
 20
348.6027854277149913
 30
0.0
 40
2.2478431110873429
 50
86.7224749557110783
 51
89.1930920364614792
  0
ARC
  5
3C362
  8
0
 10
6715.4253247999149607
 20
349.6996540546816732
 30
0.0
 40
1.1502482792949771
 50
81.7593485761539824
 51
85.8952567388989081
  0
ARC
  5
3C363
  8
0
 10
6715.4740443228738513
 20
350.0360532610318955
 30
0.0
 40
0.810339441589349
 50
76.1638410512736925
 51
81.7593485761539824
  0
ARC
  5
3C364
  8
0
 10
6715.5581885100764339
 20
350.3776961233086809
 30
0.0
 40
0.4584870725701488
 50
69.1147760766040022
 51
76.1638410512736925
  0
ARC
  5
3C365
  8
0
 10
6715.6336502040958294
 20
350.5754637891387233
 30
0.0
 40
0.2468115734867305
 50
63.4470731825631589
 51
69.1147760766040022
  0
ARC
  5
3C366
  8
0
 10
6715.6711049762316179
 20
350.6504129792105005
 30
0.0
 40
0.1630246947518298
 50
50.4374379785957387
 51
63.4470731825631589
  0
ARC
  5
3C367
  8
0
 10
6715.7427881720068399
 20
350.7373744051952258
 30
0.0
 40
0.0503272249207864
 50
20.1806938616207816
 51
50.2953470777054434
  0
ARC
  5
3C368
  8
0
 10
6715.7617432437045863
 20
350.7454411358489779
 30
0.0
 40
0.0297708460908958
 50
338.2238937245761008
 51
18.1934740339859289
  0
ARC
  5
3C369
  8
0
 10
6715.7356822770243525
 20
350.7585760174620191
 30
0.0
 40
0.0588992445945094
 50
305.9525037847428734
 51
335.7625272881484761
  0
ARC
  5
3C36A
  8
0
 10
6715.6505162586236111
 20
350.8755194285608923
 30
0.0
 40
0.2035677930275746
 50
289.1485894611902836
 51
306.0321758290584739
  0
ARC
  5
3C36B
  8
0
 10
6715.498679620403891
 20
351.3156694616297955
 30
0.0
 40
0.6691707852837639
 50
276.9637160710976787
 51
289.0679372694319795
  0
ARC
  5
3C36C
  8
0
 10
6715.4202335539221167
 20
351.8406682682488054
 30
0.0
 40
1.199891822835625
 50
272.5045841880302078
 51
277.6425630172294063
  0
ARC
  5
3C36D
  8
0
 10
6715.3303275430280337
 20
355.5827172901674089
 30
0.0
 40
4.9428445562947712
 50
270.9328594959599741
 51
271.6501906135812874
  0
ARC
  5
3C36E
  8
0
 10
6715.3453717296133618
 20
346.9319554923736746
 30
0.0
 40
3.9166075049396292
 50
88.0483292869167258
 51
89.0427987097857709
  0
ARC
  5
3C36F
  8
0
 10
6715.416592200787818
 20
349.625998737775717
 30
0.0
 40
1.2218746958595901
 50
83.724867148116374
 51
87.0836976534439344
  0
ARC
  5
3C370
  8
0
 10
6715.4438856516480882
 20
349.8742073378334112
 30
0.0
 40
0.9721699870483476
 50
80.2433597463128052
 51
83.724867148116374
  0
ARC
  5
3C371
  8
0
 10
6715.4854762999402737
 20
350.116082696951878
 30
0.0
 40
0.726744904030812
 50
75.0087272172071948
 51
80.2433597463128052
  0
ARC
  5
3C372
  8
0
 10
6715.5731351013946551
 20
350.4434292335345162
 30
0.0
 40
0.3878646589809986
 50
66.2390429214628824
 51
75.0087272172071948
  0
ARC
  5
3C373
  8
0
 10
6715.6622440398959952
 20
350.6458396888950233
 30
0.0
 40
0.1667077116338039
 50
54.6671477590270669
 51
66.2390429214628824
  0
ARC
  5
3C374
  8
0
 10
6715.7124365482031862
 20
350.7166429936771124
 30
0.0
 40
0.0799183352202975
 50
37.7343689852846182
 51
54.6671477590270669
  0
ARC
  5
3C375
  8
0
 10
6715.7478218552332692
 20
350.7440257879883916
 30
0.0
 40
0.0351753203696803
 50
10.5371808743143198
 51
37.7343689852820532
  0
ARC
  5
3C376
  8
0
 10
6715.7549090797483586
 20
350.7453440850694051
 30
0.0
 40
0.0279665300039136
 50
339.2700628426953813
 51
10.5371808743111206
  0
ARC
  5
3C377
  8
0
 10
6715.7389916204438123
 20
350.7513682980356862
 30
0.0
 40
0.0449858323574424
 50
314.2763013613155181
 51
339.2700628426953813
  0
ARC
  5
3C378
  8
0
 10
6715.6905416211639022
 20
350.8010579578198076
 30
0.0
 40
0.1143865868175496
 50
301.9024752236596782
 51
314.2763013613155181
  0
ARC
  5
3C379
  8
0
 10
6715.6211912203852989
 20
350.923622833188972
 30
0.0
 40
0.2551560167336695
 50
287.8594380071277214
 51
300.5780553982468746
  0
ARC
  5
3C37A
  8
0
 10
6715.5241721004513238
 20
351.2102751432452123
 30
0.0
 40
0.5577667704401497
 50
281.4989659587045026
 51
288.3147737516313214
  0
ARC
  5
3C37B
  8
0
 10
6715.4469611183130837
 20
351.587713025061305
 30
0.0
 40
0.9430209548534428
 50
275.5508596294371841
 51
281.5244168014878028
  0
ARC
  5
3C37C
  8
0
 10
6715.4157173891126149
 20
351.8780825873125195
 30
0.0
 40
1.23505474672801
 50
272.3013002101399138
 51
275.6904964053392746
  0
ARC
  5
3C37D
  8
0
 10
6715.3513048493932729
 20
354.9156152747394231
 30
0.0
 40
4.2731124319542007
 50
270.797773250685907
 51
271.5288175907778054
  0
ARC
  5
3C37E
  8
0
 10
6715.6933684196073955
 20
350.7054056596981013
 30
0.0
 40
0.1050561743833727
 50
38.7747646371420132
 51
52.6003824603841323
  0
ARC
  5
3C37F
  8
0
 10
6715.7443005518489372
 20
350.7473398587522979
 30
0.0
 40
0.0390951434578274
 50
21.4042567119258109
 51
37.6085471496098833
  0
ARC
  5
3C380
  8
0
 10
6715.7513886885635657
 20
350.7501182766537795
 30
0.0
 40
0.0314819123354022
 50
355.5788779224195082
 51
21.4042567119227698
  0
ARC
  5
3C381
  8
0
 10
6710.0507431527521476
 20
352.308014932273295
 30
0.0
 40
6.0585550208682086
 50
348.6813048605474137
 51
351.6763213935092836
  0
ARC
  5
3C382
  8
0
 10
6713.5116450927080223
 20
351.615284054174424
 30
0.0
 40
2.5290057143049971
 50
342.6663422332708251
 51
348.6813048605474137
  0
ARC
  5
3C383
  8
0
 10
6715.2563540635692334
 20
351.0707431804435146
 30
0.0
 40
0.7012928932717108
 50
331.5381901749730105
 51
342.6663422332708251
  0
ARC
  5
3C384
  8
0
 10
6716.0256883160236612
 20
351.4338427318750746
 30
0.0
 40
0.02
 50
351.6763213935125805
 51
90.0
  0
ARC
  5
3C385
  8
0
 10
6715.4230322863559195
 20
350.9517490413890073
 30
0.0
 40
0.4591707477188135
 50
302.4936303094797836
 51
322.2445105240371959
  0
ARC
  5
3C386
  8
0
 10
6715.4504450489148439
 20
350.9087090651364065
 30
0.0
 40
0.4081423330169534
 50
281.7105562461101727
 51
302.4936303094797836
  0
ARC
  5
3C387
  8
0
 10
6715.3895399934990564
 20
351.3062836543757044
 30
0.0
 40
0.8100770724943998
 50
271.5039212837908735
 51
280.2210196527344124
  0
ARC
  5
3C388
  8
0
 10
6715.4103385717926358
 20
352.7759835081702136
 30
0.0
 40
2.216378877585842
 50
270.0119480942641985
 51
271.4837702062729932
  0
ARC
  5
3C389
  8
0
 10
6715.561527477180789
 20
346.9391297952341802
 30
0.0
 40
3.6224325897700052
 50
91.0573988583665255
 51
91.4837702062730642
  0
ARC
  5
3C38A
  8
0
 10
6715.4996240053551446
 20
350.2532589730740824
 30
0.0
 40
0.3077262818316085
 50
88.7590462016265747
 51
90.920763671580815
  0
ARC
  5
3C38B
  8
0
 10
6715.5041424430610277
 20
350.4716751877363095
 30
0.0
 40
0.0892636926019074
 50
83.4875150832495478
 51
88.6224110148021538
  0
ARC
  5
3C38C
  8
0
 10
6715.5127246262918561
 20
350.5468543922289086
 30
0.0
 40
0.0135962183664981
 50
65.8900021017465036
 51
83.4875150832499173
  0
ARC
  5
3C38D
  8
0
 10
6715.5177112810088147
 20
350.5579969816964194
 30
0.0
 40
0.0013886786749484
 50
27.9153404419353386
 51
65.8900021017491753
  0
ARC
  5
3C38E
  8
0
 10
6715.5177613589603425
 20
350.558124244172916
 30
0.0
 40
0.0012879271920164
 50
312.847924245408592
 51
23.952434942766299
  0
ARC
  5
3C38F
  8
0
 10
6715.4854023469479216
 20
350.6093622746686265
 30
0.0
 40
0.061867180789458
 50
282.0629254669736952
 51
302.4930396108860009
  0
ARC
  5
3C390
  8
0
 10
6715.4244727611248891
 20
350.8368725191767794
 30
0.0
 40
0.2973308971235069
 50
275.477636443234303
 51
284.3832414549797249
  0
ARC
  5
3C391
  8
0
 10
6715.4112681327087557
 20
350.9539304327723244
 30
0.0
 40
0.4151194226975685
 50
269.9354922514675081
 51
275.7495838819057212
  0
LINE
  5
3C392
  8
0
 10
6715.5021845991523151
 20
350.5609746013565768
 30
0.0
 11
6715.4934779265731777
 21
350.5522679287751089
 31
0.0
  0
LINE
  5
3C393
  8
0
 10
6718.1312732021724514
 20
352.1626143854751945
 30
0.0
 11
6718.1312732021724514
 21
349.8395592673750798
 31
0.0
  0
ARC
  5
3C394
  8
0
 10
6718.2492732021719348
 20
352.1626143854751945
 30
0.0
 40
0.118
 50
90.0
 51
180.0
  0
ARC
  5
3C395
  8
0
 10
6718.2492732021719348
 20
349.8395592673750798
 30
0.0
 40
0.118
 50
180.0
 51
270.0
  0
ARC
  5
3C396
  8
0
 10
6719.4108007612230722
 20
351.0010868264250803
 30
0.0
 40
0.8110003661321005
 50
178.7054616405162051
 51
208.7517814117169905
  0
ARC
  5
3C397
  8
0
 10
6719.4108007612230722
 20
351.0010868264250803
 30
0.0
 40
0.8110003661321005
 50
68.9908158043552362
 51
111.009184195644707
  0
ARC
  5
3C398
  8
0
 10
6719.4108007612230722
 20
351.0010868264250803
 30
0.0
 40
0.8424991667086167
 50
169.5076086040805876
 51
214.4114372936739983
  0
ARC
  5
3C399
  8
0
 10
6719.4108007612230722
 20
351.0010868264250803
 30
0.0
 40
0.8424991667086167
 50
325.5885627063260017
 51
10.4923913959193609
  0
ARC
  5
3C39A
  8
0
 10
6719.4108007612230722
 20
351.0010868264250803
 30
0.0
 40
0.8424991667086167
 50
62.0050675974979626
 51
117.9949324025020019
  0
LINE
  5
3C39B
  8
0
 10
6719.7424032898270525
 20
347.2534820052580926
 30
0.0
 11
6719.0791982326172729
 21
347.2534820052580926
 31
0.0
  0
LINE
  5
3C39C
  8
0
 10
6718.8367982326171841
 20
349.1523427504532151
 30
0.0
 11
6718.8367982326171841
 21
347.4958820052581245
 31
0.0
  0
ARC
  5
3C39D
  8
0
 10
6719.4116092063195538
 20
346.9490758301398046
 30
0.0
 40
4.8179289115459474
 50
90.0096141917152153
 51
93.5511922762213857
  0
ARC
  5
3C39E
  8
0
 10
6719.2012472817377784
 20
350.7000333537736765
 30
0.0
 40
1.061379809308723
 50
94.7592729103189271
 51
101.8578598791889931
  0
ARC
  5
3C39F
  8
0
 10
6719.1412047816920676
 20
350.985997646055182
 30
0.0
 40
0.769180086051062
 50
101.8578598791889931
 51
109.8386333076803965
  0
ARC
  5
3C3A0
  8
0
 10
6719.0366792246168188
 20
351.2757154635672805
 30
0.0
 40
0.4611833232986621
 50
109.8386333076803965
 51
122.840347462195993
  0
ARC
  5
3C3A1
  8
0
 10
6719.0066957790786546
 20
351.3221687901368
 30
0.0
 40
0.4058939160335947
 50
122.840347462195993
 51
141.2865730363714931
  0
ARC
  5
3C3A2
  8
0
 10
6719.0243576312450386
 20
351.3080121815629013
 30
0.0
 40
0.4285290786860389
 50
141.2865730363714931
 51
158.4757979632655065
  0
ARC
  5
3C3A3
  8
0
 10
6719.21698670843125
 20
351.2320395615441839
 30
0.0
 40
0.6355986331117681
 50
158.4757979632655065
 51
174.8197930336745003
  0
ARC
  5
3C3A4
  8
0
 10
6719.4397872140871186
 20
351.2118407293929181
 30
0.0
 40
0.8593128663210192
 50
174.8197930336745003
 51
187.8997536165420001
  0
ARC
  5
3C3A5
  8
0
 10
6719.5066715452612698
 20
351.1962375963879026
 30
0.0
 40
0.9237468560633534
 50
186.3707907765434015
 51
196.0874399989210133
  0
ARC
  5
3C3A6
  8
0
 10
6721.8294686376193567
 20
351.8204884715792105
 30
0.0
 40
3.3288543081149178
 50
195.3326560906637042
 51
197.3539314295761926
  0
ARC
  5
3C3A7
  8
0
 10
6717.8213639058640183
 20
350.5555882189851786
 30
0.0
 40
0.8741693019676372
 50
16.2489499934044908
 51
18.1281103613336789
  0
ARC
  5
3C3A8
  8
0
 10
6715.5291744641081095
 20
350.0669202740489254
 30
0.0
 40
3.2161471235881258
 50
11.4165701056514308
 51
13.1791498289328892
  0
ARC
  5
3C3A9
  8
0
 10
6709.581020286275816
 20
348.8755252792681745
 30
0.0
 40
9.2824415845781392
 50
9.5860828464180035
 51
11.3575576764012993
  0
ARC
  5
3C3AA
  8
0
 10
6703.7196361080386851
 20
347.816940997035374
 30
0.0
 40
15.2384160939714093
 50
8.3684574950133772
 51
9.8406736618790838
  0
ARC
  5
3C3AB
  8
0
 10
6715.3657870264460144
 20
349.5541879324626962
 30
0.0
 40
3.463511911474507
 50
2.9427232781707491
 51
7.9749419114818689
  0
ARC
  5
3C3AC
  8
0
 10
6704.4994859841499419
 20
349.1345782314255075
 30
0.0
 40
14.3376977228155305
 50
1.138346346702811
 51
2.3880719871956231
  0
ARC
  5
3C3AD
  8
0
 10
6701.6547762013242391
 20
349.1286468609466738
 30
0.0
 40
17.1820383708971001
 50
0.0790171027197043
 51
0.9696655038647248
  0
ARC
  5
3C3AE
  8
0
 10
6719.5103258933067991
 20
344.9251735563320267
 30
0.0
 40
6.8240082957873547
 50
90.8356631401838257
 51
93.5417262366415798
  0
ARC
  5
3C3AF
  8
0
 10
6719.1817815452441209
 20
350.8155672975385073
 30
0.0
 40
0.9252680309264015
 50
95.7693468885643853
 51
105.7300780663859996
  0
ARC
  5
3C3B0
  8
0
 10
6719.0632191821805463
 20
351.2365179255863836
 30
0.0
 40
0.4879392470707523
 50
105.7300780663859996
 51
121.0483142960785017
  0
ARC
  5
3C3B1
  8
0
 10
6718.9966330086153903
 20
351.3471245550916251
 30
0.0
 40
0.3588364004680695
 50
121.0483142960785017
 51
134.9110650477925049
  0
ARC
  5
3C3B2
  8
0
 10
6719.0324921783767422
 20
351.3111538904154258
 30
0.0
 40
0.4096278246778277
 50
134.9110650477925049
 51
147.6245666973551067
  0
ARC
  5
3C3B3
  8
0
 10
6719.0473951076291996
 20
351.3017051648981806
 30
0.0
 40
0.4272736659503846
 50
147.6245666973551067
 51
163.6442924933398899
  0
ARC
  5
3C3B4
  8
0
 10
6719.2594294571554201
 20
351.2394781332623097
 30
0.0
 40
0.6482505173283143
 50
163.6442924933398899
 51
173.104798693060701
  0
ARC
  5
3C3B5
  8
0
 10
6719.3598047487430449
 20
351.2273399180680826
 30
0.0
 40
0.7493570721583231
 50
173.104798693060701
 51
180.8154345271169916
  0
ARC
  5
3C3B6
  8
0
 10
6719.8187291904678204
 20
351.2338717796931746
 30
0.0
 40
1.2083279954507691
 50
180.8154345271169916
 51
187.7042289719356063
  0
ARC
  5
3C3B7
  8
0
 10
6720.3228478257706229
 20
351.3020691826661164
 30
0.0
 40
1.717038604964622
 50
187.7042289719356063
 51
191.5944172717408946
  0
ARC
  5
3C3B8
  8
0
 10
6714.8210499970764431
 20
350.1732709354996018
 30
0.0
 40
3.8993628079179792
 50
9.918406631364709
 51
11.5944172717409408
  0
ARC
  5
3C3B9
  8
0
 10
6723.1491061585320494
 20
351.6295065016500985
 30
0.0
 40
4.5550526924264982
 50
189.9184066313646895
 51
191.4829659565540112
  0
ARC
  5
3C3BA
  8
0
 10
6714.554521513781765
 20
349.8835792692556197
 30
0.0
 40
4.2150754204675183
 50
9.7056284167589411
 51
11.4829659565540894
  0
ARC
  5
3C3BB
  8
0
 10
6689.634124921932198
 20
345.1817936190176965
 30
0.0
 40
29.5746140657173484
 50
10.2271389765138103
 51
10.5450131419195703
  0
ARC
  5
3C3BC
  8
0
 10
6707.4464990700480485
 20
348.3746680636692759
 30
0.0
 40
11.4783702116509101
 50
8.8265330397321708
 51
10.3292588202134201
  0
ARC
  5
3C3BD
  8
0
 10
6714.6889694610399602
 20
349.5002357561758117
 30
0.0
 40
4.1489583927983587
 50
5.4061817130224421
 51
8.8137124061411765
  0
ARC
  5
3C3BE
  8
0
 10
6715.8927417436361793
 20
349.6151489780098132
 30
0.0
 40
2.9397142570603321
 50
1.57676404375957
 51
5.3869294947045558
  0
ARC
  5
3C3BF
  8
0
 10
6703.2016521389214176
 20
349.1700867715953791
 30
0.0
 40
15.6385376172840704
 50
0.3077377673228074
 51
1.9273234670398589
  0
LINE
  5
3C3C0
  8
0
 10
6718.8399641861560667
 20
349.2540815361764999
 30
0.0
 11
6718.8399641861560667
 21
347.508352107651092
 31
0.0
  0
LINE
  5
3C3C1
  8
0
 10
6719.7392373362881699
 20
347.2659521076511737
 30
0.0
 11
6719.0823641861561555
 21
347.2659521076511737
 31
0.0
  0
ARC
  5
3C3C2
  8
0
 10
6719.0791982326172729
 20
347.4958820052581245
 30
0.0
 40
0.2424
 50
180.0
 51
270.0
  0
ARC
  5
3C3C3
  8
0
 10
6719.0823641861561555
 20
347.508352107651092
 30
0.0
 40
0.2424
 50
180.0
 51
270.0
  0
LINE
  5
3C3C4
  8
0
 10
6719.9964382679418122
 20
349.7215592673751985
 30
0.0
 11
6720.5723283202723906
 21
349.7215592673751985
 31
0.0
  0
LINE
  5
3C3C5
  8
0
 10
6720.690328320271874
 20
352.1626143854751945
 30
0.0
 11
6720.690328320271874
 21
349.8395592673750798
 31
0.0
  0
ARC
  5
3C3C6
  8
0
 10
6720.5723283202723906
 20
352.1626143854751945
 30
0.0
 40
0.118
 50
0.0
 51
90.0
  0
ARC
  5
3C3C7
  8
0
 10
6720.5723283202723906
 20
349.8395592673750798
 30
0.0
 40
0.118
 50
270.0
 51
0.0
  0
ARC
  5
3C3C8
  8
0
 10
6719.4108007612230722
 20
351.0010868264250803
 30
0.0
 40
0.8110003661321005
 50
331.2482185882830095
 51
1.294538359483747
  0
LINE
  5
3C3C9
  8
0
 10
6719.9848032898253223
 20
349.1523427504532151
 30
0.0
 11
6719.9848032898253223
 21
347.4958820052581245
 31
0.0
  0
ARC
  5
3C3CA
  8
0
 10
6719.4099923161247716
 20
346.9490758301398046
 30
0.0
 40
4.8179289115459474
 50
86.4488077237786285
 51
89.9903858082847847
  0
ARC
  5
3C3CB
  8
0
 10
6719.6203542407056375
 20
350.7000333537736765
 30
0.0
 40
1.061379809308723
 50
78.1421401208110353
 51
85.2407270896810871
  0
ARC
  5
3C3CC
  8
0
 10
6719.6803967407522578
 20
350.985997646055182
 30
0.0
 40
0.769180086051062
 50
70.1613666923195893
 51
78.1421401208110353
  0
ARC
  5
3C3CD
  8
0
 10
6719.7849222978256876
 20
351.2757154635672805
 30
0.0
 40
0.4611833232986621
 50
57.1596525378039289
 51
70.1613666923206978
  0
ARC
  5
3C3CE
  8
0
 10
6719.8149057433656708
 20
351.3221687901368
 30
0.0
 40
0.4058939160335947
 50
38.7134269636284785
 51
57.1596525378039289
  0
ARC
  5
3C3CF
  8
0
 10
6719.7972438911965583
 20
351.3080121815629013
 30
0.0
 40
0.4285290786860389
 50
21.5242020367344793
 51
38.7134269636284785
  0
ARC
  5
3C3D0
  8
0
 10
6719.6046148140112564
 20
351.2320395615441839
 30
0.0
 40
0.6355986331117681
 50
5.1802069663254722
 51
21.5242020367344793
  0
ARC
  5
3C3D1
  8
0
 10
6719.3818143083562973
 20
351.2118407293929181
 30
0.0
 40
0.8593128663210192
 50
352.1002463834578862
 51
5.1802069663254722
  0
ARC
  5
3C3D2
  8
0
 10
6719.3149299771821461
 20
351.1962375963879026
 30
0.0
 40
0.9237468560633534
 50
343.9125600010789867
 51
353.6292092234565985
  0
ARC
  5
3C3D3
  8
0
 10
6716.9921328848249686
 20
351.8204884715792105
 30
0.0
 40
3.3288543081149178
 50
342.646068570423779
 51
344.6673439093362958
  0
ARC
  5
3C3D4
  8
0
 10
6721.0002376165775786
 20
350.5555882189851786
 30
0.0
 40
0.8741693019676372
 50
161.8718896386662891
 51
163.7510500065955057
  0
ARC
  5
3C3D5
  8
0
 10
6723.2924270583362159
 20
350.0669202740489254
 30
0.0
 40
3.2161471235881258
 50
166.820850171067093
 51
168.5834298943485976
  0
ARC
  5
3C3D6
  8
0
 10
6729.2405812361675999
 20
348.8755252792681745
 30
0.0
 40
9.2824415845781392
 50
168.6424423235986865
 51
170.4139171535819912
  0
ARC
  5
3C3D7
  8
0
 10
6735.1019654144047308
 20
347.816940997035374
 30
0.0
 40
15.2384160939714093
 50
170.1593263381209056
 51
171.6315425049866121
  0
ARC
  5
3C3D8
  8
0
 10
6723.455814495998311
 20
349.5541879324626962
 30
0.0
 40
3.463511911474507
 50
172.025058088518108
 51
177.0572767218291972
  0
ARC
  5
3C3D9
  8
0
 10
6734.3221155382943834
 20
349.1345782314255075
 30
0.0
 40
14.3376977228155305
 50
177.6119280128044124
 51
178.8616536532971963
  0
ARC
  5
3C3DA
  8
0
 10
6737.1668253211182673
 20
349.1286468609466738
 30
0.0
 40
17.1820383708971001
 50
179.0303344961353105
 51
179.9209828972803109
  0
ARC
  5
3C3DB
  8
0
 10
6719.3112756291366168
 20
344.9251735563320267
 30
0.0
 40
6.8240082957873547
 50
86.458273763358406
 51
89.1643368598161885
  0
ARC
  5
3C3DC
  8
0
 10
6719.6398199772002044
 20
350.8155672975385073
 30
0.0
 40
0.9252680309264015
 50
74.269921933613972
 51
84.2306531114356005
  0
ARC
  5
3C3DD
  8
0
 10
6719.7583823402610506
 20
351.2365179255863836
 30
0.0
 40
0.4879392470707523
 50
58.9516857039214486
 51
74.269921933613972
  0
ARC
  5
3C3DE
  8
0
 10
6719.8249685138298446
 20
351.3471245550916251
 30
0.0
 40
0.3588364004680695
 50
45.0889349522075165
 51
58.9516857039214486
  0
ARC
  5
3C3DF
  8
0
 10
6719.7891093440666737
 20
351.3111538904154258
 30
0.0
 40
0.4096278246778277
 50
32.3754333026449075
 51
45.0889349522075165
  0
ARC
  5
3C3E0
  8
0
 10
6719.7742064148151258
 20
351.3017051648981806
 30
0.0
 40
0.4272736659503846
 50
16.355707506660039
 51
32.3754333026449075
  0
ARC
  5
3C3E1
  8
0
 10
6719.5621720652889053
 20
351.2394781332623097
 30
0.0
 40
0.6482505173283143
 50
6.895201306939331
 51
16.355707506660039
  0
ARC
  5
3C3E2
  8
0
 10
6719.461796773700371
 20
351.2273399180680826
 30
0.0
 40
0.7493570721583231
 50
359.1845654728796262
 51
6.895201306939331
  0
ARC
  5
3C3E3
  8
0
 10
6719.0028723319774144
 20
351.2338717796931746
 30
0.0
 40
1.2083279954507691
 50
352.29577102806428
 51
359.1845654728829231
  0
ARC
  5
3C3E4
  8
0
 10
6718.498753696674612
 20
351.3020691826661164
 30
0.0
 40
1.717038604964622
 50
348.4055827282591054
 51
352.29577102806428
  0
ARC
  5
3C3E5
  8
0
 10
6724.0005515253678823
 20
350.1732709354996018
 30
0.0
 40
3.8993628079179792
 50
168.4055827282589917
 51
170.0815933686353105
  0
ARC
  5
3C3E6
  8
0
 10
6715.6724953639131854
 20
351.6295065016500985
 30
0.0
 40
4.5550526924264982
 50
348.5170340434459035
 51
350.0815933686353105
  0
ARC
  5
3C3E7
  8
0
 10
6724.2670800086616509
 20
349.8835792692556197
 30
0.0
 40
4.2150754204675183
 50
168.5170340434459035
 51
170.2943715832410021
  0
ARC
  5
3C3E8
  8
0
 10
6749.1874766005121273
 20
345.1817936190176965
 30
0.0
 40
29.5746140657173484
 50
169.4549868580803889
 51
169.7728610234862003
  0
ARC
  5
3C3E9
  8
0
 10
6731.3751024523962769
 20
348.3746680636692759
 30
0.0
 40
11.4783702116509101
 50
169.6707411797864893
 51
171.1734669602678025
  0
ARC
  5
3C3EA
  8
0
 10
6724.1326320614043652
 20
349.5002357561758117
 30
0.0
 40
4.1489583927983587
 50
171.1862875938587933
 51
174.5938182869774948
  0
ARC
  5
3C3EB
  8
0
 10
6722.9288597788072366
 20
349.6151489780098132
 30
0.0
 40
2.9397142570603321
 50
174.6130705052954113
 51
178.4232359562404042
  0
ARC
  5
3C3EC
  8
0
 10
6735.6199493835229077
 20
349.1700867715953791
 30
0.0
 40
15.6385376172840704
 50
178.072676532960088
 51
179.6922622326771943
  0
LINE
  5
3C3ED
  8
0
 10
6719.9816373362882587
 20
349.2540815361764999
 30
0.0
 11
6719.9816373362882587
 21
347.508352107651092
 31
0.0
  0
ARC
  5
3C3EE
  8
0
 10
6719.7424032898270525
 20
347.4958820052581245
 30
0.0
 40
0.2424
 50
270.0
 51
0.0
  0
ARC
  5
3C3EF
  8
0
 10
6719.7392373362881699
 20
347.508352107651092
 30
0.0
 40
0.2424
 50
270.0
 51
0.0
  0
ENDSEC
  0
EOF
