  0
SECTION
  2
HEADER
  9
$ACADVER
  1
AC1009
  9
$INSBASE
 10
6678.3284589590193718
 20
298.8341898055296042
 30
0.0
  9
$EXTMIN
 10
6671.1621620120131411
 20
295.0865849843626165
 30
0.0
  9
$EXTMAX
 10
6678.340941738579204
 20
300.1137173645797134
 30
0.0
  9
$LIMMIN
 10
0.0
 20
0.0
  9
$LIMMAX
 10
11.6929133858000007
 20
8.2677165353999982
  9
$ORTHOMODE
 70
     0
  9
$REGENMODE
 70
     1
  9
$FILLMODE
 70
     1
  9
$QTEXTMODE
 70
     0
  9
$MIRRTEXT
 70
     0
  9
$DRAGMODE
 70
     2
  9
$LTSCALE
 40
0.6431102362
  9
$OSMODE
 70
  4095
  9
$ATTMODE
 70
     1
  9
$TEXTSIZE
 40
0.2
  9
$TRACEWID
 40
0.05
  9
$TEXTSTYLE
  7
STANDARD
  9
$CLAYER
  8
0
  9
$CELTYPE
  6
BYLAYER
  9
$CECOLOR
 62
   256
  9
$DIMSCALE
 40
1.0
  9
$DIMASZ
 40
0.1875
  9
$DIMEXO
 40
0.0625
  9
$DIMDLI
 40
0.4443307087
  9
$DIMRND
 40
0.0
  9
$DIMDLE
 40
0.0
  9
$DIMEXE
 40
0.125
  9
$DIMTP
 40
0.01
  9
$DIMTM
 40
0.01
  9
$DIMTXT
 40
2.0
  9
$DIMCEN
 40
0.1052362205
  9
$DIMTSZ
 40
0.0
  9
$DIMTOL
 70
     1
  9
$DIMLIM
 70
     0
  9
$DIMTIH
 70
     1
  9
$DIMTOH
 70
     1
  9
$DIMSE1
 70
     0
  9
$DIMSE2
 70
     0
  9
$DIMTAD
 70
     0
  9
$DIMZIN
 70
     0
  9
$DIMBLK
  1

  9
$DIMASO
 70
     1
  9
$DIMSHO
 70
     1
  9
$DIMPOST
  1
\X
  9
$DIMAPOST
  1

  9
$DIMALT
 70
     1
  9
$DIMALTD
 70
     2
  9
$DIMALTF
 40
25.3999999999999986
  9
$DIMLFAC
 40
1.0
  9
$DIMTOFL
 70
     0
  9
$DIMTVP
 40
0.0
  9
$DIMTIX
 70
     0
  9
$DIMSOXD
 70
     0
  9
$DIMSAH
 70
     0
  9
$DIMBLK1
  1

  9
$DIMBLK2
  1

  9
$DIMSTYLE
  2
STANDARD
  9
$DIMCLRD
 70
     0
  9
$DIMCLRE
 70
     0
  9
$DIMCLRT
 70
     0
  9
$DIMTFAC
 40
1.0
  9
$DIMGAP
 40
0.09
  9
$LUNITS
 70
     2
  9
$LUPREC
 70
     4
  9
$SKETCHINC
 40
0.1
  9
$FILLETRAD
 40
0.0
  9
$AUNITS
 70
     0
  9
$AUPREC
 70
     0
  9
$MENU
  1
.
  9
$ELEVATION
 40
0.0
  9
$PELEVATION
 40
0.0
  9
$THICKNESS
 40
0.0
  9
$LIMCHECK
 70
     0
  9
$BLIPMODE
 70
     0
  9
$CHAMFERA
 40
0.0
  9
$CHAMFERB
 40
0.0
  9
$SKPOLY
 70
     0
  9
$TDCREATE
 40
2458060.468368056230247
  9
$TDUPDATE
 40
2460362.8852893519215286
  9
$TDINDWG
 40
0.9734677083
  9
$TDUSRTIMER
 40
0.9734677083
  9
$USRTIMER
 70
     1
  9
$ANGBASE
 50
0.0
  9
$ANGDIR
 70
     0
  9
$PDMODE
 70
     0
  9
$PDSIZE
 40
0.3125
  9
$PLINEWID
 40
0.0
  9
$COORDS
 70
     1
  9
$SPLFRAME
 70
     0
  9
$SPLINETYPE
 70
     6
  9
$SPLINESEGS
 70
     8
  9
$ATTDIA
 70
     1
  9
$ATTREQ
 70
     1
  9
$HANDLING
 70
     1
  9
$HANDSEED
  5
31D85
  9
$SURFTAB1
 70
     6
  9
$SURFTAB2
 70
     6
  9
$SURFTYPE
 70
     6
  9
$SURFU
 70
     6
  9
$SURFV
 70
     6
  9
$UCSNAME
  2

  9
$UCSORG
 10
0.0
 20
0.0
 30
0.0
  9
$UCSXDIR
 10
1.0
 20
0.0
 30
0.0
  9
$UCSYDIR
 10
0.0
 20
1.0
 30
0.0
  9
$PUCSNAME
  2

  9
$PUCSORG
 10
0.0
 20
0.0
 30
0.0
  9
$PUCSXDIR
 10
1.0
 20
0.0
 30
0.0
  9
$PUCSYDIR
 10
0.0
 20
1.0
 30
0.0
  9
$USERI1
 70
     0
  9
$USERI2
 70
     0
  9
$USERI3
 70
     0
  9
$USERI4
 70
     0
  9
$USERI5
 70
     0
  9
$USERR1
 40
0.0
  9
$USERR2
 40
0.0
  9
$USERR3
 40
0.0
  9
$USERR4
 40
0.0
  9
$USERR5
 40
0.0
  9
$WORLDVIEW
 70
     1
  9
$SHADEDGE
 70
     3
  9
$SHADEDIF
 70
    70
  9
$TILEMODE
 70
     1
  9
$MAXACTVP
 70
    64
  9
$PLIMCHECK
 70
     0
  9
$PEXTMIN
 10
1.0000000000000000E+20
 20
1.0000000000000000E+20
 30
1.0000000000000000E+20
  9
$PEXTMAX
 10
-1.0000000000000000E+20
 20
-1.0000000000000000E+20
 30
-1.0000000000000000E+20
  9
$PLIMMIN
 10
0.0
 20
0.0
  9
$PLIMMAX
 10
12.0
 20
9.0
  9
$UNITMODE
 70
     0
  9
$VISRETAIN
 70
     1
  9
$PLINEGEN
 70
     0
  9
$PSLTSCALE
 70
     1
  0
ENDSEC
  0
SECTION
  2
TABLES
  0
TABLE
  2
VPORT
 70
     1
  0
VPORT
  2
*ACTIVE
 70
     0
 10
0.0
 20
0.0
 11
1.0
 21
1.0
 12
2763.3861954299841273
 22
165.0205460719321024
 13
0.0
 23
0.0
 14
1.0
 24
1.0
 15
0.0
 25
0.0
 16
0.0
 26
0.0
 36
60.4960186965801583
 17
3911.3653564453120453
 27
132.5796051025390057
 37
0.0
 40
5.0726267908977434
 41
2.8610271903323259
 42
50.0
 43
0.0
 44
0.0
 50
0.0
 51
0.0
 71
     0
 72
   100
 73
     1
 74
     1
 75
     0
 76
     0
 77
     0
 78
     0
  0
ENDTAB
  0
TABLE
  2
LTYPE
 70
     2
  0
LTYPE
  2
CONTINUOUS
 70
     0
  3
Solid line
 72
    65
 73
     0
 40
0.0
  0
LTYPE
  2
PHANTOM2
 70
     0
  3
___ _ _ ___ _ _ ___ _ _ ___ _ _
 72
    65
 73
     6
 40
1.25
 49
0.625
 49
-0.125
 49
0.125
 49
-0.125
 49
0.125
 49
-0.125
  0
ENDTAB
  0
TABLE
  2
LAYER
 70
     2
  0
LAYER
  2
0
 70
     0
 62
   255
  6
CONTINUOUS
  0
LAYER
  2
DEFPOINTS
 70
     0
 62
     7
  6
CONTINUOUS
  0
ENDTAB
  0
TABLE
  2
STYLE
 70
     1
  0
STYLE
  2
STANDARD
 70
     0
 40
0.0
 41
0.8
 50
0.0
 71
     0
 42
0.2
  3
txt
  4

  0
ENDTAB
  0
TABLE
  2
VIEW
 70
     0
  0
ENDTAB
  0
TABLE
  2
UCS
 70
     0
  0
ENDTAB
  0
TABLE
  2
APPID
 70
    11
  0
APPID
  2
ACAD
 70
     0
  0
APPID
  2
ACAD_MLEADERVER
 70
     0
  0
APPID
  2
ACAD_EXEMPT_FROM_CAD_STANDARDS
 70
     0
  0
APPID
  2
ACAD_NAV_VCDISPLAY
 70
     0
  0
APPID
  2
ACAECLAYERSTANDARD
 70
     0
  0
APPID
  2
ACCMTRANSPARENCY
 70
     0
  0
APPID
  2
ACAD_DSTYLE_DIMJAG
 70
     0
  0
APPID
  2
ACAD_DSTYLE_DIMTALN
 70
     0
  0
APPID
  2
ACDBATTR
 70
     0
  0
APPID
  2
ACADANNOTATIVE
 70
     0
  0
APPID
  2
DCO15
 70
     0
  0
ENDTAB
  0
TABLE
  2
DIMSTYLE
 70
     1
  0
DIMSTYLE
  2
STANDARD
 70
     0
  3

  4

  5

  6

  7

 40
1.0
 41
0.1875
 42
0.0625
 43
0.38
 44
0.125
 45
0.0
 46
0.0
 47
0.01
 48
0.01
140
0.15625
141
0.09
142
0.0
143
25.3999999999999986
144
1.0
145
0.0
146
1.0
147
0.09
 71
     1
 72
     0
 73
     1
 74
     1
 75
     0
 76
     0
 77
     0
 78
     4
170
     0
171
     2
172
     0
173
     0
174
     0
175
     0
176
     0
177
     0
178
     0
  0
ENDTAB
  0
ENDSEC
  0
SECTION
  2
BLOCKS
  0
BLOCK
  8
0
  2
$MODEL_SPACE
 70
     0
 10
0.0
 20
0.0
 30
0.0
  3
$MODEL_SPACE
  1

  0
ENDBLK
  5
21
  8
0
  0
BLOCK
 67
     1
  8
0
  2
$PAPER_SPACE
 70
     0
 10
0.0
 20
0.0
 30
0.0
  3
$PAPER_SPACE
  1

  0
ENDBLK
  5
1D
 67
     1
  8
0
  0
BLOCK
  8
0
  2
_FILLED
 70
     0
 10
0.0
 20
0.0
 30
0.0
  3
_FILLED
  1

  0
SOLID
  5
26C2A
  8
0
  6
BYBLOCK
 62
     0
 10
0.0
 20
0.0
 30
0.0
 11
-1.0
 21
0.1666666667
 31
0.0
 12
-1.0
 22
-0.1666666667
 32
0.0
 13
-1.0
 23
-0.1666666667
 33
0.0
  0
ENDBLK
  5
26C2B
  8
0
  6
BYBLOCK
 62
     0
  0
ENDSEC
  0
SECTION
  2
ENTITIES
  0
ATTDEF
  5
26A5B
  8
DEFPOINTS
 10
6678.3302750719112737
 20
298.8384029095868186
 30
0.0
 40
0.001
  1
K-30097T-4
  3

  2
MODELNUMBER
 70
     0
1001
ACDBATTR
1070
     0
1070
     1
  0
ATTDEF
  5
26A5C
  8
DEFPOINTS
 10
6678.3301492622540536
 20
298.8367360692075749
 30
0.0
 40
0.001
  1
FORE TRI
  3

  2
TRADENAME
 70
     0
1001
ACDBATTR
1070
     0
1070
     1
  0
ATTDEF
  5
26A5D
  8
DEFPOINTS
 10
6678.3302750719112737
 20
298.8350695762533746
 30
0.0
 40
0.001
  1
BATHROOM SINK FAUCET
  3

  2
PRODUCT
 70
     0
1001
ACDBATTR
1070
     0
1070
     1
  0
LINE
  5
31BB8
  8
0
 10
6678.1513085653195958
 20
300.1137173645797134
 30
0.0
 11
6678.3284589590193718
 21
300.1137173645797134
 31
0.0
  0
LINE
  5
31BB9
  8
0
 10
6678.3284589590193718
 20
300.1137173645797134
 30
0.0
 11
6678.3284589590193718
 21
297.5546622464797224
 31
0.0
  0
LINE
  5
31BBA
  8
0
 10
6678.1316085653197661
 20
300.0940173645797131
 30
0.0
 11
6678.1316085653197661
 21
297.5743622464797227
 31
0.0
  0
LINE
  5
31BBB
  8
0
 10
6677.4139894871514116
 20
299.6766889722381961
 30
0.0
 11
6678.1316085653197661
 21
299.6829515390796246
 31
0.0
  0
LINE
  5
31BBC
  8
0
 10
6677.3827643730182899
 20
299.6451901716616817
 30
0.0
 11
6677.3827643730182899
 21
298.0231894393975267
 31
0.0
  0
ARC
  5
31BBD
  8
0
 10
6677.4142643730192503
 20
299.6451901716616817
 30
0.0
 40
0.0315
 50
90.5000000017894308
 51
179.9999999999967031
  0
ARC
  5
31BBE
  8
0
 10
6678.1513085653195958
 20
300.0940173645797131
 30
0.0
 40
0.0197
 50
90.0
 51
180.0
  0
ARC
  5
31BBF
  8
0
 10
6677.4303153974196903
 20
298.8341898054796957
 30
0.0
 40
0.724409448799951
 50
94.6383871564003272
 51
127.990216688454197
  0
ARC
  5
31BC0
  8
0
 10
6677.3707643730185737
 20
299.5681874565486851
 30
0.0
 40
0.012
 50
274.638387156400313
 51
359.9999999999902229
  0
LINE
  5
31BC1
  8
0
 10
6678.1513085653195958
 20
297.5546622464797224
 30
0.0
 11
6678.3284589590193718
 21
297.5546622464797224
 31
0.0
  0
LINE
  5
31BC2
  8
0
 10
6677.4139894871514116
 20
297.9916906388210123
 30
0.0
 11
6678.1316085653197661
 21
297.9854280719795838
 31
0.0
  0
ARC
  5
31BC3
  8
0
 10
6677.4142643730192503
 20
298.0231894393975267
 30
0.0
 40
0.0315
 50
180.0000000000032117
 51
269.499999998210626
  0
ARC
  5
31BC4
  8
0
 10
6678.1513085653195958
 20
297.5743622464797227
 30
0.0
 40
0.0197
 50
180.0
 51
270.0
  0
ARC
  5
31BC5
  8
0
 10
6677.4303153974196903
 20
298.8341898055796264
 30
0.0
 40
0.724409448799951
 50
255.242021659365605
 51
265.361612843599687
  0
ARC
  5
31BC6
  8
0
 10
6677.3707643730185737
 20
298.1001921545105802
 30
0.0
 40
0.012
 50
0.0000000000097707
 51
85.361612843599687
  0
LINE
  5
31BC7
  8
0
 10
6676.3668020491541029
 20
299.58155902768749
 30
0.0
 11
6676.8886606640162427
 21
299.6001007163948202
 31
0.0
  0
LINE
  5
31BC8
  8
0
 10
6676.3489589415039518
 20
299.5630706937322998
 30
0.0
 11
6676.3489589415039518
 21
295.1159140203956781
 31
0.0
  0
ARC
  5
31BC9
  8
0
 10
6676.3674589415049923
 20
299.5630706937322998
 30
0.0
 40
0.0185
 50
92.0348687919738353
 51
179.9999999999934914
  0
LINE
  5
31BCA
  8
0
 10
6676.8990722446269501
 20
299.5936441317513186
 30
0.0
 11
6677.1280966089589128
 21
299.087733636366977
 31
0.0
  0
ARC
  5
31BCB
  8
0
 10
6676.8890512486586886
 20
299.5891076529620136
 30
0.0
 40
0.011
 50
24.356138958077711
 51
92.0348687919738353
  0
LINE
  5
31BCC
  8
0
 10
6677.2457817936201536
 20
298.0479457118295841
 30
0.0
 11
6677.2457817936201536
 21
298.5424076451791962
 31
0.0
  0
LINE
  5
31BCD
  8
0
 10
6677.2347817936188221
 20
298.0369457118296168
 30
0.0
 11
6676.9744655850181516
 21
298.0369457118296168
 31
0.0
  0
ARC
  5
31BCE
  8
0
 10
6677.2347817936188221
 20
298.0479457118295841
 30
0.0
 40
0.011
 50
270.0
 51
0.0
  0
ARC
  5
31BCF
  8
0
 10
6675.9234817936194304
 20
298.5424076451791962
 30
0.0
 40
1.3223
 50
0.0
 51
24.3561389580747409
  0
LINE
  5
31BD0
  8
0
 10
6676.4780655850190669
 20
298.328914186529687
 30
0.0
 11
6676.4780655850190669
 21
295.1035849843626124
 31
0.0
  0
ARC
  5
31BD1
  8
0
 10
6676.9744655850181516
 20
297.5405457118296226
 30
0.0
 40
0.4964000000000001
 50
90.0
 51
180.0
  0
LINE
  5
31BD2
  8
0
 10
6676.3637734537969664
 20
295.0990550867556976
 30
0.0
 11
6676.4588800973106117
 21
295.0867260507225751
 31
0.0
  0
ARC
  5
31BD3
  8
0
 10
6676.3659589415037772
 20
295.1159140203956781
 30
0.0
 40
0.017
 50
180.0
 51
262.6137215988508729
  0
ARC
  5
31BD4
  8
0
 10
6676.4610655850192416
 20
295.1035849843626124
 30
0.0
 40
0.017
 50
262.6137215988508729
 51
0.0
  0
LINE
  5
31BD5
  8
0
 10
6676.3489589415039518
 20
299.2869457109795803
 30
0.0
 11
6671.1816620120125663
 21
299.2869457109795803
 31
0.0
  0
LINE
  5
31BD6
  8
0
 10
6676.3489589415039518
 20
298.4886312762067746
 30
0.0
 11
6673.3313114376142039
 21
298.6812180296612951
 31
0.0
  0
ARC
  5
31BD7
  8
0
 10
6674.4146132603709702
 20
300.2221489389519888
 30
0.0
 40
3.39046900427173
 50
196.4520779945179072
 51
201.5445913035150909
  0
ARC
  5
31BD8
  8
0
 10
6671.1816620120125663
 20
299.2674457109795867
 30
0.0
 40
0.0195
 50
90.0
 51
196.4520779945115976
  0
ARC
  5
31BD9
  8
0
 10
6672.3967347606376279
 20
299.4109257704018887
 30
0.0
 40
1.2157492000641901
 50
200.9069943772070985
 51
212.3320631596650117
  0
ARC
  5
31BDA
  8
0
 10
6672.123151089223029
 20
299.2719921340395217
 30
0.0
 40
0.9107354573119026
 50
214.1521315807443102
 51
217.9031231536374946
  0
LINE
  5
31BDB
  8
0
 10
6671.4148030074838971
 20
298.7055629762007243
 30
0.0
 11
6672.2976469741279288
 21
298.4524121324794237
 31
0.0
  0
ARC
  5
31BDC
  8
0
 10
6671.4203157427282349
 20
298.7247882135241071
 30
0.0
 40
0.02
 50
217.9031231536631878
 51
254.0000353848091095
  0
ARC
  5
31BDD
  8
0
 10
6672.9181812176848325
 20
297.4831069282581097
 30
0.0
 40
1.1442353239567551
 50
114.9832751782686984
 51
121.8881134051504063
  0
ARC
  5
31BDE
  8
0
 10
6674.6701103693230834
 20
293.8558491436295981
 30
0.0
 40
5.1723317210389617
 50
113.5119862904666945
 51
115.603811991086701
  0
ARC
  5
31BDF
  8
0
 10
6673.0997484111958329
 20
297.4928600690433882
 30
0.0
 40
1.2108457189704369
 50
102.5525170144403972
 51
114.0309492172290931
  0
ARC
  5
31BE0
  8
0
 10
6673.023945907718371
 20
297.7902840775568052
 30
0.0
 40
0.9041048336335826
 50
92.7559380650726979
 51
101.9599602011150949
  0
ARC
  5
31BE1
  8
0
 10
6673.0381934028919204
 20
297.4749979025584139
 30
0.0
 40
1.2197117478160251
 50
86.6928804421338555
 51
92.7123236885563244
  0
ARC
  5
31BE2
  8
0
 10
6674.5470388322646613
 20
324.4818623841035787
 30
0.0
 40
25.8292710350586603
 50
266.8074342324595136
 51
267.3022160235702813
  0
ARC
  5
31BE3
  8
0
 10
6672.3031597093713572
 20
298.4716373698026928
 30
0.0
 40
0.02
 50
254.0000353848618886
 51
301.8881134051468962
  0
ARC
  5
31BE4
  8
0
 10
6672.0374053722189274
 20
299.0807268382646953
 30
0.0
 40
0.5789936896019638
 50
230.8174377273498976
 51
239.1413692612117075
  0
ARC
  5
31BE5
  8
0
 10
6671.9709870909600795
 20
298.981211708110493
 30
0.0
 40
0.4595378138507094
 50
239.8860309322078876
 51
246.4217725430644066
  0
ARC
  5
31BE6
  8
0
 10
6671.8604326637059785
 20
298.7204832327245185
 30
0.0
 40
0.1763794044465558
 50
245.4579716718938869
 51
257.9457807281398232
  0
ARC
  5
31BE7
  8
0
 10
6671.8605920806257927
 20
298.717522701221128
 30
0.0
 40
0.1735191706457047
 50
257.6901497268971184
 51
268.8864672420193074
  0
ARC
  5
31BE8
  8
0
 10
6671.8610168588920715
 20
298.7416344396614818
 30
0.0
 40
0.1976346154211949
 50
268.899188266743522
 51
286.1466049562471881
  0
LINE
  5
31BE9
  8
0
 10
6671.918710931014175
 20
298.5545355280441981
 30
0.0
 11
6671.920442313442436
 21
298.5605735763086841
 31
0.0
  0
ARC
  5
31BEA
  8
0
 10
6671.9148658842223085
 20
298.5556380774381182
 30
0.0
 40
0.004
 50
286.1466049576009141
 51
344.0000004386084242
  0
ARC
  5
31BEB
  8
0
 10
6672.0089015197727349
 20
298.6340789145148733
 30
0.0
 40
0.1316478634451661
 50
210.9861274831376932
 51
217.6272526852179965
  0
ARC
  5
31BEC
  8
0
 10
6671.9251950803
 20
298.6411948646299948
 30
0.0
 40
0.0898728594541442
 50
256.776401929552776
 51
264.1137458045682251
  0
LINE
  5
31BED
  8
0
 10
6671.8960408626307981
 20
298.5663025763191172
 30
0.0
 11
6671.8981320359271194
 21
298.5669709305295783
 31
0.0
  0
ARC
  5
31BEE
  8
0
 10
6671.9573643757330501
 20
298.6394650870786904
 30
0.0
 40
0.1318416361111477
 50
211.6643486314351037
 51
218.234854653445808
  0
ARC
  5
31BEF
  8
0
 10
6671.7973179954760781
 20
298.3589225134139724
 30
0.0
 40
0.206811415220952
 50
71.3126246699445119
 51
74.1491247544188639
  0
ARC
  5
31BF0
  8
0
 10
6671.8371764200883263
 20
298.7658026850870101
 30
0.0
 40
0.2126176385080753
 50
277.1339415019173202
 51
286.3450531862089861
  0
ARC
  5
31BF1
  8
0
 10
6672.0153164008215754
 20
298.6394849453695883
 30
0.0
 40
0.1415428665127095
 50
211.1215531289927014
 51
213.2983265003331041
  0
ARC
  5
31BF2
  8
0
 10
6671.997187528431823
 20
298.9800216006141227
 30
0.0
 40
0.4263335297047096
 50
251.9865236871289085
 51
256.0134764727505967
  0
ARC
  5
31BF3
  8
0
 10
6671.8111801925069813
 20
298.778018735994408
 30
0.0
 40
0.2105214758272095
 50
279.2855749586851744
 51
284.9100516835734993
  0
LINE
  5
31BF4
  8
0
 10
6671.8920552703439171
 20
298.5668539749947854
 30
0.0
 11
6671.894215972710299
 21
298.5635081030522997
 31
0.0
  0
ARC
  5
31BF5
  8
0
 10
6671.8982212209648424
 20
298.5668567114540792
 30
0.0
 40
0.0052206504716461
 50
219.8974835107765102
 51
256.6024274154844989
  0
LINE
  5
31BF6
  8
0
 10
6671.8671361137176063
 20
298.5740081672381052
 30
0.0
 11
6671.8629859658922214
 21
298.5595348820691015
 31
0.0
  0
LINE
  5
31BF7
  8
0
 10
6671.8611267922724437
 20
298.5735080297798163
 30
0.0
 11
6671.8576415799961978
 21
298.561353650150977
 31
0.0
  0
ARC
  5
31BF8
  8
0
 10
6671.8691285463519307
 20
298.5579226464600993
 30
0.0
 40
0.0063506376345095
 50
165.2933694913899956
 51
209.1319092567827056
  0
ARC
  5
31BF9
  8
0
 10
6671.8526733423886981
 20
298.5629708008639227
 30
0.0
 40
0.0052248025119146
 50
282.5127821725764079
 51
341.970043736306593
  0
LINE
  5
31BFA
  8
0
 10
6671.8573758647353316
 20
298.5606937754191108
 30
0.0
 11
6671.8628676262733279
 21
298.5589863560650201
 31
0.0
  0
ARC
  5
31BFB
  8
0
 10
6671.9688742121834366
 20
298.6659696132367117
 30
0.0
 40
0.1742957917861466
 50
205.1371533496713084
 51
208.6080872611599091
  0
ARC
  5
31BFC
  8
0
 10
6671.9941594384763448
 20
298.9807758136440725
 30
0.0
 40
0.4363531960002275
 50
245.8818909428825066
 51
249.838393482537299
  0
ARC
  5
31BFD
  8
0
 10
6671.8096758871042766
 20
298.7790127338209913
 30
0.0
 40
0.2106285911981739
 50
279.3131319998963136
 51
284.9361536304073184
  0
ARC
  5
31BFE
  8
0
 10
6672.0119042619671745
 20
298.6547326746924114
 30
0.0
 40
0.1678216483034437
 50
207.5947259216540886
 51
208.1720764935060117
  0
ARC
  5
31BFF
  8
0
 10
6671.8655728767371329
 20
298.5805381586051794
 30
0.0
 40
0.0052883701997302
 50
214.2710079888823884
 51
252.2862920418396868
  0
LINE
  5
31C00
  8
0
 10
6671.8451749260193537
 20
298.5821561020446211
 30
0.0
 11
6671.8433496566758549
 21
298.5757906312438763
 31
0.0
  0
LINE
  5
31C01
  8
0
 10
6671.8209535378218789
 20
298.5891014571581081
 30
0.0
 11
6671.8200777470601679
 21
298.5860472116107758
 31
0.0
  0
ARC
  5
31C02
  8
0
 10
6671.814874763206717
 20
298.5879750021778136
 30
0.0
 40
0.0055486410518569
 50
280.1990516760536138
 51
339.669508563229499
  0
ARC
  5
31C03
  8
0
 10
6671.8500029878096029
 20
298.5740496159655208
 30
0.0
 40
0.0068773504626704
 50
165.3358877895892078
 51
204.8402541662555905
  0
ARC
  5
31C04
  8
0
 10
6671.8854243676742044
 20
298.6351951044582052
 30
0.0
 40
0.1045921376250597
 50
211.3779146686740091
 51
219.6767655550756047
  0
ARC
  5
31C05
  8
0
 10
6671.9730751780525679
 20
298.9445291164507239
 30
0.0
 40
0.4119885997589272
 50
245.9116473252155117
 51
250.0857309785907034
  0
ARC
  5
31C06
  8
0
 10
6671.8329176198803907
 20
298.7451598876875209
 30
0.0
 40
0.1879839024899602
 50
269.9477565784010835
 51
275.820513649781617
  0
ARC
  5
31C07
  8
0
 10
6671.9559510263952689
 20
298.640067497004793
 30
0.0
 40
0.1323666392051542
 50
211.6931867457986982
 51
218.2362043059879113
  0
ARC
  5
31C08
  8
0
 10
6671.9939546495543254
 20
298.9809234176451014
 30
0.0
 40
0.4371678519496184
 50
245.8953093611384872
 51
249.84501291522119
  0
ARC
  5
31C09
  8
0
 10
6671.7949143158029983
 20
298.7649133889195241
 30
0.0
 40
0.1841813828415134
 50
270.3777671950095964
 51
276.3900493605215729
  0
LINE
  5
31C0A
  8
0
 10
6671.8118294929417971
 20
298.5815103939390269
 30
0.0
 11
6671.8090480885757643
 21
298.5718104845437892
 31
0.0
  0
LINE
  5
31C0B
  8
0
 10
6671.8357212856826663
 20
298.573396813192403
 30
0.0
 11
6671.8323682349755472
 21
298.5616758945437823
 31
0.0
  0
ARC
  5
31C0C
  8
0
 10
6671.8379096259322978
 20
298.559884259290186
 30
0.0
 40
0.0058305371800433
 50
161.8141257599340008
 51
207.6768848452975078
  0
ARC
  5
31C0D
  8
0
 10
6671.8042567920538204
 20
298.573431527885873
 30
0.0
 40
0.0050580929094109
 50
277.5814907153982176
 51
341.3077366289999759
  0
ARC
  5
31C0E
  8
0
 10
6671.8545952053727888
 20
298.6321435845791257
 30
0.0
 40
0.0924406498171247
 50
222.1848601361429019
 51
230.3846847603408889
  0
ARC
  5
31C0F
  8
0
 10
6671.9812029138383878
 20
298.9843476823139099
 30
0.0
 40
0.4622871138002777
 50
246.335816116664887
 51
247.6139499305917013
  0
ARC
  5
31C10
  8
0
 10
6671.8399301327235662
 20
298.7278189117175771
 30
0.0
 40
0.174423987324966
 50
258.495800855819823
 51
268.5740670353247879
  0
ARC
  5
31C11
  8
0
 10
6671.9074109246357693
 20
298.6256075857054952
 30
0.0
 40
0.1018094573701024
 50
222.5395112755390983
 51
225.1342554842210859
  0
ARC
  5
31C12
  8
0
 10
6671.9914299080955971
 20
298.9920658241799742
 30
0.0
 40
0.4634331190664155
 50
246.2032479255908015
 51
249.9302696905367043
  0
ARC
  5
31C13
  8
0
 10
6671.8142408251533197
 20
298.740050477262912
 30
0.0
 40
0.1722969757602085
 50
260.5993548115221756
 51
266.7382957173874161
  0
ARC
  5
31C14
  8
0
 10
6671.9235680246401898
 20
298.6810279052824058
 30
0.0
 40
0.1774238436758999
 50
205.1067514242496941
 51
208.5683525056502106
  0
ARC
  5
31C15
  8
0
 10
6671.9910828747251799
 20
298.981994399770997
 30
0.0
 40
0.4457915269828786
 50
239.9345167970190005
 51
243.8731138536346918
  0
ARC
  5
31C16
  8
0
 10
6671.7935013656333467
 20
298.7656080147428952
 30
0.0
 40
0.1838590286833639
 50
270.396556927002905
 51
276.4203134715672832
  0
ARC
  5
31C17
  8
0
 10
6671.9686300469529669
 20
298.6671150740729104
 30
0.0
 40
0.1760213230680144
 50
205.0933530883168032
 51
208.5825810179223083
  0
ARC
  5
31C18
  8
0
 10
6671.7754894247236734
 20
298.7620623458528257
 30
0.0
 40
0.1666008548069949
 50
260.828976822526613
 51
267.1962953886156242
  0
ARC
  5
31C19
  8
0
 10
6671.8607954590497684
 20
298.6665955650312867
 30
0.0
 40
0.1314309323792257
 50
211.6698696747963027
 51
218.2595205603369095
  0
ARC
  5
31C1A
  8
0
 10
6671.9845235494149165
 20
298.9836028705560125
 30
0.0
 40
0.4584905933073136
 50
240.3336062509798126
 51
244.158244837682787
  0
ARC
  5
31C1B
  8
0
 10
6671.8128011437138412
 20
298.7407703756967976
 30
0.0
 40
0.1721234714762396
 50
260.5947701901826008
 51
266.751238961344086
  0
ARC
  5
31C1C
  8
0
 10
6671.9058674705929661
 20
298.6505673067413227
 30
0.0
 40
0.1312928710149076
 50
211.8727192515524109
 51
218.4509732183614119
  0
ARC
  5
31C1D
  8
0
 10
6671.9908193980863871
 20
298.982008229895996
 30
0.0
 40
0.4463263105623516
 50
239.9531492777184951
 51
243.886783182474602
  0
ARC
  5
31C1E
  8
0
 10
6671.7939259246086294
 20
298.7458643961497842
 30
0.0
 40
0.1650539603427101
 50
250.83547252852631
 51
257.1645281963441789
  0
ARC
  5
31C1F
  8
0
 10
6671.8110178936449302
 20
298.654304200241711
 30
0.0
 40
0.0960247924897227
 50
222.0749654825787047
 51
230.0085053351604074
  0
ARC
  5
31C20
  8
0
 10
6671.9780225608938053
 20
298.9853645879206283
 30
0.0
 40
0.4647968081846054
 50
240.5226027500333998
 51
244.2931278032390878
  0
ARC
  5
31C21
  8
0
 10
6671.8318382738898435
 20
298.7268197654412916
 30
0.0
 40
0.1695643259007287
 50
250.9197298636813969
 51
257.080269799335781
  0
ARC
  5
31C22
  8
0
 10
6671.85545942567569
 20
298.6356726796918224
 30
0.0
 40
0.0963369351437088
 50
222.4181957359708122
 51
230.3027919268124037
  0
ARC
  5
31C23
  8
0
 10
6671.9842853844747879
 20
298.9836657694291944
 30
0.0
 40
0.4588326932183129
 50
240.3439918759654006
 51
244.1656543389131002
  0
ARC
  5
31C24
  8
0
 10
6671.869980413027406
 20
298.695866621871005
 30
0.0
 40
0.1684286771577199
 50
207.5958938156030911
 51
208.1711214015014946
  0
ARC
  5
31C25
  8
0
 10
6671.9880743068952142
 20
298.9832361138521151
 30
0.0
 40
0.4535031845501642
 50
233.9987066427374032
 51
237.9794504599285858
  0
ARC
  5
31C26
  8
0
 10
6671.7740927547447427
 20
298.7629203528331914
 30
0.0
 40
0.1663115555048429
 50
260.8396599861999903
 51
267.2183764860525912
  0
ARC
  5
31C27
  8
0
 10
6671.9215089791350692
 20
298.6814550973721225
 30
0.0
 40
0.1770366028002188
 50
205.1487254156234883
 51
208.564752906686607
  0
ARC
  5
31C28
  8
0
 10
6671.8166627137352407
 20
298.6889605498943752
 30
0.0
 40
0.1319248326577455
 50
211.0263520991356074
 51
217.650472297807795
  0
ARC
  5
31C29
  8
0
 10
6671.9815441015543911
 20
298.9849299961156817
 30
0.0
 40
0.4629620260363562
 50
234.4255226100067944
 51
238.3165532046147064
  0
ARC
  5
31C2A
  8
0
 10
6671.7925087319463273
 20
298.7466639256696794
 30
0.0
 40
0.1648366578515437
 50
250.8312962418519021
 51
257.1687038268159995
  0
ARC
  5
31C2B
  8
0
 10
6671.8594637517271622
 20
298.6675406789689191
 30
0.0
 40
0.1318453941995023
 50
211.6644414832655912
 51
218.2347598819727068
  0
ARC
  5
31C2C
  8
0
 10
6671.9878353031253937
 20
298.9832968618501923
 30
0.0
 40
0.4539643185645083
 50
234.0199172593281958
 51
237.9961877381080058
  0
ARC
  5
31C2D
  8
0
 10
6671.7558026233600685
 20
298.7699152107434202
 30
0.0
 40
0.1578316071814227
 50
250.6905061894863138
 51
257.3094939273785258
  0
ARC
  5
31C2E
  8
0
 10
6671.8137124011345804
 20
298.740358460642085
 30
0.0
 40
0.1719768141210951
 50
240.5727422154515978
 51
247.4078569547237123
  0
ARC
  5
31C2F
  8
0
 10
6671.8093446558868891
 20
298.655091491860901
 30
0.0
 40
0.0959743383577129
 50
222.0537101912084097
 51
229.9927896468381903
  0
ARC
  5
31C30
  8
0
 10
6671.9813090493125856
 20
298.9849985871205149
 30
0.0
 40
0.4631929658896221
 50
234.4354918686383087
 51
238.3243896476643897
  0
ARC
  5
31C31
  8
0
 10
6671.7764765015836019
 20
298.7616184385676092
 30
0.0
 40
0.166444087281498
 50
240.8006642065587073
 51
247.173974948300696
  0
ARC
  5
31C32
  8
0
 10
6671.7471736096767927
 20
298.659645553634391
 30
0.0
 40
0.0676015180888348
 50
219.8534005219507037
 51
233.8863681933133023
  0
ARC
  5
31C33
  8
0
 10
6671.9783411118796721
 20
298.9862849429040921
 30
0.0
 40
0.4659290937650246
 50
229.8588520292520059
 51
232.3098292145679977
  0
ARC
  5
31C34
  8
0
 10
6671.7725463468223097
 20
298.6881893794866869
 30
0.0
 40
0.1060070855495719
 50
221.7639112899786937
 51
229.1424063873924126
  0
ARC
  5
31C35
  8
0
 10
6671.7990414907071681
 20
298.7592473188984172
 30
0.0
 40
0.1790473037276398
 50
237.1709108045068888
 51
237.6361331397069989
  0
ARC
  5
31C36
  8
0
 10
6671.9069377101441205
 20
298.8987096310295897
 30
0.0
 40
0.3527336890472741
 50
229.6339210725869862
 51
232.8435661027424999
  0
ARC
  5
31C37
  8
0
 10
6671.7672671222708232
 20
298.7452968690407147
 30
0.0
 40
0.1472914733731574
 50
240.1201022131253922
 51
247.3677586416496013
  0
ARC
  5
31C38
  8
0
 10
6671.8155342700520123
 20
298.6901870483656012
 30
0.0
 40
0.132472194496424
 50
211.0068138769985921
 51
217.6065676584543098
  0
ARC
  5
31C39
  8
0
 10
6671.9848635578127869
 20
298.9845387132536985
 30
0.0
 40
0.4598810065531258
 50
231.6383912455592906
 51
232.0409397155852105
  0
LINE
  5
31C3A
  8
0
 10
6671.719297507194824
 20
298.6182507869319807
 30
0.0
 11
6671.7198485390226779
 21
298.6172140568613145
 31
0.0
  0
LINE
  5
31C3B
  8
0
 10
6671.7198485390226779
 20
298.6172140568613145
 30
0.0
 11
6671.7023314052748901
 21
298.6222370141438773
 31
0.0
  0
LINE
  5
31C3C
  8
0
 10
6671.7023314052748901
 20
298.6222370141438773
 30
0.0
 11
6671.7005595321179499
 21
298.6236238023000169
 31
0.0
  0
LINE
  5
31C3D
  8
0
 10
6671.8010857363451578
 20
298.5682564392565155
 30
0.0
 11
6671.7997944292537795
 21
298.5638281173937116
 31
0.0
  0
LINE
  5
31C3E
  8
0
 10
6671.806605989295349
 20
298.5670830305446088
 30
0.0
 11
6671.8045953062301123
 21
298.5600722170245263
 31
0.0
  0
ARC
  5
31C3F
  8
0
 10
6671.8105540188789746
 20
298.5594669756583244
 30
0.0
 40
0.0059893717153568
 50
174.200215019453907
 51
205.3876866346618897
  0
ARC
  5
31C40
  8
0
 10
6671.7957250435756578
 20
298.5652390088571906
 30
0.0
 40
0.0043070308252713
 50
269.0319997742374198
 51
340.8781231777618927
  0
LINE
  5
31C41
  8
0
 10
6671.7873720828310979
 20
298.5847471502319763
 30
0.0
 11
6671.7843245187932553
 21
298.5741416731427194
 31
0.0
  0
ARC
  5
31C42
  8
0
 10
6671.7899841420621669
 20
298.5731528199034983
 30
0.0
 40
0.005745360412064
 50
170.0892834016055133
 51
202.4293005995253907
  0
LINE
  5
31C43
  8
0
 10
6671.7643449676406817
 20
298.5958346529171195
 30
0.0
 11
6671.7622319577749295
 21
298.5884657116438916
 31
0.0
  0
ARC
  5
31C44
  8
0
 10
6671.7576713550088243
 20
298.5900316599750113
 30
0.0
 40
0.0048219593297201
 50
269.081337896869627
 51
341.0493564311382215
  0
LINE
  5
31C45
  8
0
 10
6671.7732813357661144
 20
298.6027712092648017
 30
0.0
 11
6671.7723719263758539
 21
298.599599721743914
 31
0.0
  0
ARC
  5
31C46
  8
0
 10
6671.7674127571299323
 20
298.6014734764705736
 30
0.0
 40
0.0053013503452663
 50
273.6042284384715799
 51
339.3016096562942039
  0
LINE
  5
31C47
  8
0
 10
6671.7975027239399424
 20
298.5958258541573969
 30
0.0
 11
6671.7945731000763772
 21
298.5856090411926971
 31
0.0
  0
ARC
  5
31C48
  8
0
 10
6671.8009974666865673
 20
298.5840105395197952
 30
0.0
 40
0.0066202487828806
 50
166.0274836926687101
 51
199.9345421208950881
  0
LINE
  5
31C49
  8
0
 10
6671.7544643185528912
 20
298.585597145994825
 30
0.0
 11
6671.7539082389448595
 21
298.5837100515431075
 31
0.0
  0
ARC
  5
31C4A
  8
0
 10
6671.7498753730387762
 20
298.584902392784727
 30
0.0
 40
0.0042054351786737
 50
262.2087606634410122
 51
343.5293668322623262
  0
LINE
  5
31C4B
  8
0
 10
6671.7773865801218562
 20
298.574129049313683
 30
0.0
 11
6671.7758945582909291
 21
298.5689257504566854
 31
0.0
  0
ARC
  5
31C4C
  8
0
 10
6671.7805804023091696
 20
298.5687158817646036
 30
0.0
 40
0.0046905414419722
 50
177.43556129962451
 51
207.2110082173902867
  0
LINE
  5
31C4D
  8
0
 10
6671.7498305219260146
 20
298.609495606251528
 30
0.0
 11
6671.7474182947871668
 21
298.6010831704115276
 31
0.0
  0
ARC
  5
31C4E
  8
0
 10
6671.7535998825269417
 20
298.6004182979273764
 30
0.0
 40
0.0062172407389117
 50
173.8610431543091863
 51
195.7583158549088864
  0
LINE
  5
31C4F
  8
0
 10
6671.7408489515109977
 20
298.6024014107806011
 30
0.0
 11
6671.7382391107730655
 21
298.593299814403224
 31
0.0
  0
ARC
  5
31C50
  8
0
 10
6671.7448777381323453
 20
298.5925422507432927
 30
0.0
 40
0.0066817120494179
 50
173.4898816601825899
 51
193.6406297717703922
  0
LINE
  5
31C51
  8
0
 10
6671.7186818618292818
 20
298.6165109562758175
 30
0.0
 11
6671.7172309793768363
 21
298.6114511279437806
 31
0.0
  0
ARC
  5
31C52
  8
0
 10
6671.7128243510132961
 20
298.6130085264138074
 30
0.0
 40
0.0046737418907368
 50
262.4589165130219044
 51
340.5354816378265923
  0
LINE
  5
31C53
  8
0
 10
6671.6957501289925858
 20
298.6250028732401915
 30
0.0
 11
6671.6937797315249554
 21
298.6185884060844842
 31
0.0
  0
ARC
  5
31C54
  8
0
 10
6671.6986930773682616
 20
298.6186150857404868
 30
0.0
 40
0.0049134182785329
 50
180.3111152170496894
 51
192.1062614611016102
  0
LINE
  5
31C55
  8
0
 10
6671.7095969851379778
 20
298.6092020205838935
 30
0.0
 11
6671.7093098048208049
 21
298.608744112476586
 31
0.0
  0
ARC
  5
31C56
  8
0
 10
6671.7056137538620533
 20
298.6109919163449149
 30
0.0
 40
0.0043259004748739
 50
263.8841546747167968
 51
328.6935530525400964
  0
LINE
  5
31C57
  8
0
 10
6671.7317329570878428
 20
298.5947941562907886
 30
0.0
 11
6671.7307133676831654
 21
298.5918120188787839
 31
0.0
  0
ARC
  5
31C58
  8
0
 10
6671.7357357276359835
 20
298.5907951519042172
 30
0.0
 40
0.0051242675509241
 50
168.5541671838143998
 51
191.9935580384438083
  0
LINE
  5
31C59
  8
0
 10
6671.9098784291372795
 20
298.5636027143282831
 30
0.0
 11
6671.9080531483987215
 21
298.5572372034948785
 31
0.0
  0
ARC
  5
31C5A
  8
0
 10
6671.9028641492486713
 20
298.5588379144047053
 30
0.0
 40
0.0054302841702588
 50
289.0493544369435881
 51
342.8559668774341844
  0
LINE
  5
31C5B
  8
0
 10
6671.9895442940842258
 20
298.5407589483980928
 30
0.0
 11
6671.9878706125336976
 21
298.5349221270186035
 31
0.0
  0
ARC
  5
31C5C
  8
0
 10
6671.9297731733759065
 20
298.6990648401438193
 30
0.0
 40
0.1749262518999346
 50
242.1033785073352078
 51
258.5615277228749278
  0
ARC
  5
31C5D
  8
0
 10
6671.9302458447064055
 20
298.7014009318983199
 30
0.0
 40
0.1773096828034881
 50
258.5615277228749278
 51
274.5643670329520205
  0
ARC
  5
31C5E
  8
0
 10
6671.927341004077789
 20
298.7377877691919821
 30
0.0
 40
0.2138122858246128
 50
274.5643670329520205
 51
285.5760455072332888
  0
ARC
  5
31C5F
  8
0
 10
6671.9835449348929615
 20
298.5361624950866144
 30
0.0
 40
0.0045
 50
285.5760455071830961
 51
344.0000004391492894
  0
ARC
  5
31C60
  8
0
 10
6671.962938953606681
 20
298.8739423675913827
 30
0.0
 40
0.3527527983918452
 50
261.0491311844198776
 51
267.5495264534247895
  0
ARC
  5
31C61
  8
0
 10
6671.9676372294889006
 20
298.7428898795631085
 30
0.0
 40
0.2222596916185653
 50
264.8940775921769273
 51
268.5410148318886172
  0
ARC
  5
31C62
  8
0
 10
6671.9679867113500222
 20
299.3304189212943243
 30
0.0
 40
0.8097389712248578
 50
269.574843798255813
 51
273.3898721567445023
  0
ARC
  5
31C63
  8
0
 10
6671.9687734148001255
 20
299.0591326737139184
 30
0.0
 40
0.5390967806444916
 50
275.0114920516140273
 51
277.9795773093605931
  0
ARC
  5
31C64
  8
0
 10
6671.9537505739008338
 20
298.7076290917665915
 30
0.0
 40
0.1858402349157332
 50
276.4685756150972225
 51
287.0104190504858934
  0
ARC
  5
31C65
  8
0
 10
6671.9864193333451112
 20
299.0010354821582155
 30
0.0
 40
0.471615809566408
 50
272.6369809257020052
 51
273.9544359157707731
  0
ARC
  5
31C66
  8
0
 10
6672.0425732874400637
 20
298.5916625010830217
 30
0.0
 40
0.0655288111902995
 50
248.8628060416563983
 51
259.1371987306487767
  0
ARC
  5
31C67
  8
0
 10
6671.9760304376231943
 20
298.7308615109516268
 30
0.0
 40
0.2106442673054555
 50
279.287214895381112
 51
284.9084105063050743
  0
ARC
  5
31C68
  8
0
 10
6671.98599607770484
 20
298.8150264821866813
 30
0.0
 40
0.293034908797244
 50
268.5543831010992903
 51
274.7035408302385235
  0
ARC
  5
31C69
  8
0
 10
6671.9917877100606347
 20
298.5893782717615181
 30
0.0
 40
0.0685728291057439
 50
255.5591680795967022
 51
258.914841035626182
  0
ARC
  5
31C6A
  8
0
 10
6672.0195933775603407
 20
298.5934484447075192
 30
0.0
 40
0.0710885245128614
 50
240.2746647618683937
 51
243.465188364549789
  0
ARC
  5
31C6B
  8
0
 10
6671.9876730120822685
 20
298.9833376819440218
 30
0.0
 40
0.4534895457083892
 50
270.0204896629488189
 51
274.0013532356895212
  0
ARC
  5
31C6C
  8
0
 10
6671.9482901562760162
 20
298.7556961426416819
 30
0.0
 40
0.235699205485701
 50
287.5385565271200221
 51
288.0711437101417118
  0
LINE
  5
31C6D
  8
0
 10
6672.0087835243439258
 20
298.5299502300073868
 30
0.0
 11
6672.0080258018469976
 21
298.5273077378736275
 31
0.0
  0
ARC
  5
31C6E
  8
0
 10
6672.0130594333741101
 20
298.5270058991856104
 30
0.0
 40
0.0050426731944525
 50
176.5684021934856958
 51
233.0041625135106926
  0
ARC
  5
31C6F
  8
0
 10
6671.9780532845898051
 20
298.5249294421569743
 30
0.0
 40
0.0028973000576352
 50
280.9445819476853785
 51
336.0525776934978808
  0
ARC
  5
31C70
  8
0
 10
6672.018551724041572
 20
298.5952314796907103
 30
0.0
 40
0.0725470104746778
 50
264.565254777425082
 51
274.8941338310226001
  0
ARC
  5
31C71
  8
0
 10
6671.9775437602265811
 20
298.7310995773192985
 30
0.0
 40
0.2108704681669997
 50
279.3163594499615101
 51
284.9329256535129957
  0
ARC
  5
31C72
  8
0
 10
6671.9841394623208544
 20
298.9847390425557023
 30
0.0
 40
0.4598734578347703
 50
275.9590661668145799
 51
276.3616917575826051
  0
ARC
  5
31C73
  8
0
 10
6672.0445365159830544
 20
298.5918736914387068
 30
0.0
 40
0.0654011482752723
 50
248.8527487439970969
 51
259.1472501888165993
  0
ARC
  5
31C74
  8
0
 10
6671.9843803565991038
 20
298.9846500686276727
 30
0.0
 40
0.4595051420826171
 50
275.9762665878402004
 51
276.256088908504978
  0
LINE
  5
31C75
  8
0
 10
6672.0209419997154328
 20
298.5308768963781176
 30
0.0
 11
6672.0223925811660592
 21
298.5313398756014749
 31
0.0
  0
LINE
  5
31C76
  8
0
 10
6672.0332499881824333
 20
298.5282265714953951
 30
0.0
 11
6672.0322224224837555
 21
298.5276422871489217
 31
0.0
  0
ARC
  5
31C77
  8
0
 10
6672.0229507949043182
 20
298.5257143647202724
 30
0.0
 40
0.0030502656189401
 50
292.6228496154002983
 51
2.9496023092796522
  0
ARC
  5
31C78
  8
0
 10
6672.0166362444351762
 20
298.5953658997854063
 30
0.0
 40
0.0728824025372995
 50
264.5555555119727273
 51
274.6141081053656876
  0
ARC
  5
31C79
  8
0
 10
6671.9822978960346518
 20
298.9365096745765982
 30
0.0
 40
0.4146053013278258
 50
269.447636305877495
 51
273.7924817885206039
  0
ARC
  5
31C7A
  8
0
 10
6671.9592225624246566
 20
298.709225214654623
 30
0.0
 40
0.1882707198559211
 50
269.952233926064423
 51
275.8160364277060808
  0
ARC
  5
31C7B
  8
0
 10
6671.9767880204553876
 20
298.7033366059521882
 30
0.0
 40
0.1832410832349082
 50
264.4498837576799133
 51
265.3232896276356882
  0
LINE
  5
31C7D
  8
0
 10
6676.9744655850181516
 20
298.8253141865296243
 30
0.0
 11
6677.2151633251351086
 21
298.8253141865296243
 31
0.0
  0
ARC
  5
31C7E
  8
0
 10
6676.9744655850181516
 20
298.328914186529687
 30
0.0
 40
0.4964000000000001
 50
90.0
 51
180.0
  0
ENDSEC
  0
EOF
