  0
SECTION
  2
HEADER
  9
$ACADVER
  1
AC1009
  9
$INSBASE
 10
2937.0917243791918736
 20
125.5233260490268066
 30
0.0
  9
$EXTMIN
 10
2909.4618541224631372
 20
125.518898975551906
 30
-0.0015258207003583
  9
$EXTMAX
 10
2937.2217199946189794
 20
154.0427343086101075
 30
0.0000000349246037
  9
$LIMMIN
 10
0.0
 20
0.0
  9
$LIMMAX
 10
11.6929133858000007
 20
8.2677165353999982
  9
$ORTHOMODE
 70
     0
  9
$REGENMODE
 70
     1
  9
$FILLMODE
 70
     1
  9
$QTEXTMODE
 70
     0
  9
$MIRRTEXT
 70
     0
  9
$DRAGMODE
 70
     2
  9
$LTSCALE
 40
0.6431102362
  9
$OSMODE
 70
   575
  9
$ATTMODE
 70
     1
  9
$TEXTSIZE
 40
0.2
  9
$TRACEWID
 40
0.05
  9
$TEXTSTYLE
  7
STANDARD
  9
$CLAYER
  8
0
  9
$CELTYPE
  6
BYLAYER
  9
$CECOLOR
 62
   256
  9
$DIMSCALE
 40
1.0
  9
$DIMASZ
 40
0.1875
  9
$DIMEXO
 40
0.0625
  9
$DIMDLI
 40
0.4443307087
  9
$DIMRND
 40
0.0
  9
$DIMDLE
 40
0.0
  9
$DIMEXE
 40
0.125
  9
$DIMTP
 40
0.01
  9
$DIMTM
 40
0.01
  9
$DIMTXT
 40
2.0
  9
$DIMCEN
 40
0.1052362205
  9
$DIMTSZ
 40
0.0
  9
$DIMTOL
 70
     1
  9
$DIMLIM
 70
     0
  9
$DIMTIH
 70
     1
  9
$DIMTOH
 70
     1
  9
$DIMSE1
 70
     0
  9
$DIMSE2
 70
     0
  9
$DIMTAD
 70
     0
  9
$DIMZIN
 70
     0
  9
$DIMBLK
  1

  9
$DIMASO
 70
     1
  9
$DIMSHO
 70
     1
  9
$DIMPOST
  1
\X
  9
$DIMAPOST
  1

  9
$DIMALT
 70
     1
  9
$DIMALTD
 70
     2
  9
$DIMALTF
 40
25.3999999999999986
  9
$DIMLFAC
 40
1.0
  9
$DIMTOFL
 70
     0
  9
$DIMTVP
 40
0.0
  9
$DIMTIX
 70
     0
  9
$DIMSOXD
 70
     0
  9
$DIMSAH
 70
     0
  9
$DIMBLK1
  1

  9
$DIMBLK2
  1

  9
$DIMSTYLE
  2
STANDARD
  9
$DIMCLRD
 70
     0
  9
$DIMCLRE
 70
     0
  9
$DIMCLRT
 70
     0
  9
$DIMTFAC
 40
1.0
  9
$DIMGAP
 40
0.09
  9
$LUNITS
 70
     2
  9
$LUPREC
 70
     4
  9
$SKETCHINC
 40
0.1
  9
$FILLETRAD
 40
0.0
  9
$AUNITS
 70
     0
  9
$AUPREC
 70
     0
  9
$MENU
  1
.
  9
$ELEVATION
 40
0.0
  9
$PELEVATION
 40
0.0
  9
$THICKNESS
 40
0.0
  9
$LIMCHECK
 70
     0
  9
$BLIPMODE
 70
     0
  9
$CHAMFERA
 40
0.0
  9
$CHAMFERB
 40
0.0
  9
$SKPOLY
 70
     0
  9
$TDCREATE
 40
2458060.468368056230247
  9
$TDUPDATE
 40
2459538.9940625000745058
  9
$TDINDWG
 40
0.6595325231
  9
$TDUSRTIMER
 40
0.6595325231
  9
$USRTIMER
 70
     1
  9
$ANGBASE
 50
0.0
  9
$ANGDIR
 70
     0
  9
$PDMODE
 70
     0
  9
$PDSIZE
 40
0.3125
  9
$PLINEWID
 40
0.0
  9
$COORDS
 70
     1
  9
$SPLFRAME
 70
     0
  9
$SPLINETYPE
 70
     6
  9
$SPLINESEGS
 70
     8
  9
$ATTDIA
 70
     1
  9
$ATTREQ
 70
     1
  9
$HANDLING
 70
     1
  9
$HANDSEED
  5
2D384
  9
$SURFTAB1
 70
     6
  9
$SURFTAB2
 70
     6
  9
$SURFTYPE
 70
     6
  9
$SURFU
 70
     6
  9
$SURFV
 70
     6
  9
$UCSNAME
  2

  9
$UCSORG
 10
0.0
 20
0.0
 30
0.0
  9
$UCSXDIR
 10
1.0
 20
0.0
 30
0.0
  9
$UCSYDIR
 10
0.0
 20
1.0
 30
0.0
  9
$PUCSNAME
  2

  9
$PUCSORG
 10
0.0
 20
0.0
 30
0.0
  9
$PUCSXDIR
 10
1.0
 20
0.0
 30
0.0
  9
$PUCSYDIR
 10
0.0
 20
1.0
 30
0.0
  9
$USERI1
 70
     0
  9
$USERI2
 70
     0
  9
$USERI3
 70
     0
  9
$USERI4
 70
     0
  9
$USERI5
 70
     0
  9
$USERR1
 40
0.0
  9
$USERR2
 40
0.0
  9
$USERR3
 40
0.0
  9
$USERR4
 40
0.0
  9
$USERR5
 40
0.0
  9
$WORLDVIEW
 70
     1
  9
$SHADEDGE
 70
     3
  9
$SHADEDIF
 70
    70
  9
$TILEMODE
 70
     1
  9
$MAXACTVP
 70
    64
  9
$PLIMCHECK
 70
     0
  9
$PEXTMIN
 10
1.0000000000000000E+20
 20
1.0000000000000000E+20
 30
1.0000000000000000E+20
  9
$PEXTMAX
 10
-1.0000000000000000E+20
 20
-1.0000000000000000E+20
 30
-1.0000000000000000E+20
  9
$PLIMMIN
 10
0.0
 20
0.0
  9
$PLIMMAX
 10
12.0
 20
9.0
  9
$UNITMODE
 70
     0
  9
$VISRETAIN
 70
     1
  9
$PLINEGEN
 70
     0
  9
$PSLTSCALE
 70
     1
  0
ENDSEC
  0
SECTION
  2
TABLES
  0
TABLE
  2
VPORT
 70
     1
  0
VPORT
  2
*ACTIVE
 70
     0
 10
0.0
 20
0.0
 11
1.0
 21
1.0
 12
-380.3513285913991808
 22
-55.4806951427681412
 13
0.0
 23
0.0
 14
1.0
 24
1.0
 15
0.0
 25
0.0
 16
0.0
 26
0.0
 36
96.5995694866707311
 17
3303.693115234375
 27
195.2615115758877096
 37
0.0
 40
41.511283922117542
 41
2.7513321492007101
 42
50.0
 43
0.0
 44
0.0
 50
0.0
 51
0.0
 71
     0
 72
   100
 73
     1
 74
     1
 75
     0
 76
     0
 77
     0
 78
     0
  0
ENDTAB
  0
TABLE
  2
LTYPE
 70
     2
  0
LTYPE
  2
CONTINUOUS
 70
     0
  3
Solid line
 72
    65
 73
     0
 40
0.0
  0
LTYPE
  2
PHANTOM2
 70
     0
  3
___ _ _ ___ _ _ ___ _ _ ___ _ _
 72
    65
 73
     6
 40
1.25
 49
0.625
 49
-0.125
 49
0.125
 49
-0.125
 49
0.125
 49
-0.125
  0
ENDTAB
  0
TABLE
  2
LAYER
 70
     2
  0
LAYER
  2
0
 70
     0
 62
   255
  6
CONTINUOUS
  0
LAYER
  2
DEFPOINTS
 70
     0
 62
     7
  6
CONTINUOUS
  0
ENDTAB
  0
TABLE
  2
STYLE
 70
     1
  0
STYLE
  2
STANDARD
 70
     0
 40
0.0
 41
0.8
 50
0.0
 71
     0
 42
0.2
  3
txt
  4

  0
ENDTAB
  0
TABLE
  2
VIEW
 70
     0
  0
ENDTAB
  0
TABLE
  2
UCS
 70
     0
  0
ENDTAB
  0
TABLE
  2
APPID
 70
     9
  0
APPID
  2
ACAD
 70
     0
  0
APPID
  2
ACAD_MLEADERVER
 70
     0
  0
APPID
  2
ACAD_EXEMPT_FROM_CAD_STANDARDS
 70
     0
  0
APPID
  2
ACAD_NAV_VCDISPLAY
 70
     0
  0
APPID
  2
ACAECLAYERSTANDARD
 70
     0
  0
APPID
  2
ACCMTRANSPARENCY
 70
     0
  0
APPID
  2
ACAD_DSTYLE_DIMJAG
 70
     0
  0
APPID
  2
ACAD_DSTYLE_DIMTALN
 70
     0
  0
APPID
  2
ACDBATTR
 70
     0
  0
ENDTAB
  0
TABLE
  2
DIMSTYLE
 70
     1
  0
DIMSTYLE
  2
STANDARD
 70
     0
  3

  4

  5

  6

  7

 40
1.0
 41
0.1875
 42
0.0625
 43
0.38
 44
0.125
 45
0.0
 46
0.0
 47
0.01
 48
0.01
140
0.15625
141
0.09
142
0.0
143
25.3999999999999986
144
1.0
145
0.0
146
1.0
147
0.09
 71
     1
 72
     0
 73
     1
 74
     1
 75
     0
 76
     0
 77
     0
 78
     4
170
     0
171
     2
172
     0
173
     0
174
     0
175
     0
176
     0
177
     0
178
     0
  0
ENDTAB
  0
ENDSEC
  0
SECTION
  2
BLOCKS
  0
BLOCK
  8
0
  2
$MODEL_SPACE
 70
     0
 10
0.0
 20
0.0
 30
0.0
  3
$MODEL_SPACE
  1

  0
ENDBLK
  5
21
  8
0
  0
BLOCK
 67
     1
  8
0
  2
$PAPER_SPACE
 70
     0
 10
0.0
 20
0.0
 30
0.0
  3
$PAPER_SPACE
  1

  0
ENDBLK
  5
1D
 67
     1
  8
0
  0
ENDSEC
  0
SECTION
  2
ENTITIES
  0
ATTDEF
  5
28FC7
  8
DEFPOINTS
 10
2937.0917193337932076
 20
125.5267728342954001
 30
0.0
 40
0.001
  1
K-30215T-S
  3

  2
MODELNUMBER
 70
     0
1001
ACDBATTR
1070
     0
1070
     1
  0
ATTDEF
  5
28FC8
  8
DEFPOINTS
 10
2937.0917193337932076
 20
125.5251061676287065
 30
0.0
 40
0.001
  1

  3

  2
TRADENAME
 70
     0
1001
ACDBATTR
1070
     0
1070
     1
  0
ATTDEF
  5
28FC9
  8
DEFPOINTS
 10
2937.0917193337932076
 20
125.5234395009619988
 30
0.0
 40
0.001
  1
TOILET
  3

  2
PRODUCT
 70
     0
1001
ACDBATTR
1070
     0
1070
     1
  0
LINE
  5
2D1B0
  8
0
 10
2913.1822404514750815
 20
125.5233260106269029
 30
0.0
 11
2936.0647831496407889
 21
125.5233260490268066
 31
0.0
  0
LINE
  5
2D1B1
  8
0
 10
2909.9795457383688699
 20
138.8942090607276043
 30
0.0
 11
2910.0632622631701452
 21
138.5470810122268972
 31
0.0
  0
LINE
  5
2D1B2
  8
0
 10
2913.6071063252688873
 20
133.7616105573268044
 30
0.0
 11
2913.1822404514750815
 21
125.5233260106269029
 31
0.0
  0
LINE
  5
2D1B3
  8
0
 10
2913.1791469189688542
 20
134.1442953036269046
 30
0.0
 11
2913.5153438064689908
 21
133.926091080426886
 31
0.0
  0
LINE
  5
2D1B4
  8
0
 10
2914.9287878069690123
 20
141.1425817312268123
 30
0.0
 11
2914.9325150047689021
 21
141.1637197367269039
 31
0.0
  0
LINE
  5
2D1B5
  8
0
 10
2914.1188782781700866
 20
141.1404108232268868
 30
0.0
 11
2914.1188807682688093
 21
141.1403990805268052
 31
0.0
  0
LINE
  5
2D1B6
  8
0
 10
2931.8767210984688063
 20
133.1802673964268138
 30
0.0
 11
2935.7821763009687857
 21
132.8355402809268071
 31
0.0
  0
LINE
  5
2D1B7
  8
0
 10
2911.5217058200692009
 20
141.2444203346267955
 30
0.0
 11
2911.6652057456690272
 21
141.2088870243269128
 31
0.0
  0
LINE
  5
2D1B8
  8
0
 10
2911.6652057456690272
 20
141.2088870243269128
 30
0.0
 11
2912.0618278007159461
 21
141.0771439643268081
 31
0.0
  0
LINE
  5
2D1B9
  8
0
 10
2936.2332528467691191
 20
139.3854118468269121
 30
0.0
 11
2935.9242041892689485
 21
139.3854118461269138
 31
0.0
  0
LINE
  5
2D1BA
  8
0
 10
2911.3760001725700022
 20
141.2739941450645915
 30
0.0
 11
2911.5217058200692009
 21
141.2444203346267955
 31
0.0
  0
LINE
  5
2D1BB
  8
0
 10
2921.7747241445690634
 20
141.1562557165268004
 30
0.0
 11
2922.4299840450689771
 21
141.1562558027268039
 31
0.0
  0
LINE
  5
2D1BC
  8
0
 10
2928.9828144020971195
 20
141.451160522226786
 30
0.0
 11
2929.0483840924689503
 21
141.4511605308269111
 31
0.0
  0
LINE
  5
2D1BD
  8
0
 10
2928.9408268348702222
 20
141.6401368946268065
 30
0.0
 11
2928.4259411363109393
 21
141.6401368269592922
 31
0.0
  0
LINE
  5
2D1BE
  8
0
 10
2928.2981296415691759
 20
141.3989565934267887
 30
0.0
 11
2928.2981231460689742
 21
141.3989439076268013
 31
0.0
  0
LINE
  5
2D1BF
  8
0
 10
2927.847549839425028
 20
141.2743359381665869
 30
0.0
 11
2927.8475860949029084
 21
141.0771439643268081
 31
0.0
  0
LINE
  5
2D1C0
  8
0
 10
2928.9893429346097946
 20
141.0771439643268081
 30
0.0
 11
2928.980191052768987
 21
141.6014509717267913
 31
0.0
  0
LINE
  5
2D1C1
  8
0
 10
2929.0129511726690907
 20
141.0889558018268133
 30
0.0
 11
2929.012951126569078
 21
141.4393495026268113
 31
0.0
  0
LINE
  5
2D1C2
  8
0
 10
2929.0601952210690797
 20
141.4393495088268082
 30
0.0
 11
2929.0601952671690924
 21
141.0889558080268102
 31
0.0
  0
LINE
  5
2D1C3
  8
0
 10
2930.5080861851329246
 20
152.2931485666364892
 30
0.0
 11
2930.6848555113688235
 21
153.7603312800268895
 31
0.0
  0
LINE
  5
2D1C4
  8
0
 10
2930.5276791950691404
 20
152.0248858286269069
 30
0.0
 11
2930.0979743992697877
 21
141.4608728164267859
 31
0.0
  0
LINE
  5
2D1C5
  8
0
 10
2935.5237377005691997
 20
132.96402430702679
 30
0.0
 11
2935.4268961844099977
 21
137.5856321475162076
 31
0.0
  0
LINE
  5
2D1C6
  8
0
 10
2936.0647831496407889
 20
125.5233260490268066
 30
0.0
 11
2935.9619512281901734
 21
132.6424520602105872
 31
0.0
  0
LINE
  5
2D1C7
  8
0
 10
2935.5479232154689271
 20
138.6086621905267862
 30
0.0
 11
2935.4748268176690544
 21
137.7684122087268861
 31
0.0
  0
LINE
  5
2D1C8
  8
0
 10
2936.3119907275690821
 20
152.0200875689268116
 30
0.0
 11
2936.3119930146690422
 21
139.4641520144269009
 31
0.0
  0
LINE
  5
2D1C9
  8
0
 10
2936.3113000815701525
 20
152.2931483411269085
 30
0.0
 11
2936.1345305545701194
 21
153.7603302891268982
 31
0.0
  0
ARC
  5
2D1CA
  8
0
 10
2916.7185045533688026
 20
87.5166743763268755
 30
0.0
 40
48.0336130876000027
 50
72.4417674197019608
 51
72.6487156507913454
  0
CIRCLE
  5
2D1CB
  8
0
 10
2929.608090245269068
 20
126.9423905377268937
 30
0.0
 40
0.5394047032
  0
ARC
  5
2D1CC
  8
0
 10
2909.9381188761549311
 20
140.8768895748455066
 30
0.0
 40
0.2008170041949391
 50
94.2898724300426778
 51
181.5500379927015899
  0
ARC
  5
2D1CD
  8
0
 10
2909.7322319646368669
 20
142.1021914009864133
 30
0.0
 40
0.1102420196257939
 50
91.8239088309932043
 51
180.4275728343652077
  0
ARC
  5
2D1CE
  8
0
 10
2909.6845037982261601
 20
141.3133629601726113
 30
0.0
 40
0.0393703304462585
 50
182.8962016933294024
 51
269.4972995295771057
  0
ARC
  5
2D1CF
  8
0
 10
2917.1244017021390391
 20
140.2176904449611925
 30
0.0
 40
7.2345768082842961
 50
207.3152536486516908
 51
215.8168510448635118
  0
ARC
  5
2D1D0
  8
0
 10
2923.749496825245842
 20
141.7083601338102028
 30
0.0
 40
4.573374550508559
 50
15.5415207027411402
 51
17.6274195497694208
  0
ARC
  5
2D1D1
  8
0
 10
2921.7747241341689914
 20
141.2349958740269074
 30
0.0
 40
0.0787401574999918
 50
205.0146203524049042
 51
270.000007535813495
  0
ARC
  5
2D1D2
  8
0
 10
2922.4300397608531057
 20
141.2348110374296084
 30
0.0
 40
0.0785552545610808
 50
269.9593626639846775
 51
343.7485269185449965
  0
ARC
  5
2D1D3
  8
0
 10
2914.8495310691728264
 20
141.157099588907613
 30
0.0
 40
0.0805754223622502
 50
277.1111546736229911
 51
349.6199159896005995
  0
ARC
  5
2D1D4
  8
0
 10
2914.1967639106042043
 20
141.1567273296165865
 30
0.0
 40
0.079599874105838
 50
191.8395884490529113
 51
268.8330643427341897
  0
ARC
  5
2D1D5
  8
0
 10
2935.3122260969571471
 20
138.6287733335933865
 30
0.0
 40
0.2365535663446273
 50
355.1229809078179755
 51
91.6867325392660177
  0
ARC
  5
2D1D6
  8
0
 10
2935.7650887632162267
 20
132.6393929936533027
 30
0.0
 40
0.1968862311185837
 50
0.8902534965126843
 51
29.145239157756091
  0
ARC
  5
2D1D7
  8
0
 10
2935.7650928178250069
 20
132.6394070082072858
 30
0.0
 40
0.1968758646051748
 50
29.1422516531787501
 51
85.0220206118068518
  0
ARC
  5
2D1D8
  8
0
 10
2935.6492296617598186
 20
132.9687280285276927
 30
0.0
 40
0.1255800832916591
 50
182.1465700556350953
 51
249.4039002687933078
  0
ARC
  5
2D1D9
  8
0
 10
2936.233252857169191
 20
139.4641520043267917
 30
0.0
 40
0.0787401575000029
 50
269.9999924323731761
 51
0.0000073493281598
  0
ARC
  5
2D1DA
  8
0
 10
2928.9408269188688791
 20
141.6007668159267894
 30
0.0
 40
0.0393700787001285
 50
0.9957131760600995
 51
90.0001222460923174
  0
ARC
  5
2D1DB
  8
0
 10
2928.3768123138588635
 20
141.4961986518405865
 30
0.0
 40
0.039370080571706
 50
312.0108963303724181
 51
8.1166931668579458
  0
ARC
  5
2D1DC
  8
0
 10
2927.818004029903932
 20
142.2572417064436081
 30
0.0
 40
0.9833497364480424
 50
270.8259616019054761
 51
306.5173067265636178
  0
ARC
  5
2D1DD
  8
0
 10
2927.8476105193522017
 20
142.1716328272862881
 30
0.0
 40
0.511810994310661
 50
359.7623223705235773
 51
35.5709480347287368
  0
ARC
  5
2D1DE
  8
0
 10
2927.9871428699289027
 20
143.0547096517919954
 30
0.0
 40
0.1269939603883923
 50
17.6890680753800495
 51
94.2963119636420686
  0
ARC
  5
2D1DF
  8
0
 10
2928.0352896230288025
 20
142.9017819454055029
 30
0.0
 40
0.1245323788163036
 50
16.2528329828403493
 51
93.9355233966128793
  0
ARC
  5
2D1E0
  8
0
 10
2929.0483841973677954
 20
141.4393495072266091
 30
0.0
 40
0.0118110236007497
 50
0.0000075377684422
 51
90.0005088706928547
  0
ARC
  5
2D1E1
  8
0
 10
2929.0480682433258153
 20
141.0890477957470068
 30
0.0
 40
0.0121273726179611
 50
281.0179914990710017
 51
359.5653995729838925
  0
ARC
  5
2D1E2
  8
0
 10
2929.0247621501689537
 20
141.4393495041269091
 30
0.0
 40
0.0118110236
 50
90.0000075148130634
 51
180.0000075356994955
  0
ARC
  5
2D1E3
  8
0
 10
2929.0254882769581855
 20
141.0891712147553108
 30
0.0
 40
0.0125389547684646
 50
180.9843613067621959
 51
253.5750285265995956
  0
ARC
  5
2D1E4
  8
0
 10
2926.6651386719449874
 20
142.2063417894914039
 30
0.0
 40
17.0434689321181203
 50
180.3528948128237914
 51
183.010037982802487
  0
ARC
  5
2D1E5
  8
0
 10
2931.1085072915270757
 20
142.1602372945953903
 30
0.0
 40
2.749105818924539
 50
179.806747613287996
 51
183.046707595078999
  0
ARC
  5
2D1E6
  8
0
 10
2930.9950243735720505
 20
153.7228541643970914
 30
0.0
 40
0.312424802594136
 50
152.5358196344249961
 51
173.1104578346619007
  0
ARC
  5
2D1E7
  8
0
 10
2930.5848309450939269
 20
152.2906558042608935
 30
0.0
 40
0.1592397363926822
 50
282.7515919494238119
 51
295.9594183616009104
  0
ARC
  5
2D1E8
  8
0
 10
2930.5854598164792151
 20
152.2890529939809028
 30
0.0
 40
0.1575234229659721
 50
296.0089524901566733
 51
336.8124713465622904
  0
ARC
  5
2D1E9
  8
0
 10
2930.5667172903131359
 20
152.2860845383648041
 30
0.0
 40
0.0590551182379588
 50
173.1299694550667994
 51
269.9632753193478152
  0
ARC
  5
2D1EA
  8
0
 10
2936.2691298900690526
 20
152.2852054400269139
 30
0.0
 40
0.1574803150000471
 50
201.679706692551008
 51
252.1053592743384115
  0
ARC
  5
2D1EB
  8
0
 10
2936.1933479339559199
 20
152.0199063172356091
 30
0.0
 40
0.1186429320625323
 50
0.0875312232846432
 51
76.6505791975718438
  0
ARC
  5
2D1EC
  8
0
 10
2936.2526717013711277
 20
152.2860820979161076
 30
0.0
 40
0.0590526778205338
 50
270.0367726318240216
 51
6.8724804144234506
  0
ARC
  5
2D1ED
  8
0
 10
2934.7325647821689927
 20
157.9472055312268139
 30
0.0
 40
19.0905732571999991
 50
271.4514287368904775
 51
271.7190749134024941
  0
LINE
  5
2D1EE
  8
0
 10
2928.3810379440701581
 20
141.7445872899268124
 30
0.0
 11
2928.4157880071688851
 21
141.5017573005268048
 31
0.0
  0
LINE
  5
2D1EF
  8
0
 10
2909.9791558632691704
 20
138.8942090607268085
 30
0.0
 11
2935.8553686552691033
 21
138.8942091088269137
 31
0.0
  0
ARC
  5
2D1F0
  8
0
 10
2932.9423543956409048
 20
262.5805271225602837
 30
0.0
 40
123.7386623639074941
 50
270.5357327666706055
 51
271.0529003060398168
  0
ARC
  5
2D1F1
  8
0
 10
2934.484196282683115
 20
115.2467591635501947
 30
0.0
 40
23.6036525571231302
 50
90.9342672696683252
 51
96.207079529423595
  0
ARC
  5
2D1F2
  8
0
 10
2933.1490642826138355
 20
125.9575316573678947
 30
0.0
 40
12.81243107093022
 50
95.4502674319244875
 51
105.1739875279514962
  0
ARC
  5
2D1F3
  8
0
 10
2934.452832334687173
 20
123.6887973142557939
 30
0.0
 40
15.3577108467060004
 50
107.6537300075940067
 51
118.8150547139860009
  0
ARC
  5
2D1F4
  8
0
 10
2875.1179143433168974
 20
222.617465495010407
 30
0.0
 40
100.0128333494888011
 50
300.0935934003899206
 51
301.2826835592949806
  0
ARC
  5
2D1F5
  8
0
 10
2929.8511987777169452
 20
129.0840362707673137
 30
0.0
 40
8.3694937229825701
 50
123.2214624759902932
 51
129.9079822642345903
  0
ARC
  5
2D1F6
  8
0
 10
2919.3146547299329541
 20
139.2147148835483961
 30
0.0
 40
6.3613820004864854
 50
306.6570742540167771
 51
324.3164780571952974
  0
ARC
  5
2D1F7
  8
0
 10
2919.476796828436818
 20
139.6137664856169067
 30
0.0
 40
6.5950006006127646
 50
280.0766145325060279
 51
303.455553368437279
  0
ARC
  5
2D1F8
  8
0
 10
2919.2522357583047778
 20
139.5942842540515869
 30
0.0
 40
6.6189177721596097
 50
262.6628963045184264
 51
282.020392327386503
  0
ARC
  5
2D1F9
  8
0
 10
2920.6808343639258965
 20
153.9370220278453871
 30
0.0
 40
21.0307487844737899
 50
255.8504351539781112
 51
263.7929492798101023
  0
ARC
  5
2D1FA
  8
0
 10
249.1320789304286052
 20
-16793.9847964750915708
 30
0.0
 40
17136.2473221006293898
 50
81.0483782645229951
 51
81.0544845805257239
  0
ARC
  5
2D1FB
  8
0
 10
2913.7002480957849002
 20
133.594667325299099
 30
0.0
 40
0.2364121252560964
 50
81.3722516233176663
 51
100.0891330512476998
  0
ARC
  5
2D1FC
  8
0
 10
2913.6701625006999166
 20
133.767749056827796
 30
0.0
 40
0.0607404966767049
 50
100.7495371978054948
 51
152.6983762269836973
  0
ARC
  5
2D1FD
  8
0
 10
2914.931775088194172
 20
141.4715013823343099
 30
0.0
 40
11.9722713441330999
 50
334.8196507271658788
 51
347.5685268506318266
  0
ARC
  5
2D1FE
  8
0
 10
2913.6935754477221963
 20
133.7567247424485117
 30
0.0
 40
0.0866070454681617
 50
153.3220247953269109
 51
176.7660221373454021
  0
ARC
  5
2D1FF
  8
0
 10
2913.4089461953140017
 20
133.7561298504465981
 30
0.0
 40
0.2005175088513972
 50
26.8085804015520104
 51
57.9529782293815998
  0
ARC
  5
2D200
  8
0
 10
2913.4303209381200759
 20
133.7663138072171876
 30
0.0
 40
0.1768479393965574
 50
358.4760458845753988
 51
26.9870568975826508
  0
ARC
  5
2D201
  8
0
 10
2917.5727412637252201
 20
140.6554245223312023
 30
0.0
 40
7.8548376793498624
 50
216.4922366580807989
 51
235.9892223522076904
  0
ARC
  5
2D202
  8
0
 10
2918.1660512799548997
 20
140.7120949448637077
 30
0.0
 40
8.3870420995157655
 50
194.9596038795461936
 51
207.0507209835051867
  0
ARC
  5
2D203
  8
0
 10
2920.3649133387370966
 20
141.1675998225456965
 30
0.0
 40
10.6316632703992493
 50
181.5961661669093132
 51
192.3470175317850988
  0
ARC
  5
2D204
  8
0
 10
2913.9482525931330201
 20
141.1090266557970949
 30
0.0
 40
0.1734647860269719
 50
10.4185598187656492
 51
71.9921712119401747
  0
ARC
  5
2D205
  8
0
 10
2915.1316243513351765
 20
141.1279051160400968
 30
0.0
 40
0.2023047674791158
 50
133.7699191012673907
 51
169.8030118661374104
  0
ARC
  5
2D206
  8
0
 10
2921.5501927697428073
 20
141.1371100666951008
 30
0.0
 40
0.1662382248514635
 50
22.8638228543762594
 51
55.4287499898153797
  0
ARC
  5
2D207
  8
0
 10
2922.6460201431841597
 20
141.1745135193447993
 30
0.0
 40
0.1456920097745627
 50
136.9360237766119042
 51
164.753263617831692
  0
ARC
  5
2D208
  8
0
 10
2927.6760542180859375
 20
136.2816723385425917
 30
0.0
 40
5.4035626587237333
 50
112.4977593411543069
 51
117.4436171704617067
  0
LINE
  5
2D209
  8
0
 10
2927.2480288316428414
 20
141.0771439643268081
 30
0.0
 11
2927.2719289851829672
 21
141.2739941450645915
 31
0.0
  0
LINE
  5
2D20A
  8
0
 10
2928.2639154444877931
 20
142.4693587133041888
 30
0.0
 11
2928.1556529772688009
 21
142.9337346656267869
 31
0.0
  0
ARC
  5
2D20B
  8
0
 10
2892.3293117957841787
 20
578.5999922218774145
 30
0.0
 40
436.8754963983469111
 50
273.8054067140423058
 51
274.6804445626208917
  0
ARC
  5
2D20C
  8
0
 10
2875.130131214245921
 20
1181.1815461108740237
 30
0.0
 40
1039.5207075652010644
 50
272.1224262581097832
 51
272.5469230602500943
  0
ARC
  5
2D20D
  8
0
 10
2988.9827060002671715
 20
-1723.3060339995729464
 30
0.0
 40
1867.2011508374259847
 50
92.3128966772560062
 51
92.4326695172733253
  0
ARC
  5
2D20E
  8
0
 10
2928.0229748971300978
 20
143.026616286895603
 30
0.0
 40
0.0038143806923028
 50
305.7348964483225018
 51
351.0164293370434052
  0
ARC
  5
2D20F
  8
0
 10
2928.0062016999941079
 20
143.049584396862798
 30
0.0
 40
0.0322550107168056
 50
286.8276332799546822
 51
306.0920789920996867
  0
ARC
  5
2D210
  8
0
 10
2927.919328542907806
 20
143.3277883629654923
 30
0.0
 40
0.3237060542516022
 50
280.2974494580050759
 51
287.2904945647118211
  0
ARC
  5
2D211
  8
0
 10
2927.7885367998610491
 20
143.9741829093040053
 30
0.0
 40
0.9831570136766892
 50
276.4249159462349894
 51
281.0630392216065161
  0
ARC
  5
2D212
  8
0
 10
2927.4342599633059763
 20
146.1986838467452969
 30
0.0
 40
3.2349748223038701
 50
275.4559314523081071
 51
278.2517564750119163
  0
ARC
  5
2D213
  8
0
 10
2926.7707981103421844
 20
152.6275273544835898
 30
0.0
 40
9.6979000871288363
 50
274.5042636524865998
 51
275.7466144872872746
  0
ARC
  5
2D214
  8
0
 10
3169.7665764734279037
 20
-3236.7869391623657975
 30
0.0
 40
3388.4161377295599777
 50
94.0995096649169653
 51
94.1218862993162446
  0
ARC
  5
2D215
  8
0
 10
2844.7846698865091639
 20
1258.0137138760619564
 30
0.0
 40
1118.1179593449810454
 50
274.0784371765017795
 51
274.1763067543831198
  0
ARC
  5
2D216
  8
0
 10
2910.0376090248978471
 20
341.4315106199341017
 30
0.0
 40
199.2159931123819092
 50
273.3417699487296204
 51
274.1076351755335736
  0
ARC
  5
2D217
  8
0
 10
2915.2504246320449965
 20
251.7981119444496869
 30
0.0
 40
109.4311458038706064
 50
271.208518761470998
 51
273.3527351492185176
  0
ARC
  5
2D218
  8
0
 10
2875.9422767086562089
 20
1779.4846231370170244
 30
0.0
 40
1637.6221870107799532
 50
271.2951928914333166
 51
271.4561890405457802
  0
ARC
  5
2D219
  8
0
 10
2901.9319780813430043
 20
586.242691049765881
 30
0.0
 40
444.098759877644909
 50
271.0059553890798725
 51
271.4227031462859259
  0
ARC
  5
2D21A
  8
0
 10
2929.6983052985929135
 20
141.4771419698280113
 30
0.0
 40
0.4000000942345706
 50
270.185160900409528
 51
357.668972985907601
  0
LINE
  5
2D21B
  8
0
 10
2935.8553686552691033
 20
138.8942091088269137
 30
0.0
 11
2935.9242041892857742
 21
139.3854118461269138
 31
0.0
  0
ARC
  5
2D21C
  8
0
 10
2935.0320641720250023
 20
137.7868439007648078
 30
0.0
 40
0.4431461244883187
 50
330.6605175626083906
 51
357.6162199509171842
  0
ARC
  5
2D21D
  8
0
 10
2934.8527796348162155
 20
137.8681193074041005
 30
0.0
 40
0.639483651662396
 50
282.9839333357119813
 51
332.1834924256771728
  0
ARC
  5
2D21E
  8
0
 10
2932.1464159785377888
 20
136.2951100279464924
 30
0.0
 40
3.1264964333048222
 50
252.5534532287587979
 51
265.0514556425221144
  0
ARC
  5
2D21F
  8
0
 10
2933.9147578386241548
 20
133.1193590671574043
 30
0.0
 40
0.1228424382389382
 50
185.3363349851479995
 51
249.7192468709141053
  0
ARC
  5
2D220
  8
0
 10
2929.2602213527561617
 20
132.6208034689410908
 30
0.0
 40
4.5583300964381142
 50
6.1346917879144653
 51
22.7007272169941494
  0
ARC
  5
2D221
  8
0
 10
2928.7578464577040904
 20
132.440307142617911
 30
0.0
 40
5.0915178682507891
 50
22.3928213564785388
 51
43.8445453611414493
  0
ARC
  5
2D222
  8
0
 10
2929.3641607220251899
 20
132.9754010036693899
 30
0.0
 40
4.2837045588854501
 50
44.3003127212506627
 51
51.7490670072238785
  0
ARC
  5
2D223
  8
0
 10
2932.0964199214381551
 20
136.428930666336214
 30
0.0
 40
0.1201739475914241
 50
103.9084777533285973
 51
228.1430485498408132
  0
ARC
  5
2D224
  8
0
 10
2929.458009993405085
 20
133.9192929149714928
 30
0.0
 40
2.8975072200475451
 50
20.9475904692554984
 51
53.1838939970195099
  0
ARC
  5
2D225
  8
0
 10
2922.0427896526089171
 20
130.5187807026890994
 30
0.0
 40
11.0508343742404005
 50
13.9485830366907599
 51
23.6691601685853996
  0
ARC
  5
2D226
  8
0
 10
2932.8938754479358977
 20
133.2166063658131918
 30
0.0
 40
0.1306190904631457
 50
195.0924886635814062
 51
249.0733192108114054
  0
ARC
  5
2D227
  8
0
 10
2931.2647542195718415
 20
136.3340949104741071
 30
0.0
 40
0.1183846640989384
 50
99.1215850111504722
 51
233.5005998455694964
  0
ARC
  5
2D228
  8
0
 10
2924.0308484183110522
 20
132.2844147961151009
 30
0.0
 40
7.0953753350986144
 50
8.7556717713546561
 51
18.7147125168355899
  0
ARC
  5
2D229
  8
0
 10
2926.8722765940710815
 20
133.3735794849469869
 30
0.0
 40
4.0564861529659328
 50
17.0211036625264711
 51
29.2656096599197397
  0
ARC
  5
2D22A
  8
0
 10
2928.6863418334369271
 20
134.2951589395503902
 30
0.0
 40
2.0251369510172248
 50
31.6108558035874694
 51
49.5096532819044128
  0
ARC
  5
2D22B
  8
0
 10
2899.1873428966509891
 20
95.2218381396685629
 30
0.0
 40
50.9799372821124805
 50
52.8119419494156617
 51
53.3690892624161179
  0
ARC
  5
2D22C
  8
0
 10
2930.7165077082308926
 20
137.5219314728076085
 30
0.0
 40
1.7789588035929209
 50
210.6941036049369984
 51
231.3288252780328946
  0
ARC
  5
2D22D
  8
0
 10
2931.3306496830928154
 20
147.3517357627274009
 30
0.0
 40
10.7510256255446102
 50
284.1649324880168024
 51
289.9361558274335948
  0
ARC
  5
2D22E
  8
0
 10
2929.2583264516620147
 20
155.3603045142718031
 30
0.0
 40
19.0232872222588192
 50
278.4920401331413018
 51
284.3140386094889891
  0
ARC
  5
2D22F
  8
0
 10
2943.5082106793011008
 20
33.5738343202703717
 30
0.0
 40
103.6053558207178042
 50
96.3398465512313749
 51
96.7971811922348735
  0
ARC
  5
2D230
  8
0
 10
2930.6141247480159109
 20
141.5611808648984891
 30
0.0
 40
5.1491141804692511
 50
253.9066308562599943
 51
277.0486889115006761
  0
ARC
  5
2D231
  8
0
 10
2931.0006416772221201
 20
153.7187503671711966
 30
0.0
 40
0.3193034074750802
 50
90.1216888448289808
 51
152.3472943523788103
  0
ARC
  5
2D232
  8
0
 10
2935.8191835455450018
 20
153.720159746522512
 30
0.0
 40
0.3178952792885798
 50
7.2595361555956517
 51
89.7982214375550569
  0
ARC
  5
2D233
  8
0
 10
2935.2136449938029727
 20
139.0662083990289091
 30
0.0
 40
0.2042362206510641
 50
237.3687703683168024
 51
266.0594040205792794
  0
ARC
  5
2D234
  8
0
 10
2928.4272745019879949
 20
141.6825498704722008
 30
0.0
 40
0.0424339972881804
 50
217.5085337924161024
 51
268.1993498745214879
  0
ARC
  5
2D235
  8
0
 10
2930.6456699348332222
 20
152.0200835801153971
 30
0.0
 40
0.1180884256002932
 50
102.5655392288902021
 51
177.6693357911601936
  0
ARC
  5
2D236
  8
0
 10
2936.8524271250239508
 20
142.4378380498046965
 30
0.0
 40
8.4997077168140986
 50
182.8574150792998978
 51
184.6783389574310092
  0
LINE
  5
2D238
  8
0
 10
2909.9230972694749653
 20
141.0771439643268081
 30
0.0
 11
2929.6995979635908043
 21
141.0771439643268081
 31
0.0
  0
LINE
  5
2D239
  8
0
 10
2927.8321792623451074
 20
141.2739941450645915
 30
0.0
 11
2909.6841583761051879
 21
141.2739941450645915
 31
0.0
  0
LINE
  5
2D23A
  8
0
 10
2935.8203030751228653
 20
154.0380530544852036
 30
0.0
 11
2930.9999635184831277
 21
154.0380530544852036
 31
0.0
  0
LINE
  5
2D23B
  8
0
 10
2936.2527096015837742
 20
152.2270294322578081
 30
0.0
 11
2930.5666794379571911
 21
152.2270294322578081
 31
0.0
  0
LINE
  5
2D23C
  8
0
 10
2936.2207412904999728
 20
152.1353435267724876
 30
0.0
 11
2930.6199790617970393
 21
152.1353435267724876
 31
0.0
  0
ENDSEC
  0
EOF
