  0
SECTION
  2
HEADER
  9
$ACADVER
  1
AC1009
  9
$INSBASE
 10
3100.2315100542441542
 20
154.1578865331024986
 30
0.0
  9
$EXTMIN
 10
3092.5035241804889665
 20
126.6819605890358957
 30
-0.0000000000112498
  9
$EXTMAX
 10
3107.753014486558186
 20
154.1591610356271076
 30
0.0000000000002956
  9
$LIMMIN
 10
0.0
 20
0.0
  9
$LIMMAX
 10
11.6929133858000007
 20
8.2677165353999982
  9
$ORTHOMODE
 70
     0
  9
$REGENMODE
 70
     1
  9
$FILLMODE
 70
     1
  9
$QTEXTMODE
 70
     0
  9
$MIRRTEXT
 70
     0
  9
$DRAGMODE
 70
     2
  9
$LTSCALE
 40
0.6431102362
  9
$OSMODE
 70
   575
  9
$ATTMODE
 70
     1
  9
$TEXTSIZE
 40
0.2
  9
$TRACEWID
 40
0.05
  9
$TEXTSTYLE
  7
STANDARD
  9
$CLAYER
  8
0
  9
$CELTYPE
  6
BYLAYER
  9
$CECOLOR
 62
   256
  9
$DIMSCALE
 40
1.0
  9
$DIMASZ
 40
0.1875
  9
$DIMEXO
 40
0.0625
  9
$DIMDLI
 40
0.4443307087
  9
$DIMRND
 40
0.0
  9
$DIMDLE
 40
0.0
  9
$DIMEXE
 40
0.125
  9
$DIMTP
 40
0.01
  9
$DIMTM
 40
0.01
  9
$DIMTXT
 40
2.0
  9
$DIMCEN
 40
0.1052362205
  9
$DIMTSZ
 40
0.0
  9
$DIMTOL
 70
     1
  9
$DIMLIM
 70
     0
  9
$DIMTIH
 70
     1
  9
$DIMTOH
 70
     1
  9
$DIMSE1
 70
     0
  9
$DIMSE2
 70
     0
  9
$DIMTAD
 70
     0
  9
$DIMZIN
 70
     0
  9
$DIMBLK
  1

  9
$DIMASO
 70
     1
  9
$DIMSHO
 70
     1
  9
$DIMPOST
  1
\X
  9
$DIMAPOST
  1

  9
$DIMALT
 70
     1
  9
$DIMALTD
 70
     2
  9
$DIMALTF
 40
25.3999999999999986
  9
$DIMLFAC
 40
1.0
  9
$DIMTOFL
 70
     0
  9
$DIMTVP
 40
0.0
  9
$DIMTIX
 70
     0
  9
$DIMSOXD
 70
     0
  9
$DIMSAH
 70
     0
  9
$DIMBLK1
  1

  9
$DIMBLK2
  1

  9
$DIMSTYLE
  2
STANDARD
  9
$DIMCLRD
 70
     0
  9
$DIMCLRE
 70
     0
  9
$DIMCLRT
 70
     0
  9
$DIMTFAC
 40
1.0
  9
$DIMGAP
 40
0.09
  9
$LUNITS
 70
     2
  9
$LUPREC
 70
     4
  9
$SKETCHINC
 40
0.1
  9
$FILLETRAD
 40
0.0
  9
$AUNITS
 70
     0
  9
$AUPREC
 70
     0
  9
$MENU
  1
.
  9
$ELEVATION
 40
0.0
  9
$PELEVATION
 40
0.0
  9
$THICKNESS
 40
0.0
  9
$LIMCHECK
 70
     0
  9
$BLIPMODE
 70
     0
  9
$CHAMFERA
 40
0.0
  9
$CHAMFERB
 40
0.0
  9
$SKPOLY
 70
     0
  9
$TDCREATE
 40
2458060.468368056230247
  9
$TDUPDATE
 40
2459541.9991435189731419
  9
$TDINDWG
 40
0.6654237269
  9
$TDUSRTIMER
 40
0.6654237269
  9
$USRTIMER
 70
     1
  9
$ANGBASE
 50
0.0
  9
$ANGDIR
 70
     0
  9
$PDMODE
 70
     0
  9
$PDSIZE
 40
0.3125
  9
$PLINEWID
 40
0.0
  9
$COORDS
 70
     1
  9
$SPLFRAME
 70
     0
  9
$SPLINETYPE
 70
     6
  9
$SPLINESEGS
 70
     8
  9
$ATTDIA
 70
     1
  9
$ATTREQ
 70
     1
  9
$HANDLING
 70
     1
  9
$HANDSEED
  5
2D5FB
  9
$SURFTAB1
 70
     6
  9
$SURFTAB2
 70
     6
  9
$SURFTYPE
 70
     6
  9
$SURFU
 70
     6
  9
$SURFV
 70
     6
  9
$UCSNAME
  2

  9
$UCSORG
 10
0.0
 20
0.0
 30
0.0
  9
$UCSXDIR
 10
1.0
 20
0.0
 30
0.0
  9
$UCSYDIR
 10
0.0
 20
1.0
 30
0.0
  9
$PUCSNAME
  2

  9
$PUCSORG
 10
0.0
 20
0.0
 30
0.0
  9
$PUCSXDIR
 10
1.0
 20
0.0
 30
0.0
  9
$PUCSYDIR
 10
0.0
 20
1.0
 30
0.0
  9
$USERI1
 70
     0
  9
$USERI2
 70
     0
  9
$USERI3
 70
     0
  9
$USERI4
 70
     0
  9
$USERI5
 70
     0
  9
$USERR1
 40
0.0
  9
$USERR2
 40
0.0
  9
$USERR3
 40
0.0
  9
$USERR4
 40
0.0
  9
$USERR5
 40
0.0
  9
$WORLDVIEW
 70
     1
  9
$SHADEDGE
 70
     3
  9
$SHADEDIF
 70
    70
  9
$TILEMODE
 70
     1
  9
$MAXACTVP
 70
    64
  9
$PLIMCHECK
 70
     0
  9
$PEXTMIN
 10
1.0000000000000000E+20
 20
1.0000000000000000E+20
 30
1.0000000000000000E+20
  9
$PEXTMAX
 10
-1.0000000000000000E+20
 20
-1.0000000000000000E+20
 30
-1.0000000000000000E+20
  9
$PLIMMIN
 10
0.0
 20
0.0
  9
$PLIMMAX
 10
12.0
 20
9.0
  9
$UNITMODE
 70
     0
  9
$VISRETAIN
 70
     1
  9
$PLINEGEN
 70
     0
  9
$PSLTSCALE
 70
     1
  0
ENDSEC
  0
SECTION
  2
TABLES
  0
TABLE
  2
VPORT
 70
     1
  0
VPORT
  2
*ACTIVE
 70
     0
 10
0.0
 20
0.0
 11
1.0
 21
1.0
 12
-188.743424719399286
 22
-54.9899097681713727
 13
0.0
 23
0.0
 14
1.0
 24
1.0
 15
0.0
 25
0.0
 16
0.0
 26
0.0
 36
96.5995694866707311
 17
3303.693115234375
 27
195.2615115758877096
 37
0.0
 40
41.9319617949577719
 41
2.7531083481349912
 42
50.0
 43
0.0
 44
0.0
 50
0.0
 51
0.0
 71
     0
 72
   100
 73
     1
 74
     1
 75
     0
 76
     0
 77
     0
 78
     0
  0
ENDTAB
  0
TABLE
  2
LTYPE
 70
     2
  0
LTYPE
  2
CONTINUOUS
 70
     0
  3
Solid line
 72
    65
 73
     0
 40
0.0
  0
LTYPE
  2
PHANTOM2
 70
     0
  3
___ _ _ ___ _ _ ___ _ _ ___ _ _
 72
    65
 73
     6
 40
1.25
 49
0.625
 49
-0.125
 49
0.125
 49
-0.125
 49
0.125
 49
-0.125
  0
ENDTAB
  0
TABLE
  2
LAYER
 70
     2
  0
LAYER
  2
0
 70
     0
 62
   255
  6
CONTINUOUS
  0
LAYER
  2
DEFPOINTS
 70
     0
 62
     7
  6
CONTINUOUS
  0
ENDTAB
  0
TABLE
  2
STYLE
 70
     1
  0
STYLE
  2
STANDARD
 70
     0
 40
0.0
 41
0.8
 50
0.0
 71
     0
 42
0.2
  3
txt
  4

  0
ENDTAB
  0
TABLE
  2
VIEW
 70
     0
  0
ENDTAB
  0
TABLE
  2
UCS
 70
     0
  0
ENDTAB
  0
TABLE
  2
APPID
 70
     9
  0
APPID
  2
ACAD
 70
     0
  0
APPID
  2
ACAD_MLEADERVER
 70
     0
  0
APPID
  2
ACAD_EXEMPT_FROM_CAD_STANDARDS
 70
     0
  0
APPID
  2
ACAD_NAV_VCDISPLAY
 70
     0
  0
APPID
  2
ACAECLAYERSTANDARD
 70
     0
  0
APPID
  2
ACCMTRANSPARENCY
 70
     0
  0
APPID
  2
ACAD_DSTYLE_DIMJAG
 70
     0
  0
APPID
  2
ACAD_DSTYLE_DIMTALN
 70
     0
  0
APPID
  2
ACDBATTR
 70
     0
  0
ENDTAB
  0
TABLE
  2
DIMSTYLE
 70
     1
  0
DIMSTYLE
  2
STANDARD
 70
     0
  3

  4

  5

  6

  7

 40
1.0
 41
0.1875
 42
0.0625
 43
0.38
 44
0.125
 45
0.0
 46
0.0
 47
0.01
 48
0.01
140
0.15625
141
0.09
142
0.0
143
25.3999999999999986
144
1.0
145
0.0
146
1.0
147
0.09
 71
     1
 72
     0
 73
     1
 74
     1
 75
     0
 76
     0
 77
     0
 78
     4
170
     0
171
     2
172
     0
173
     0
174
     0
175
     0
176
     0
177
     0
178
     0
  0
ENDTAB
  0
ENDSEC
  0
SECTION
  2
BLOCKS
  0
BLOCK
  8
0
  2
$MODEL_SPACE
 70
     0
 10
0.0
 20
0.0
 30
0.0
  3
$MODEL_SPACE
  1

  0
ENDBLK
  5
21
  8
0
  0
BLOCK
 67
     1
  8
0
  2
$PAPER_SPACE
 70
     0
 10
0.0
 20
0.0
 30
0.0
  3
$PAPER_SPACE
  1

  0
ENDBLK
  5
1D
 67
     1
  8
0
  0
ENDSEC
  0
SECTION
  2
ENTITIES
  0
ATTDEF
  5
28FC7
  8
DEFPOINTS
 10
3100.2315344086550795
 20
154.1567822298258932
 30
0.0
 40
0.001
  1
K-30216T-S
  3

  2
MODELNUMBER
 70
     0
1001
ACDBATTR
1070
     0
1070
     1
  0
ATTDEF
  5
28FC8
  8
DEFPOINTS
 10
3100.2315344086550795
 20
154.1551155631591996
 30
0.0
 40
0.001
  1

  3

  2
TRADENAME
 70
     0
1001
ACDBATTR
1070
     0
1070
     1
  0
ATTDEF
  5
28FC9
  8
DEFPOINTS
 10
3100.2315344086550795
 20
154.1534488964925913
 30
0.0
 40
0.001
  1
TOILET
  3

  2
PRODUCT
 70
     0
1001
ACDBATTR
1070
     0
1070
     1
  0
LINE
  5
2D3E2
  8
0
 10
3092.9781405192879902
 20
142.0394428431418135
 30
0.0
 11
3092.9831618910980069
 21
141.8633760717324037
 31
0.0
  0
LINE
  5
2D3E3
  8
0
 10
3093.3085455515879403
 20
149.6238738650419009
 30
0.0
 11
3093.3085455515879403
 21
149.7766091537417878
 31
0.0
  0
LINE
  5
2D3E4
  8
0
 10
3093.3085455515879403
 20
150.181916347941808
 30
0.0
 11
3093.3085455515879403
 21
150.3325352824417962
 31
0.0
  0
LINE
  5
2D3E5
  8
0
 10
3093.4873923193881637
 20
148.8266338427418134
 30
0.0
 11
3093.4873514491878268
 21
152.1250070808418116
 31
0.0
  0
LINE
  5
2D3E6
  8
0
 10
3096.542339081217051
 20
146.0373059221923029
 30
0.0
 11
3096.5540581568880043
 21
146.0453049101419083
 31
0.0
  0
LINE
  5
2D3E7
  8
0
 10
3096.4834786770879873
 20
145.2193313595417976
 30
0.0
 11
3096.4834786770879873
 21
145.2807208413418039
 31
0.0
  0
LINE
  5
2D3E8
  8
0
 10
3096.4952897006878629
 20
145.4058986288418112
 30
0.0
 11
3096.4952897006878629
 21
145.2190635646402939
 31
0.0
  0
LINE
  5
2D3E9
  8
0
 10
3096.5445022991880251
 20
146.0987983241417965
 30
0.0
 11
3096.5445022991880251
 21
146.1066723372418039
 31
0.0
  0
LINE
  5
2D3EA
  8
0
 10
3096.6547385195881361
 20
146.0463511372090863
 30
0.0
 11
3096.6547385195881361
 21
146.0555050760418965
 31
0.0
  0
LINE
  5
2D3EB
  8
0
 10
3096.6578881258878937
 20
146.0463511461524035
 30
0.0
 11
3096.6578881258878937
 21
146.0594282428417898
 31
0.0
  0
LINE
  5
2D3EC
  8
0
 10
3096.7216676534881117
 20
146.1066723348417895
 30
0.0
 11
3096.7216676534881117
 21
146.046358928837094
 31
0.0
  0
LINE
  5
2D3ED
  8
0
 10
3100.231510070071181
 20
145.2032290971582995
 30
0.0
 11
3097.9396601534881484
 21
145.2080268550417941
 31
0.0
  0
LINE
  5
2D3EE
  8
0
 10
3096.4834786770879873
 20
145.2807208413418039
 30
0.0
 11
3096.4726579452881197
 21
145.2807208413418039
 31
0.0
  0
LINE
  5
2D3EF
  8
0
 10
3096.4699169564728436
 20
145.3889885578417989
 30
0.0
 11
3096.0270059653880708
 21
145.3889885578417989
 31
0.0
  0
LINE
  5
2D3F0
  8
0
 10
3096.5149747400878368
 20
145.4255836722419133
 30
0.0
 11
3100.2315100696778245
 21
145.4255836722419133
 31
0.0
  0
LINE
  5
2D3F1
  8
0
 10
3095.6411690911882033
 20
145.4823445497418106
 30
0.0
 11
3093.8346541406881443
 21
145.4823445497418106
 31
0.0
  0
LINE
  5
2D3F2
  8
0
 10
3096.6547385195881361
 20
146.0463511372090863
 30
0.0
 11
3100.2315100685809739
 21
146.0463612934418052
 31
0.0
  0
LINE
  5
2D3F3
  8
0
 10
3096.5872545058878131
 20
146.0555050738418004
 30
0.0
 11
3096.6547385195881361
 21
146.0555050760418965
 31
0.0
  0
LINE
  5
2D3F4
  8
0
 10
3096.6382030865879642
 20
146.0791132821418046
 30
0.0
 11
3096.5641873384879545
 21
146.0791132821418046
 31
0.0
  0
LINE
  5
2D3F5
  8
0
 10
3096.5641873409881555
 20
146.1263573766418062
 30
0.0
 11
3096.7019826140881378
 21
146.1263573766418062
 31
0.0
  0
LINE
  5
2D3F6
  8
0
 10
3100.2315100655678179
 20
147.7510177154917983
 30
0.0
 11
3094.5683142242878603
 21
147.7510176670419071
 31
0.0
  0
LINE
  5
2D3F7
  8
0
 10
3092.7785059821881077
 20
149.365015541241803
 30
0.0
 11
3093.2291587443878598
 21
149.3532049314418089
 31
0.0
  0
LINE
  5
2D3F8
  8
0
 10
3092.7013265531882098
 20
150.0489763532418976
 30
0.0
 11
3092.7250146735191265
 21
150.0495978309062934
 31
0.0
  0
LINE
  5
2D3F9
  8
0
 10
3093.2414699995179035
 20
149.5282045737417889
 30
0.0
 11
3093.2921335250880475
 21
149.5282045737417889
 31
0.0
  0
LINE
  5
2D3FA
  8
0
 10
3093.3034284237292013
 20
149.6238738650419009
 30
0.0
 11
3093.3085455515879403
 21
149.6238738650419009
 31
0.0
  0
LINE
  5
2D3FB
  8
0
 10
3093.3085455515879403
 20
150.3325352824417962
 30
0.0
 11
3093.3035256682019281
 21
150.3325352824417962
 31
0.0
  0
LINE
  5
2D3FC
  8
0
 10
3092.7250348285401742
 20
149.9068107877257034
 30
0.0
 11
3092.7013265531882098
 21
149.9074327942417995
 31
0.0
  0
LINE
  5
2D3FD
  8
0
 10
3092.7785059821881077
 20
150.5913936062418941
 30
0.0
 11
3093.2291598887932196
 21
150.6032042460342097
 31
0.0
  0
LINE
  5
2D3FE
  8
0
 10
3093.2414708239280117
 20
150.4282045737417945
 30
0.0
 11
3093.2921335250880475
 21
150.4282045737419082
 31
0.0
  0
LINE
  5
2D3FF
  8
0
 10
3094.5681976542878147
 20
153.2006929981417898
 30
0.0
 11
3100.2315100559358143
 21
153.2006928541918001
 31
0.0
  0
LINE
  5
2D400
  8
0
 10
3094.3325498039471313
 20
153.3778865226757944
 30
0.0
 11
3106.130470307296946
 21
153.3778865435290868
 31
0.0
  0
ARC
  5
2D401
  8
0
 10
3080.8258663245428579
 20
145.1020131255768888
 30
0.0
 40
15.64781213047665
 50
0.4310296540532428
 51
0.6543675493736232
  0
ARC
  5
2D402
  8
0
 10
3083.2993353934270999
 20
149.9792627508417979
 30
0.0
 40
10.0112614824825297
 50
358.8401073177954004
 51
1.1598926822037421
  0
ARC
  5
2D403
  8
0
 10
3088.2065858811902217
 20
149.8744616125545974
 30
0.0
 40
5.1028979592051193
 50
358.6158479355094073
 51
358.9012367861562893
  0
ARC
  5
2D404
  8
0
 10
3086.659903173388102
 20
149.9094240168417969
 30
0.0
 40
6.6499743358999996
 50
358.4298000987997739
 51
358.6366032247992734
  0
ARC
  5
2D405
  8
0
 10
3087.3596427832380868
 20
149.8901383263327034
 30
0.0
 40
5.9499690163570014
 50
358.2476134292509755
 51
358.4308051818849208
  0
ARC
  5
2D406
  8
0
 10
3089.7315644292880279
 20
145.0514949954418
 30
0.0
 40
6.1983034383
 50
2.144020958099647
 51
3.327840131299943
  0
ARC
  5
2D407
  8
0
 10
3093.9914889574370136
 20
144.6236328043295885
 30
0.0
 40
0.9979437543383745
 50
164.200578258921098
 51
180.3359613367775012
  0
ARC
  5
2D408
  8
0
 10
3093.8494772154640486
 20
144.4361996132105901
 30
0.0
 40
1.0462499470852009
 50
90.8117831134895539
 51
95.4530776031420629
  0
ARC
  5
2D409
  8
0
 10
3096.5872507598519405
 20
145.9963985608252983
 30
0.0
 40
0.0591065131352807
 50
89.9963687243130579
 51
124.1646289376744932
  0
ARC
  5
2D40A
  8
0
 10
3096.5737330474880764
 20
145.9873462468418097
 30
0.0
 40
0.0590046632
 50
122.1446837944690031
 51
180.2861808323995092
  0
ARC
  5
2D40B
  8
0
 10
3096.5641873384879545
 20
146.0987983215418069
 30
0.0
 40
0.0196850394
 50
180.0000026861997924
 51
270.0
  0
ARC
  5
2D40C
  8
0
 10
3096.6382030865879642
 20
146.0594282428417898
 30
0.0
 40
0.0196850394
 50
0.0
 51
90.0000000060969114
  0
ARC
  5
2D40D
  8
0
 10
3096.5641872643768693
 20
146.1066724114525073
 30
0.0
 40
0.0196849651894623
 50
89.9997770141411166
 51
180.0002160003242864
  0
ARC
  5
2D40E
  8
0
 10
3096.7019826869409371
 20
146.1066724100957117
 30
0.0
 40
0.0196849665463063
 50
359.9997809635282238
 51
90.0002120510268071
  0
ARC
  5
2D40F
  8
0
 10
3096.5149747400878368
 20
145.4058986328417973
 30
0.0
 40
0.0196850394
 50
90.0
 51
180.0
  0
ARC
  5
2D410
  8
0
 10
3098.7433314146719567
 20
149.9790538198585921
 30
0.0
 40
6.0187301695906639
 50
174.7799319553560053
 51
185.1837997874868904
  0
ARC
  5
2D411
  8
0
 10
3093.3267194962882058
 20
149.4835045545418097
 30
0.0
 40
0.5794689636000001
 50
186.3756605469990006
 51
186.5715653632020121
  0
ARC
  5
2D412
  8
0
 10
3092.7018697128919484
 20
149.9274454913663988
 30
0.0
 40
0.0200200666498193
 50
180.0559523137901863
 51
268.4453309611729992
  0
ARC
  5
2D413
  8
0
 10
3092.7018496756058994
 20
150.0289831759141066
 30
0.0
 40
0.0200000199180162
 50
91.4988047757697416
 51
180.0
  0
ARC
  5
2D414
  8
0
 10
3093.312060006287993
 20
150.3074824553418125
 30
0.0
 40
0.019271744
 50
249.702980120961314
 51
259.4925667889295937
  0
ARC
  5
2D415
  8
0
 10
3094.3752730972860263
 20
151.8638712976002978
 30
0.0
 40
1.5212200819810171
 50
107.1825155055196035
 51
137.4692612468842867
  0
ARC
  5
2D416
  8
0
 10
3094.4126365478600746
 20
151.4483755828125879
 30
0.0
 40
1.931172274449543
 50
92.3767681214891496
 51
104.5990078780927064
  0
ARC
  5
2D417
  8
0
 10
3094.739196822915801
 20
151.9660169081670062
 30
0.0
 40
1.7985042197027259
 50
165.9809490005009138
 51
177.4103281380484987
  0
ARC
  5
2D418
  8
0
 10
3094.223410052879899
 20
152.0643106010257952
 30
0.0
 40
1.2746122208002191
 50
139.4947249720285924
 51
164.6511418027984917
  0
ARC
  5
2D419
  8
0
 10
3094.5655399397210203
 20
152.1225048797315083
 30
0.0
 40
1.078191394015013
 50
89.8587672069233037
 51
179.8670313150300899
  0
ARC
  5
2D41A
  8
0
 10
3094.5603047403610617
 20
148.8271620189246107
 30
0.0
 40
1.0729125509794479
 50
180.0282057165840968
 51
220.0559057180921059
  0
ARC
  5
2D41B
  8
0
 10
3094.5676873788461307
 20
148.8339478263050921
 30
0.0
 40
1.082930340685462
 50
220.079343318674205
 51
270.033165198961683
  0
ARC
  5
2D41C
  8
0
 10
3100.2285129711449372
 20
226.9457564479154996
 30
0.0
 40
79.7816177117724123
 50
267.3500191123637251
 51
270.0021523870468059
  0
ARC
  5
2D41D
  8
0
 10
3101.0235645949210266
 20
241.8737587989330109
 30
0.0
 40
94.7304721698465784
 50
265.9958747310952276
 51
267.2871082958254192
  0
ARC
  5
2D41E
  8
0
 10
3094.5251676696070717
 20
148.8904040120571892
 30
0.0
 40
1.5203505369816439
 50
213.786128537903096
 51
265.606392587792584
  0
ARC
  5
2D41F
  8
0
 10
3094.5866895754697907
 20
148.9086530724991917
 30
0.0
 40
1.581745428106262
 50
181.3597979282376969
 51
213.0962478560869044
  0
LINE
  5
2D420
  8
0
 10
3093.0053895878550065
 20
148.8711171096828139
 30
0.0
 11
3093.0052089577879997
 21
149.3590741588519109
 31
0.0
  0
ARC
  5
2D421
  8
0
 10
3093.0050264456781406
 20
150.5077303137009039
 30
0.0
 40
0.2561624412205522
 50
164.5337210142419906
 51
175.7652265045666127
  0
ARC
  5
2D422
  8
0
 10
3092.7794781429811337
 20
150.5689196117307063
 30
0.0
 40
0.0224950111334357
 50
92.4769075822955529
 51
161.5427699334746023
  0
ARC
  5
2D423
  8
0
 10
3092.7792631965098735
 20
149.3868022553845094
 30
0.0
 40
0.0217998689598008
 50
210.9137795134724058
 51
268.0094415368550926
  0
ARC
  5
2D424
  8
0
 10
3092.8089493962120287
 20
149.4017082911524881
 30
0.0
 40
0.0549820095732795
 50
190.6373364684642127
 51
208.3465751102592094
  0
ARC
  5
2D425
  8
0
 10
3093.2087313603551593
 20
149.4729176200540053
 30
0.0
 40
0.4610542389482989
 50
184.685530078672798
 51
190.1637494475615995
  0
ARC
  5
2D426
  8
0
 10
3081.1695972799871015
 20
149.9973261665519999
 30
0.0
 40
11.61387774695649
 50
359.9321377814454195
 51
1.788453479647482
  0
ARC
  5
2D427
  8
0
 10
3089.3733232666659205
 20
150.2597633330018994
 30
0.0
 40
3.405963334600381
 50
1.68286876788698
 51
4.2133925953833149
  0
ARC
  5
2D428
  8
0
 10
3092.3326942776839132
 20
150.4847852214352031
 30
0.0
 40
0.4381135540849165
 50
3.2998856286454901
 51
9.8035480040488299
  0
ARC
  5
2D429
  8
0
 10
3092.7050105700909626
 20
150.550068100205209
 30
0.0
 40
0.0601255858775059
 50
8.9124343046641084
 51
19.9082474162801404
  0
ARC
  5
2D42A
  8
0
 10
3092.7545968343169989
 20
150.568047636741511
 30
0.0
 40
0.0073803679987057
 50
19.7514134427001693
 51
40.5105202183163797
  0
ARC
  5
2D42B
  8
0
 10
3092.7589220467370978
 20
150.5717232141543036
 30
0.0
 40
0.0017044237683226
 50
41.0185293771653221
 51
72.5595175733846816
  0
ARC
  5
2D42C
  8
0
 10
3092.7591666967700803
 20
150.5723253760835121
 30
0.0
 40
0.001057943388003
 50
75.4270785955584557
 51
120.732866095354197
  0
ARC
  5
2D42D
  8
0
 10
3092.7606994606808257
 20
150.5702377879424034
 30
0.0
 40
0.0036442780021576
 50
124.6770225422534963
 51
152.7713846981650079
  0
ARC
  5
2D42E
  8
0
 10
3092.7704542626561306
 20
150.5647640729314105
 30
0.0
 40
0.0148280882131372
 50
151.2104077205740964
 51
160.5208678853383049
  0
ARC
  5
2D42F
  8
0
 10
3080.7571537384869771
 20
149.9644993135264883
 30
0.0
 40
12.0263282635759907
 50
358.3031736797240114
 51
0.090858759335067
  0
ARC
  5
2D430
  8
0
 10
3089.2173567135450867
 20
149.7074619605645012
 30
0.0
 40
3.5622297387918591
 50
355.6753281467438228
 51
358.4062835746278211
  0
ARC
  5
2D431
  8
0
 10
3092.2867475130469757
 20
149.4759916787004101
 30
0.0
 40
0.484123940857423
 50
350.4916596482776185
 51
355.5989053550778749
  0
ARC
  5
2D432
  8
0
 10
3092.7136964447518039
 20
149.4041497780877137
 30
0.0
 40
0.0511740139993903
 50
338.0673476806026088
 51
350.8574552478456781
  0
ARC
  5
2D433
  8
0
 10
3092.7563212754757842
 20
149.3871910467134114
 30
0.0
 40
0.0053032478367848
 50
313.9793658542529897
 51
336.0167764763759806
  0
ARC
  5
2D434
  8
0
 10
3092.7591589001422108
 20
149.384231208571407
 30
0.0
 40
0.0012030080928775
 50
264.1885189125197826
 51
314.6167876106388803
  0
ARC
  5
2D435
  8
0
 10
3092.7592852053048773
 20
149.3844357999662122
 30
0.0
 40
0.0014232112180832
 50
227.4726368430135039
 51
259.9599974156652138
  0
ARC
  5
2D436
  8
0
 10
3092.765170413028045
 20
149.3893659853029874
 30
0.0
 40
0.0090902772061319
 50
197.6429672166269995
 51
221.1276427818447132
  0
ARC
  5
2D437
  8
0
 10
3092.8015716400432211
 20
149.4023877459731011
 30
0.0
 40
0.0477458680782962
 50
192.8689469357408086
 51
199.2951523436045989
  0
ARC
  5
2D438
  8
0
 10
3092.6585106118391195
 20
149.3704492494287877
 30
0.0
 40
0.0988378293487141
 50
12.4477713657282791
 51
13.9493917499214799
  0
ARC
  5
2D439
  8
0
 10
3085.5948665698711011
 20
149.9782115781177936
 30
0.0
 40
7.6598335696202566
 50
355.319728758221288
 51
4.6801663304332681
  0
ARC
  5
2D43A
  8
0
 10
3090.5593273615590988
 20
149.7767791350246114
 30
0.0
 40
2.7483578116742131
 50
355.7409737304386113
 51
358.5699004888596164
  0
ARC
  5
2D43B
  8
0
 10
3092.9452952097631169
 20
149.598088714228993
 30
0.0
 40
0.3557096789033096
 50
349.9727641549196733
 51
355.9023137634533214
  0
ARC
  5
2D43C
  8
0
 10
3093.262630534589789
 20
149.5424791377803047
 30
0.0
 40
0.0335427118032069
 50
337.9593755515774092
 51
349.1304404959478802
  0
ARC
  5
2D43D
  8
0
 10
3093.2893621184639414
 20
149.5317540900896063
 30
0.0
 40
0.0047408592998644
 50
318.1514516361191909
 51
336.8696965776383081
  0
ARC
  5
2D43E
  8
0
 10
3093.2920548849338047
 20
149.5292997613566115
 30
0.0
 40
0.0010980073703595
 50
274.1070852929539114
 51
319.8079155966926237
  0
ARC
  5
2D43F
  8
0
 10
3093.2920909154117908
 20
150.4272372494862964
 30
0.0
 40
0.0009682622577919
 50
50.2014107142178574
 51
87.4778080537095661
  0
ARC
  5
2D440
  8
0
 10
3093.2898445183082003
 20
150.4248918868092062
 30
0.0
 40
0.0042140935682806
 50
20.325581842983059
 51
47.1454297993370588
  0
ARC
  5
2D441
  8
0
 10
3093.2435182750059539
 20
150.4082819178750015
 30
0.0
 40
0.053427820251847
 50
8.1795404007526393
 51
19.7723331856730411
  0
ARC
  5
2D442
  8
0
 10
3092.0368845857278757
 20
150.2662641348823911
 30
0.0
 40
1.2683735635881139
 50
2.17575459492984
 51
6.7744696973071861
  0
ARC
  5
2D443
  8
0
 10
3087.6523788302101821
 20
150.0688687637338887
 30
0.0
 40
5.657296327426927
 50
1.144995810984188
 51
2.4876457619571108
  0
ARC
  5
2D444
  8
0
 10
3131.2836367944159974
 20
146.5077397778509862
 30
0.0
 40
34.7728062873864801
 50
180.8579794706427037
 51
181.7833760614018104
  0
ARC
  5
2D445
  8
0
 10
3099.6349547510458251
 20
9.189876465029684
 30
0.0
 40
136.3026153410540076
 50
89.7492329033001255
 51
90.4787985422220515
  0
ARC
  5
2D446
  8
0
 10
3098.7454769137029871
 20
106.7736388926766011
 30
0.0
 40
38.7148979375094129
 50
90.3693024565226608
 51
91.427326891250047
  0
ARC
  5
2D447
  8
0
 10
3097.8555836990890384
 20
140.1912170312955936
 30
0.0
 40
5.2858318758807643
 50
90.8070849380827525
 51
98.0018598724421253
  0
ARC
  5
2D448
  8
0
 10
3094.3200510763458624
 20
145.2803923443165104
 30
0.0
 40
2.1526068940066678
 50
0.0087435812162247
 51
2.891724928429861
  0
ARC
  5
2D449
  8
0
 10
3095.6536370759308738
 20
144.399183185078698
 30
0.0
 40
1.083233120128106
 50
80.7653886397995251
 51
90.6594874783310161
  0
ARC
  5
2D44A
  8
0
 10
3095.8059428400661091
 20
145.2943706046731052
 30
0.0
 40
0.1753332130141425
 50
58.223502126748663
 51
82.946989021212687
  0
ARC
  5
2D44B
  8
0
 10
3095.8681279522429577
 20
145.4005635679413899
 30
0.0
 40
0.0523998185335554
 50
11.8244745356362202
 51
54.8780283929568924
  0
ARC
  5
2D44C
  8
0
 10
3093.819277206579045
 20
144.6574851625312874
 30
0.0
 40
0.8231455142673482
 50
94.824214067769816
 51
163.2041374422373963
  0
ARC
  5
2D44D
  8
0
 10
3097.5876464999960263
 20
193.6577737730461024
 30
0.0
 40
48.451025686056461
 50
268.6941528563697261
 51
270.4162775469096118
  0
ARC
  5
2D44E
  8
0
 10
3098.3580624661058209
 20
193.6723793267545091
 30
0.0
 40
48.4892969808643386
 50
267.2998463873327069
 51
267.7844077252177044
  0
ARC
  5
2D44F
  8
0
 10
3096.0711853389711905
 20
145.5914258277161082
 30
0.0
 40
0.3545176257809112
 50
252.6980503007987977
 51
270.4183619055378927
  0
ARC
  5
2D450
  8
0
 10
3095.9931258817268827
 20
145.3480109947396954
 30
0.0
 40
0.0989247102218284
 50
234.2731691225201871
 51
253.9341031528038002
  0
ARC
  5
2D451
  8
0
 10
3095.9471555385730426
 20
145.2860219823502064
 30
0.0
 40
0.0217872648332642
 50
186.9576221929021074
 51
237.2263531013396971
  0
ARC
  5
2D452
  8
0
 10
3097.4827169615991806
 20
145.2475596585516939
 30
0.0
 40
1.5169773513836671
 50
176.887410363672501
 51
179.7964123905510121
  0
ARC
  5
2D453
  8
0
 10
3093.6493614955579687
 20
145.2229031886213875
 30
0.0
 40
2.3210848138898501
 50
0.707775642093676
 51
2.6428558494818599
  0
ARC
  5
2D454
  8
0
 10
3100.4085925884410244
 20
603.7477734975258272
 30
0.0
 40
458.5735131117077117
 50
269.1786960469519272
 51
269.9778746899033877
  0
ARC
  5
2D455
  8
0
 10
3093.8060245575738918
 20
144.4969594406385909
 30
0.0
 40
0.725009177329193
 50
87.6767156063706352
 51
176.6640740742635103
  0
LINE
  5
2D456
  8
0
 10
3093.0822438892728314
 20
144.539147725805492
 30
0.0
 11
3093.0664764841399119
 21
137.101399804930594
 31
0.0
  0
ARC
  5
2D457
  8
0
 10
3108.7757633402079591
 20
137.390335649236107
 30
0.0
 40
15.7119437832611393
 50
181.0537039765775091
 51
189.9785035669783042
  0
ARC
  5
2D458
  8
0
 10
3104.7295171475680036
 20
136.7609184523238071
 30
0.0
 40
11.6181252336898808
 50
190.3791109155093011
 51
203.1205026103459943
  0
ARC
  5
2D459
  8
0
 10
3107.0060324881428642
 20
137.6088857642982077
 30
0.0
 40
14.0452244486512594
 50
202.6552393293171974
 51
220.7502679324865085
  0
ARC
  5
2D45A
  8
0
 10
3100.2997358627999347
 20
131.9810158426024884
 30
0.0
 40
5.2923540005595173
 50
221.9863225116141905
 51
246.2547268367628135
  0
ARC
  5
2D45B
  8
0
 10
3100.3157970846500575
 20
131.9619864192719945
 30
0.0
 40
5.281450260233286
 50
246.012108722863303
 51
261.7532137574800117
  0
ARC
  5
2D45C
  8
0
 10
3100.1748098822631619
 20
130.6992423510785102
 30
0.0
 40
4.011756524026536
 50
261.159143971825813
 51
270.8098170411424235
  0
ARC
  5
2D45D
  8
0
 10
3191.5949794905318413
 20
144.8292157738707999
 30
0.0
 40
98.6562910395756631
 50
180.5055844166105032
 51
181.6204088265176892
  0
ARC
  5
2D45E
  8
0
 10
3019.8281615822002095
 20
143.5168271673503
 30
0.0
 40
73.1736835940381809
 50
358.705219848499496
 51
0.8620914001471163
  0
ARC
  5
2D45F
  8
0
 10
3156.7093281538791416
 20
140.1638070184463061
 30
0.0
 40
63.7488258834505714
 50
178.4722907163788932
 51
181.8129171673838869
  0
ARC
  5
2D460
  8
0
 10
3109.2764559360098247
 20
137.697670555490987
 30
0.0
 40
16.29024365117305
 50
178.419273471893888
 51
192.8057907076878905
  0
ARC
  5
2D461
  8
0
 10
3104.7711251544010338
 20
136.8712760557461934
 30
0.0
 40
11.7153920454069098
 50
193.7485225883744135
 51
200.4315170105500954
  0
ARC
  5
2D462
  8
0
 10
3105.1868304544309467
 20
136.963686536527689
 30
0.0
 40
12.1373457999207002
 50
200.1552624832789888
 51
208.9209789615051136
  0
ARC
  5
2D463
  8
0
 10
3096.0269482967628392
 20
145.3300177329109886
 30
0.0
 40
0.0589708531283724
 50
89.9439694497896198
 51
180.086377994697898
  0
LINE
  5
2D464
  8
0
 10
3107.4848796320388828
 20
142.0394428687831123
 30
0.0
 11
3107.47985826085187
 21
141.8633760973559106
 31
0.0
  0
LINE
  5
2D465
  8
0
 10
3106.9756278079457843
 20
148.8266338665827959
 30
0.0
 11
3106.9756686664859444
 21
152.1250071046829078
 31
0.0
  0
LINE
  5
2D466
  8
0
 10
3103.9206810559771839
 20
146.0373059352338032
 30
0.0
 11
3103.9089619802780362
 21
146.0453049231419129
 31
0.0
  0
LINE
  5
2D467
  8
0
 10
3103.9795414629979859
 20
145.2193313727914017
 30
0.0
 11
3103.9795414627810715
 21
145.2807208545914079
 31
0.0
  0
LINE
  5
2D468
  8
0
 10
3103.9677304387378172
 20
145.4058986420496922
 30
0.0
 11
3103.9677304393990198
 21
145.2190635778480896
 31
0.0
  0
LINE
  5
2D469
  8
0
 10
3103.9185178377888406
 20
146.0987983371757082
 30
0.0
 11
3103.918517837761101
 21
146.1066723502756872
 31
0.0
  0
LINE
  5
2D46A
  8
0
 10
3103.8082816175738117
 20
146.0463511498531943
 30
0.0
 11
3103.8082816175419794
 21
146.0555050886860045
 31
0.0
  0
LINE
  5
2D46B
  8
0
 10
3103.8051320112740541
 20
146.0463511587853986
 30
0.0
 11
3103.8051320112281246
 21
146.0594282554748986
 31
0.0
  0
LINE
  5
2D46C
  8
0
 10
3103.7413524834610143
 20
146.1066723472494004
 30
0.0
 11
3103.7413524836738361
 21
146.0463589412445913
 31
0.0
  0
LINE
  5
2D46D
  8
0
 10
3100.231510070071181
 20
145.2032290971582995
 30
0.0
 11
3102.5233599866378427
 21
145.2080268631436866
 31
0.0
  0
LINE
  5
2D46E
  8
0
 10
3103.9795414627810715
 20
145.2807208545914079
 30
0.0
 11
3103.9903621945809391
 21
145.280720854629692
 31
0.0
  0
LINE
  5
2D46F
  8
0
 10
3103.9931031830128632
 20
145.3889885711394072
 30
0.0
 11
3104.4360141740980907
 21
145.3889885727051023
 31
0.0
  0
LINE
  5
2D470
  8
0
 10
3103.9480453992691764
 20
145.4255836853801043
 30
0.0
 11
3100.2315100696778245
 21
145.4255836722419133
 31
0.0
  0
LINE
  5
2D471
  8
0
 10
3104.8218510479678116
 20
145.4823445659689867
 30
0.0
 11
3106.6283659984678707
 21
145.4823445723552027
 31
0.0
  0
LINE
  5
2D472
  8
0
 10
3103.8082816175738117
 20
146.0463511498531943
 30
0.0
 11
3100.2315100685809739
 21
146.0463612934418052
 31
0.0
  0
LINE
  5
2D473
  8
0
 10
3103.8757656312418476
 20
146.0555050867245939
 30
0.0
 11
3103.8082816175419794
 21
146.0555050886860045
 31
0.0
  0
LINE
  5
2D474
  8
0
 10
3103.8248170504589325
 20
146.0791132948444897
 30
0.0
 11
3103.8988327985589422
 21
146.0791132951061115
 31
0.0
  0
LINE
  5
2D475
  8
0
 10
3103.8988327958918489
 20
146.1263573896061132
 30
0.0
 11
3103.7610375227909572
 21
146.1263573891189935
 31
0.0
  0
LINE
  5
2D476
  8
0
 10
3100.2315100655678179
 20
147.7510177154917983
 30
0.0
 11
3105.8947059068491399
 21
147.7510176870615908
 31
0.0
  0
LINE
  5
2D477
  8
0
 10
3105.8948224575829045
 20
153.2006930181620987
 30
0.0
 11
3100.2315100559358143
 21
153.2006928541918001
 31
0.0
  0
ARC
  5
2D478
  8
0
 10
3119.6371538159578449
 20
145.1020131941772888
 30
0.0
 40
15.64781213047665
 50
179.3456326531716911
 51
179.5689705484917056
  0
ARC
  5
2D479
  8
0
 10
3110.7314557113909359
 20
145.0514950325598988
 30
0.0
 40
6.1983034383
 50
176.6721600712450879
 51
177.8559792444449101
  0
ARC
  5
2D47A
  8
0
 10
3106.4715311847539851
 20
144.6236328263885866
 30
0.0
 40
0.9979437543383745
 50
359.6640388657669973
 51
15.7994219436199508
  0
ARC
  5
2D47B
  8
0
 10
3106.6135429273899717
 20
144.4361996357714872
 30
0.0
 40
1.0462499470852009
 50
84.5469225994149838
 51
89.1882170890571047
  0
ARC
  5
2D47C
  8
0
 10
3103.8757693774859945
 20
145.9963985737080066
 30
0.0
 40
0.0591065131352807
 50
55.8353712648658913
 51
90.0036314782392992
  0
ARC
  5
2D47D
  8
0
 10
3103.8892870898830552
 20
145.9873462597724085
 30
0.0
 40
0.0590046632
 50
359.7138193701446198
 51
57.8553164080432722
  0
ARC
  5
2D47E
  8
0
 10
3103.8988327984889111
 20
146.0987983345061139
 30
0.0
 40
0.0196850394
 50
270.0000002025524282
 51
359.9999975163444219
  0
ARC
  5
2D47F
  8
0
 10
3103.8248170505280541
 20
146.0594282555445034
 30
0.0
 40
0.0196850394
 50
90.0000001964555025
 51
180.0000002025441859
  0
ARC
  5
2D480
  8
0
 10
3103.898832872571802
 20
146.1066724244167858
 30
0.0
 40
0.0196849651894623
 50
359.9997842022199279
 51
90.0002231884112689
  0
ARC
  5
2D481
  8
0
 10
3103.7610374500068247
 20
146.1066724225728137
 30
0.0
 40
0.0196849665463063
 50
89.9997881514995157
 51
180.0002192390159905
  0
ARC
  5
2D482
  8
0
 10
3103.9480453993378433
 20
145.4058986459801019
 30
0.0
 40
0.0196850394
 50
0.0000002025450501
 51
90.0000002025523713
  0
ARC
  5
2D483
  8
0
 10
3106.087747019310882
 20
151.8638713183025004
 30
0.0
 40
1.5212200819810171
 50
42.5307389556619526
 51
72.8174846970314036
  0
ARC
  5
2D484
  8
0
 10
3106.0503835702061224
 20
151.4483756033826864
 30
0.0
 40
1.931172274449543
 50
75.4009923244589828
 51
87.6232320810550789
  0
ARC
  5
2D485
  8
0
 10
3105.7238232933200379
 20
151.9660169275827002
 30
0.0
 40
1.7985042197027259
 50
2.5895530394492621
 51
14.0190512020434301
  0
ARC
  5
2D486
  8
0
 10
3106.2396100630071487
 20
152.0643106222649124
 30
0.0
 40
1.2746122208002191
 50
15.3488583997409496
 51
40.5052752305141794
  0
ARC
  5
2D487
  8
0
 10
3105.8974801759618458
 20
152.1225048997611111
 30
0.0
 40
1.078191394015013
 50
0.1329688875146991
 51
90.1412329956296645
  0
ARC
  5
2D488
  8
0
 10
3105.9027153869701579
 20
148.8271620389726877
 30
0.0
 40
1.0729125509794479
 50
319.9440944844424166
 51
359.9717944859609133
  0
ARC
  5
2D489
  8
0
 10
3105.8953327484618967
 20
148.8339478463271064
 30
0.0
 40
1.082930340685462
 50
269.9668350035647109
 51
319.9206568838687872
  0
ARC
  5
2D48A
  8
0
 10
3100.2345068800318586
 20
226.9457564479261009
 30
0.0
 40
79.7816177117724123
 50
269.9978478155056223
 51
272.6499810901707974
  0
ARC
  5
2D48B
  8
0
 10
3099.4394552034841581
 20
241.8737587961329893
 30
0.0
 40
94.7304721698465784
 50
272.7128919067196193
 51
274.0041254714565184
  0
ARC
  5
2D48C
  8
0
 10
3105.9378524575017764
 20
148.8904040322294975
 30
0.0
 40
1.5203505369816439
 50
274.3936076147556946
 51
326.2138716646434773
  0
ARC
  5
2D48D
  8
0
 10
3105.8763305515740285
 20
148.9086530924539886
 30
0.0
 40
1.581745428106262
 50
326.9037523464608057
 51
358.6402022743084785
  0
LINE
  5
2D48E
  8
0
 10
3107.4576305393220537
 20
148.8711171352275926
 30
0.0
 11
3107.5204909243861948
 21
152.0472748611626059
 31
0.0
  0
ARC
  5
2D48F
  8
0
 10
3069.1793833411152264
 20
146.5077396680794095
 30
0.0
 40
34.7728062873864801
 50
358.2166241411429155
 51
359.1420207319019937
  0
ARC
  5
2D490
  8
0
 10
3100.8280658699140986
 20
9.1898764671385607
 30
0.0
 40
136.3026153410540076
 50
89.5212016603113199
 51
90.2507672992281442
  0
ARC
  5
2D491
  8
0
 10
3101.7175433622910532
 20
106.7736388979297999
 30
0.0
 40
38.7148979375094129
 50
88.572673311287005
 51
89.6306977460078542
  0
ARC
  5
2D492
  8
0
 10
3102.6074364587720993
 20
140.1912170396946067
 30
0.0
 40
5.2858318758807643
 50
81.9981403301022169
 51
89.1929152644636645
  0
ARC
  5
2D493
  8
0
 10
3106.1429690635241059
 20
145.2803923652139986
 30
0.0
 40
2.1526068940066678
 50
177.1082752741139075
 51
179.9912566213288017
  0
ARC
  5
2D494
  8
0
 10
3104.8093830670541138
 20
144.399183201261792
 30
0.0
 40
1.083233120128106
 50
89.3405127242347845
 51
99.2346115627463234
  0
ARC
  5
2D495
  8
0
 10
3104.6570772997552012
 20
145.2943706203178067
 30
0.0
 40
0.1753332130141425
 50
97.0530111813351368
 51
121.7764980757849997
  0
ARC
  5
2D496
  8
0
 10
3104.594892187203186
 20
145.4005635833663064
 30
0.0
 40
0.0523998185335554
 50
125.121971809581197
 51
168.1755256669088112
  0
ARC
  5
2D497
  8
0
 10
3106.6437429354928099
 20
144.6574851851989933
 30
0.0
 40
0.8231455142673482
 50
16.795862760305269
 51
85.1757861347705614
  0
ARC
  5
2D498
  8
0
 10
3102.8753734688571058
 20
193.6577737823922973
 30
0.0
 40
48.451025686056461
 50
269.5837226556482165
 51
271.3058473461832136
  0
ARC
  5
2D499
  8
0
 10
3102.1049575026950151
 20
193.6723793333773074
 30
0.0
 40
48.4892969808643386
 50
272.2155924773297215
 51
272.7001538152101148
  0
ARC
  5
2D49A
  8
0
 10
3104.3918347997991987
 20
145.5914258424230923
 30
0.0
 40
0.3545176257809112
 50
269.581638296993674
 51
287.3019499017469798
  0
ARC
  5
2D49B
  8
0
 10
3104.4698942579038885
 20
145.3480110097227112
 30
0.0
 40
0.0989247102218284
 50
286.0658970497383962
 51
305.726831080029001
  0
ARC
  5
2D49C
  8
0
 10
3104.5158646012769168
 20
145.286021997495709
 30
0.0
 40
0.0217872648332642
 50
302.7736471011991739
 51
353.0423780096439259
  0
ARC
  5
2D49D
  8
0
 10
3102.9803031783872029
 20
145.2475596682687922
 30
0.0
 40
1.5169773513836671
 50
0.2035878119944352
 51
3.1125898388732161
  0
ARC
  5
2D49E
  8
0
 10
3106.8136586445148168
 20
145.2229032118897862
 30
0.0
 40
2.3210848138898501
 50
177.3571443530634895
 51
179.2922245604513023
  0
ARC
  5
2D49F
  8
0
 10
3100.0544259307130233
 20
603.7477734968997538
 30
0.0
 40
458.5735131117077117
 50
270.0221255126228925
 51
270.8213041555952145
  0
ARC
  5
2D4A0
  8
0
 10
3106.6569955850659426
 20
144.4969594633531074
 30
0.0
 40
0.725009177329193
 50
3.335926128279783
 51
92.3232845961658768
  0
LINE
  5
2D4A1
  8
0
 10
3107.3807762532169363
 20
144.5391477510787013
 30
0.0
 11
3107.3965436846428929
 21
137.1013998302595951
 31
0.0
  0
ARC
  5
2D4A2
  8
0
 10
3091.6872568275539379
 20
137.3903356190315037
 30
0.0
 40
15.7119437832611393
 50
350.0214966355658817
 51
358.9462962259667052
  0
ARC
  5
2D4A3
  8
0
 10
3095.7335030224189723
 20
136.7609184364229975
 30
0.0
 40
11.6181252336898808
 50
336.8794975921942978
 51
349.620889287037528
  0
ARC
  5
2D4A4
  8
0
 10
3093.4569876788459624
 20
137.6088857403497911
 30
0.0
 40
14.0452244486512594
 50
319.2497322700514815
 51
337.3447608732241747
  0
ARC
  5
2D4A5
  8
0
 10
3100.1632843240840884
 20
131.9810158423613018
 30
0.0
 40
5.2923540005595173
 50
293.7452733657909789
 51
318.013677690944121
  0
ARC
  5
2D4A6
  8
0
 10
3100.1819659258171669
 20
131.86680368805699
 30
0.0
 40
5.1803685246870064
 50
278.0206094696151808
 51
294.0648016668894229
  0
ARC
  5
2D4A7
  8
0
 10
3100.1130398941181738
 20
132.9373544907130906
 30
0.0
 40
6.2505907666690934
 50
271.0860168220788751
 51
277.2769926206785271
  0
ARC
  5
2D4A8
  8
0
 10
3021.2644295511267956
 20
144.5180973550797887
 30
0.0
 40
86.2560707441372045
 50
358.3533217758189835
 51
359.9732925183232055
  0
ARC
  5
2D4A9
  8
0
 10
3180.6348585639038902
 20
143.5168274515820883
 30
0.0
 40
73.1736835940381809
 50
179.1379088023973054
 51
181.2947803540452867
  0
ARC
  5
2D4AA
  8
0
 10
3043.7536920040788573
 20
140.163806818793006
 30
0.0
 40
63.7488258834505714
 50
358.1870830351616064
 51
1.527709486166106
  0
ARC
  5
2D4AB
  8
0
 10
3091.1865642306661357
 20
137.697670523516507
 30
0.0
 40
16.29024365117305
 50
347.1942094948573185
 51
1.58072673065131
  0
ARC
  5
2D4AC
  8
0
 10
3095.6918950151962235
 20
136.8712760396983015
 30
0.0
 40
11.7153920454069098
 50
339.5684831919963926
 51
346.2514776141732114
  0
ARC
  5
2D4AD
  8
0
 10
3095.2761897148388925
 20
136.9636865190101958
 30
0.0
 40
12.1373457999207002
 50
331.0790212410345248
 51
339.8447377192703129
  0
ARC
  5
2D4AE
  8
0
 10
3104.4360718429320514
 20
145.330017747774491
 30
0.0
 40
0.0589708531283724
 50
359.9136222078474248
 51
90.0560307527628936
  0
LINE
  5
2D4B0
  8
0
 10
3092.9425293603699174
 20
143.9586728391016095
 30
0.0
 11
3092.9425293603699174
 21
149.3607168521396034
 31
0.0
  0
LINE
  5
2D4B1
  8
0
 10
3092.9425293603699174
 20
150.5956922953440937
 30
0.0
 11
3092.9425293603699174
 21
152.047278567754887
 31
0.0
  0
LINE
  5
2D4B2
  8
0
 10
3107.5204909243861948
 20
144.4778905132247928
 30
0.0
 11
3107.5204909243861948
 21
152.0472748611626059
 31
0.0
  0
LINE
  5
2D4B3
  8
0
 10
3092.681849655788028
 20
149.9274259407314105
 30
0.0
 11
3092.681849655788028
 21
150.0289831759141066
 31
0.0
  0
ENDSEC
  0
EOF
