  0
SECTION
  2
HEADER
  9
$ACADVER
  1
AC1009
  9
$INSBASE
 10
4645.687823291677887
 20
232.0827256630641102
 30
0.0
  9
$EXTMIN
 10
4644.7036540481949487
 20
232.0772361571299029
 30
0.0
  9
$EXTMAX
 10
4646.6719925351626443
 20
236.7800780103922023
 30
0.0
  9
$LIMMIN
 10
0.0
 20
0.0
  9
$LIMMAX
 10
11.6929133858000007
 20
8.2677165353999982
  9
$ORTHOMODE
 70
     0
  9
$REGENMODE
 70
     1
  9
$FILLMODE
 70
     1
  9
$QTEXTMODE
 70
     0
  9
$MIRRTEXT
 70
     0
  9
$DRAGMODE
 70
     2
  9
$LTSCALE
 40
0.6431102362
  9
$OSMODE
 70
  4095
  9
$ATTMODE
 70
     1
  9
$TEXTSIZE
 40
0.2
  9
$TRACEWID
 40
0.05
  9
$TEXTSTYLE
  7
STANDARD
  9
$CLAYER
  8
0
  9
$CELTYPE
  6
BYLAYER
  9
$CECOLOR
 62
   256
  9
$DIMSCALE
 40
1.0
  9
$DIMASZ
 40
0.1875
  9
$DIMEXO
 40
0.0625
  9
$DIMDLI
 40
0.4443307087
  9
$DIMRND
 40
0.0
  9
$DIMDLE
 40
0.0
  9
$DIMEXE
 40
0.125
  9
$DIMTP
 40
0.01
  9
$DIMTM
 40
0.01
  9
$DIMTXT
 40
2.0
  9
$DIMCEN
 40
0.1052362205
  9
$DIMTSZ
 40
0.0
  9
$DIMTOL
 70
     1
  9
$DIMLIM
 70
     0
  9
$DIMTIH
 70
     1
  9
$DIMTOH
 70
     1
  9
$DIMSE1
 70
     0
  9
$DIMSE2
 70
     0
  9
$DIMTAD
 70
     0
  9
$DIMZIN
 70
     0
  9
$DIMBLK
  1

  9
$DIMASO
 70
     1
  9
$DIMSHO
 70
     1
  9
$DIMPOST
  1
\X
  9
$DIMAPOST
  1

  9
$DIMALT
 70
     1
  9
$DIMALTD
 70
     2
  9
$DIMALTF
 40
25.3999999999999986
  9
$DIMLFAC
 40
1.0
  9
$DIMTOFL
 70
     0
  9
$DIMTVP
 40
0.0
  9
$DIMTIX
 70
     0
  9
$DIMSOXD
 70
     0
  9
$DIMSAH
 70
     0
  9
$DIMBLK1
  1

  9
$DIMBLK2
  1

  9
$DIMSTYLE
  2
STANDARD
  9
$DIMCLRD
 70
     0
  9
$DIMCLRE
 70
     0
  9
$DIMCLRT
 70
     0
  9
$DIMTFAC
 40
1.0
  9
$DIMGAP
 40
0.09
  9
$LUNITS
 70
     2
  9
$LUPREC
 70
     4
  9
$SKETCHINC
 40
0.1
  9
$FILLETRAD
 40
0.0
  9
$AUNITS
 70
     0
  9
$AUPREC
 70
     0
  9
$MENU
  1
.
  9
$ELEVATION
 40
0.0
  9
$PELEVATION
 40
0.0
  9
$THICKNESS
 40
0.0
  9
$LIMCHECK
 70
     0
  9
$BLIPMODE
 70
     0
  9
$CHAMFERA
 40
0.0
  9
$CHAMFERB
 40
0.0
  9
$SKPOLY
 70
     0
  9
$TDCREATE
 40
2458060.468368056230247
  9
$TDUPDATE
 40
2460092.5866898149251938
  9
$TDINDWG
 40
0.5868010417
  9
$TDUSRTIMER
 40
0.5868010417
  9
$USRTIMER
 70
     1
  9
$ANGBASE
 50
0.0
  9
$ANGDIR
 70
     0
  9
$PDMODE
 70
     0
  9
$PDSIZE
 40
0.3125
  9
$PLINEWID
 40
0.0
  9
$COORDS
 70
     1
  9
$SPLFRAME
 70
     0
  9
$SPLINETYPE
 70
     6
  9
$SPLINESEGS
 70
     8
  9
$ATTDIA
 70
     1
  9
$ATTREQ
 70
     1
  9
$HANDLING
 70
     1
  9
$HANDSEED
  5
1228C
  9
$SURFTAB1
 70
     6
  9
$SURFTAB2
 70
     6
  9
$SURFTYPE
 70
     6
  9
$SURFU
 70
     6
  9
$SURFV
 70
     6
  9
$UCSNAME
  2

  9
$UCSORG
 10
0.0
 20
0.0
 30
0.0
  9
$UCSXDIR
 10
1.0
 20
0.0
 30
0.0
  9
$UCSYDIR
 10
0.0
 20
1.0
 30
0.0
  9
$PUCSNAME
  2

  9
$PUCSORG
 10
0.0
 20
0.0
 30
0.0
  9
$PUCSXDIR
 10
1.0
 20
0.0
 30
0.0
  9
$PUCSYDIR
 10
0.0
 20
1.0
 30
0.0
  9
$USERI1
 70
     0
  9
$USERI2
 70
     0
  9
$USERI3
 70
     0
  9
$USERI4
 70
     0
  9
$USERI5
 70
     0
  9
$USERR1
 40
0.0
  9
$USERR2
 40
0.0
  9
$USERR3
 40
0.0
  9
$USERR4
 40
0.0
  9
$USERR5
 40
0.0
  9
$WORLDVIEW
 70
     1
  9
$SHADEDGE
 70
     3
  9
$SHADEDIF
 70
    70
  9
$TILEMODE
 70
     1
  9
$MAXACTVP
 70
    64
  9
$PLIMCHECK
 70
     0
  9
$PEXTMIN
 10
1.0000000000000000E+20
 20
1.0000000000000000E+20
 30
1.0000000000000000E+20
  9
$PEXTMAX
 10
-1.0000000000000000E+20
 20
-1.0000000000000000E+20
 30
-1.0000000000000000E+20
  9
$PLIMMIN
 10
0.0
 20
0.0
  9
$PLIMMAX
 10
12.0
 20
9.0
  9
$UNITMODE
 70
     0
  9
$VISRETAIN
 70
     1
  9
$PLINEGEN
 70
     0
  9
$PSLTSCALE
 70
     1
  0
ENDSEC
  0
SECTION
  2
TABLES
  0
TABLE
  2
VPORT
 70
     1
  0
VPORT
  2
*ACTIVE
 70
     0
 10
0.0
 20
0.0
 11
1.0
 21
1.0
 12
842.1437559088667513
 22
108.4333948870111044
 13
0.0
 23
0.0
 14
1.0
 24
1.0
 15
0.0
 25
0.0
 16
0.0
 26
0.0
 36
17.1152628219792007
 17
3803.5440673828129547
 27
125.9952621967499056
 37
0.0
 40
4.7389712400991746
 41
1.4307692307692299
 42
50.0
 43
0.0
 44
0.0
 50
0.0
 51
0.0
 71
     0
 72
   100
 73
     1
 74
     1
 75
     0
 76
     0
 77
     0
 78
     0
  0
ENDTAB
  0
TABLE
  2
LTYPE
 70
     2
  0
LTYPE
  2
CONTINUOUS
 70
     0
  3
Solid line
 72
    65
 73
     0
 40
0.0
  0
LTYPE
  2
PHANTOM2
 70
     0
  3
___ _ _ ___ _ _ ___ _ _ ___ _ _
 72
    65
 73
     6
 40
1.25
 49
0.625
 49
-0.125
 49
0.125
 49
-0.125
 49
0.125
 49
-0.125
  0
ENDTAB
  0
TABLE
  2
LAYER
 70
     2
  0
LAYER
  2
0
 70
     0
 62
   255
  6
CONTINUOUS
  0
LAYER
  2
DEFPOINTS
 70
     0
 62
     7
  6
CONTINUOUS
  0
ENDTAB
  0
TABLE
  2
STYLE
 70
     1
  0
STYLE
  2
STANDARD
 70
     0
 40
0.0
 41
0.8
 50
0.0
 71
     0
 42
0.2
  3
txt
  4

  0
ENDTAB
  0
TABLE
  2
VIEW
 70
     0
  0
ENDTAB
  0
TABLE
  2
UCS
 70
     0
  0
ENDTAB
  0
TABLE
  2
APPID
 70
     9
  0
APPID
  2
ACAD
 70
     0
  0
APPID
  2
ACAD_MLEADERVER
 70
     0
  0
APPID
  2
ACAD_EXEMPT_FROM_CAD_STANDARDS
 70
     0
  0
APPID
  2
ACAD_NAV_VCDISPLAY
 70
     0
  0
APPID
  2
ACAECLAYERSTANDARD
 70
     0
  0
APPID
  2
ACCMTRANSPARENCY
 70
     0
  0
APPID
  2
ACAD_DSTYLE_DIMJAG
 70
     0
  0
APPID
  2
ACAD_DSTYLE_DIMTALN
 70
     0
  0
APPID
  2
ACDBATTR
 70
     0
  0
ENDTAB
  0
TABLE
  2
DIMSTYLE
 70
     1
  0
DIMSTYLE
  2
STANDARD
 70
     0
  3

  4

  5

  6

  7

 40
1.0
 41
0.1875
 42
0.0625
 43
0.38
 44
0.125
 45
0.0
 46
0.0
 47
0.01
 48
0.01
140
0.15625
141
0.09
142
0.0
143
25.3999999999999986
144
1.0
145
0.0
146
1.0
147
0.09
 71
     1
 72
     0
 73
     1
 74
     1
 75
     0
 76
     0
 77
     0
 78
     4
170
     0
171
     2
172
     0
173
     0
174
     0
175
     0
176
     0
177
     0
178
     0
  0
ENDTAB
  0
ENDSEC
  0
SECTION
  2
BLOCKS
  0
BLOCK
  8
0
  2
$MODEL_SPACE
 70
     0
 10
0.0
 20
0.0
 30
0.0
  3
$MODEL_SPACE
  1

  0
ENDBLK
  5
21
  8
0
  0
BLOCK
 67
     1
  8
0
  2
$PAPER_SPACE
 70
     0
 10
0.0
 20
0.0
 30
0.0
  3
$PAPER_SPACE
  1

  0
ENDBLK
  5
1D
 67
     1
  8
0
  0
ENDSEC
  0
SECTION
  2
ENTITIES
  0
ATTDEF
  5
3930
  8
DEFPOINTS
 10
4645.6801548258918046
 20
232.0805694904632048
 30
0.0
 40
0.001
  1
K-30276X
  3

  2
MODELNUMBER
 70
     0
1001
ACDBATTR
1070
     0
1070
     1
  0
ATTDEF
  5
3931
  8
DEFPOINTS
 10
4645.6801548258918046
 20
232.0789028237965965
 30
0.0
 40
0.001
  1
ACCLIV
  3

  2
TRADENAME
 70
     0
1001
ACDBATTR
1070
     0
1070
     1
  0
ATTDEF
  5
3932
  8
DEFPOINTS
 10
4645.6801548258918046
 20
232.0772361571299029
 30
0.0
 40
0.001
  1
BATHROOM SINK FAUCET
  3

  2
PRODUCT
 70
     0
1001
ACDBATTR
1070
     0
1070
     1
  0
LINE
  5
11F62
  8
0
 10
4645.0857206709797538
 20
236.5681943583701923
 30
0.0
 11
4645.0857206709797538
 21
236.4961330817070859
 31
0.0
  0
LINE
  5
11F63
  8
0
 10
4644.7139540481948643
 20
232.0827256630641102
 30
0.0
 11
4646.6616925351636382
 21
232.0827256630641102
 31
0.0
  0
LINE
  5
11F64
  8
0
 10
4644.7981699507790836
 20
236.0560768754641003
 30
0.0
 11
4644.7036569763849911
 21
232.0932712483831892
 31
0.0
  0
ARC
  5
11F65
  8
0
 10
4644.7139540481948643
 20
232.0930256630641111
 30
0.0
 40
0.0103
 50
178.6337537999623066
 51
270.0
  0
ARC
  5
11F66
  8
0
 10
4645.0466245144089044
 20
236.0566048060063054
 30
0.0
 40
0.2484551245183973
 50
139.8411159545142084
 51
180.1217451834220924
  0
ARC
  5
11F67
  8
0
 10
4662.8588574177401824
 20
214.9533948770063034
 30
0.0
 40
27.8612188389662983
 50
129.7114397657639984
 51
130.2474018945329135
  0
ARC
  5
11F68
  8
0
 10
4645.6887426048842826
 20
234.985310055812306
 30
0.0
 40
1.7947681900245349
 50
90.029347951095005
 51
104.3340791026885057
  0
ARC
  5
11F69
  8
0
 10
4645.2687038246722295
 20
236.5430501388887876
 30
0.0
 40
0.1827772808533341
 50
97.6405097546044942
 51
160.2468015892295909
  0
ARC
  5
11F6A
  8
0
 10
4645.4300630770239877
 20
236.4851060787107997
 30
0.0
 40
0.3542250059167737
 50
160.2468015892295909
 51
177.2937841652664872
  0
ARC
  5
11F6B
  8
0
 10
4644.1114955872481005
 20
236.5970213686711077
 30
0.0
 40
0.9694223829691641
 50
347.4425138550611791
 51
354.3648674708140902
  0
ARC
  5
11F6C
  8
0
 10
4645.618352871127172
 20
236.0653285591550912
 30
0.0
 40
0.5080057302713782
 50
188.6618720640568085
 51
203.1305048675029923
  0
ARC
  5
11F6D
  8
0
 10
4646.8866743072003374
 20
236.2585453216240978
 30
0.0
 40
1.790960126383571
 50
182.5583538458043051
 51
188.6618720640568085
  0
ARC
  5
11F6E
  8
0
 10
4666.0521901465763221
 20
237.1148873408554891
 30
0.0
 40
20.9755977055311611
 50
181.6904000403409043
 51
182.5583538458043051
  0
ARC
  5
11F6F
  8
0
 10
4645.7061756853454426
 20
234.5413694736857053
 30
0.0
 40
1.548470634606921
 50
90.6790825066928505
 51
102.9966979306420001
  0
ARC
  5
11F70
  8
0
 10
4645.4945911817258093
 20
235.4872135782256919
 30
0.0
 40
0.5793089602438753
 50
103.6446459949226977
 51
121.8902131362768984
  0
ARC
  5
11F71
  8
0
 10
4645.2486419853494226
 20
235.8824979724682009
 30
0.0
 40
0.1137547104185272
 50
121.8902131362768984
 51
153.5585877424497028
  0
ARC
  5
11F72
  8
0
 10
4645.2034242498639287
 20
235.904985001938087
 30
0.0
 40
0.0632541154041656
 50
153.5585877424497028
 51
198.0343312846167123
  0
ARC
  5
11F73
  8
0
 10
4645.7066853900050774
 20
236.5109550050349867
 30
0.0
 40
0.8899092327174235
 50
242.4968338372555081
 51
268.7854946072548046
  0
ARC
  5
11F74
  8
0
 10
4645.4506216938088983
 20
236.0214767412946912
 30
0.0
 40
0.3375013362742478
 50
207.4742927179812
 51
242.6810010547472132
  0
ARC
  5
11F75
  8
0
 10
4645.6936036831348247
 20
234.9538699432069961
 30
0.0
 40
1.0780663622622151
 50
90.3072107923066909
 51
104.4608397440975978
  0
ARC
  5
11F76
  8
0
 10
4645.521610317716295
 20
235.6521764123492062
 30
0.0
 40
0.3590188931112688
 50
105.711405141093195
 51
121.1006026295951017
  0
LINE
  5
11F77
  8
0
 10
4645.2984180805788128
 20
235.9231593195640926
 30
0.0
 11
4645.2984180814801221
 21
235.9091807606129123
 31
0.0
  0
ARC
  5
11F78
  8
0
 10
4645.3269847993060466
 20
235.9096319885229889
 30
0.0
 40
0.0285702812012818
 50
180.9049448826868058
 51
231.0740366665368128
  0
ARC
  5
11F79
  8
0
 10
4645.3636436133692769
 20
235.9550216526710074
 30
0.0
 40
0.0869148632968661
 50
231.0740366665368128
 51
259.3109509551309202
  0
ARC
  5
11F7A
  8
0
 10
4645.4088209470846778
 20
236.1258316885748911
 30
0.0
 40
0.2634473481141901
 50
256.5452572325979759
 51
270.6564697617537263
  0
ARC
  5
11F7B
  8
0
 10
4645.4133420698599366
 20
236.1189038327522098
 30
0.0
 40
0.2565066022107744
 50
269.6643349080006828
 51
286.026610105036184
  0
ARC
  5
11F7C
  8
0
 10
4645.669059359588573
 20
235.1279244410278864
 30
0.0
 40
0.7670608296509424
 50
93.3882787201935542
 51
103.9485179737690999
  0
ARC
  5
11F7D
  8
0
 10
4645.6876330810491709
 20
234.9199508479323981
 30
0.0
 40
0.9757886326448154
 50
89.9888313246972302
 51
93.7552395129680747
  0
ARC
  5
11F7E
  8
0
 10
4645.3896252447257211
 20
235.8664334857145946
 30
0.0
 40
0.1074084122296283
 50
119.8517735485115026
 51
148.1206627618012135
  0
ARC
  5
11F7F
  8
0
 10
4645.6858294699468388
 20
235.1009419597426984
 30
0.0
 40
0.7768970895359705
 50
89.8529564632001865
 51
99.0684981201292914
  0
ARC
  5
11F80
  8
0
 10
4645.6422461234924413
 20
235.3740031527534882
 30
0.0
 40
0.5003795978349415
 50
99.0684981201292914
 51
109.7664700399376017
  0
ARC
  5
11F81
  8
0
 10
4645.5370002614117766
 20
235.6668724240686004
 30
0.0
 40
0.1891737149119782
 50
109.7664700399376017
 51
126.2661458948445983
  0
ARC
  5
11F82
  8
0
 10
4645.4517701671702525
 20
235.7897053254588968
 30
0.0
 40
0.0399145521806484
 50
131.9325964394354003
 51
187.684366769524388
  0
ARC
  5
11F83
  8
0
 10
4645.4739582646461713
 20
235.8037647177565077
 30
0.0
 40
0.0647192009795134
 50
197.4398206681159991
 51
238.9326210472833054
  0
ARC
  5
11F84
  8
0
 10
4645.6931108921198756
 20
236.2050694149588139
 30
0.0
 40
0.4497308963261963
 50
250.1807478460519008
 51
269.3263434383812864
  0
ARC
  5
11F85
  8
0
 10
4645.5646676964852304
 20
235.8401054895984998
 30
0.0
 40
0.0629029577979868
 50
217.9705657384294
 51
247.5315787066672044
  0
ARC
  5
11F86
  8
0
 10
4645.5343123507291239
 20
235.8164143973611999
 30
0.0
 40
0.0243969210329912
 50
160.653936934518498
 51
217.9705657384294
  0
ARC
  5
11F87
  8
0
 10
4645.6936068553759469
 20
236.3046873841906006
 30
0.0
 40
0.557090295131395
 50
254.9422688397517902
 51
269.4051597269361196
  0
ARC
  5
11F88
  8
0
 10
4645.5779768915554087
 20
235.8807097121793959
 30
0.0
 40
0.1176400655022678
 50
224.5808067275098949
 51
255.6795134451942033
  0
ARC
  5
11F89
  8
0
 10
4645.5158022822179191
 20
235.8171141488402043
 30
0.0
 40
0.0287645281714799
 50
180.7308534862918066
 51
221.2816212218276917
  0
LINE
  5
11F8A
  8
0
 10
4645.5049648378781058
 20
235.8223405746641106
 30
0.0
 11
4645.4730241244787976
 21
235.833464219864112
 31
0.0
  0
LINE
  5
11F8B
  8
0
 10
4645.4730241244787976
 20
235.8334642199640996
 30
0.0
 11
4645.473024122778952
 21
235.8448998042640881
 31
0.0
  0
LINE
  5
11F8C
  8
0
 10
4645.5633787210790615
 20
235.843339997145506
 30
0.0
 11
4645.5633787210790615
 21
235.8681283137865989
 31
0.0
  0
ARC
  5
11F8D
  8
0
 10
4645.6229888498528453
 20
235.572727599448001
 30
0.0
 40
0.275364488562675
 50
102.7480832762163061
 51
115.0153575968969051
  0
ARC
  5
11F8E
  8
0
 10
4645.5613948683276249
 20
235.8431192849267859
 30
0.0
 40
0.0019960925880064
 50
294.5935252781076201
 51
6.3482976750182321
  0
ARC
  5
11F8F
  8
0
 10
4645.5058781164116226
 20
235.8247345878268959
 30
0.0
 40
0.0025622991046847
 50
249.1189303198501079
 51
285.1530933803222183
  0
LINE
  5
11F90
  8
0
 10
4645.5354227162779353
 20
235.856075255264102
 30
0.0
 11
4645.5354227162779353
 21
235.8628471990512026
 31
0.0
  0
ARC
  5
11F91
  8
0
 10
4645.6426281046042277
 20
235.41994350996751
 30
0.0
 40
0.4469506546256502
 50
104.5550055092735988
 51
112.3008037918322941
  0
ARC
  5
11F92
  8
0
 10
4645.5219666803777727
 20
235.8701323192858013
 30
0.0
 40
0.019459340972075
 50
295.3731342417154906
 51
313.7485634638201759
  0
LINE
  5
11F93
  8
0
 10
4645.5354227162779353
 20
235.856075255264102
 30
0.0
 11
4645.5633787205797489
 21
235.846513746737287
 31
0.0
  0
LINE
  5
11F94
  8
0
 10
4645.4870400941599655
 20
235.8167472442308963
 30
0.0
 11
4645.4870426371717258
 21
235.8285821447684043
 31
0.0
  0
LINE
  5
11F95
  8
0
 10
4645.4668942739790509
 20
235.7656016916641022
 30
0.0
 11
4645.4289892760789371
 21
235.7656016916641022
 31
0.0
  0
LINE
  5
11F96
  8
0
 10
4645.422075184978894
 20
235.7830040425641016
 30
0.0
 11
4645.422075184978894
 21
235.8163770241004045
 31
0.0
  0
LINE
  5
11F97
  8
0
 10
4645.4708007511289907
 20
235.7696568172140985
 30
0.0
 11
4645.4708007511289907
 21
235.826110232248908
 31
0.0
  0
ARC
  5
11F98
  8
0
 10
4645.4896788849082441
 20
235.8273028816381043
 30
0.0
 40
0.018915769811272
 50
151.6990665895241932
 51
183.6149273144054916
  0
ARC
  5
11F99
  8
0
 10
4645.4592532544529604
 20
235.7833005805379969
 30
0.0
 40
0.0371792520711234
 50
180.4569902181659131
 51
203.5339497381712022
  0
ARC
  5
11F9A
  8
0
 10
4645.4295764710941512
 20
235.7703758334077975
 30
0.0
 40
0.0048101223504595
 50
203.5339497381667115
 51
262.9881361495857277
  0
LINE
  5
11F9B
  8
0
 10
4645.4289892760789371
 20
235.7927698247640933
 30
0.0
 11
4645.4708007511289907
 21
235.7927698310402036
 31
0.0
  0
LINE
  5
11F9C
  8
0
 10
4645.4250970357779806
 20
235.7966718882647115
 30
0.0
 11
4645.4250970357779806
 21
235.8193990201320105
 31
0.0
  0
ARC
  5
11F9D
  8
0
 10
4645.4291436252051426
 20
235.7968160379903964
 30
0.0
 40
0.0040491561003342
 50
182.0401575638356917
 51
267.8154221892673945
  0
ARC
  5
11F9E
  8
0
 10
4645.4596002106845845
 20
235.781422376975911
 30
0.0
 40
0.0377247264774563
 50
157.2196530024199888
 51
174.1019855277320971
  0
LINE
  5
11F9F
  8
0
 10
4645.4668942693779172
 20
235.827412562564092
 30
0.0
 11
4645.4369324926474292
 21
235.827412562564092
 31
0.0
  0
ARC
  5
11FA0
  8
0
 10
4645.4675277573005587
 20
235.8228026545575062
 30
0.0
 40
0.0046532310041221
 50
45.3011123288643205
 51
97.8245091066924175
  0
ARC
  5
11FA1
  8
0
 10
4645.6940968647004411
 20
236.3180797062533998
 30
0.0
 40
0.6711050207677774
 50
253.9845028362404946
 51
269.4643841411764242
  0
ARC
  5
11FA2
  8
0
 10
4645.6984795781636421
 20
236.3496977798540115
 30
0.0
 40
0.7027195617596518
 50
229.845079155772396
 51
254.3522851769270972
  0
ARC
  5
11FA3
  8
0
 10
4645.3352823003815502
 20
235.9208145516963953
 30
0.0
 40
0.1407161446167621
 50
187.2694712021992132
 51
230.2623688350784903
  0
ARC
  5
11FA4
  8
0
 10
4645.2670456060823199
 20
235.9004197539844085
 30
0.0
 40
0.0713953370857709
 50
130.9879515752272141
 51
177.9217318907076049
  0
ARC
  5
11FA5
  8
0
 10
4645.4651907006109468
 20
235.6306982628603066
 30
0.0
 40
0.4058792952804608
 50
106.0577264240696991
 51
127.1254351724900999
  0
ARC
  5
11FA6
  8
0
 10
4645.6520800783755476
 20
234.981407208558295
 30
0.0
 40
1.081531952137367
 50
96.4449676984930875
 51
106.0577264240696991
  0
ARC
  5
11FA7
  8
0
 10
4645.7276162110920268
 20
233.9137642341817127
 30
0.0
 40
2.151372554274142
 50
91.0598333406073834
 51
95.2522136326849846
  0
LINE
  5
11FA8
  8
0
 10
4645.5633787160786596
 20
235.7496487596640975
 30
0.0
 11
4645.5633787205788394
 21
235.7200521399300044
 31
0.0
  0
LINE
  5
11FA9
  8
0
 10
4645.644516125278642
 20
235.7370385827358064
 30
0.0
 11
4645.6445161298788662
 21
235.69447769284929
 31
0.0
  0
LINE
  5
11FAA
  8
0
 10
4645.5069931222778905
 20
235.7398653523711118
 30
0.0
 11
4645.5069931176785758
 21
235.7694619721640947
 31
0.0
  0
LINE
  5
11FAB
  8
0
 10
4645.4730217498790807
 20
235.7597123886640986
 30
0.0
 11
4645.4730241240777104
 21
235.7299281149662988
 31
0.0
  0
LINE
  5
11FAC
  8
0
 10
4645.5339160301609809
 20
235.7071609300105024
 30
0.0
 11
4645.5604364990667818
 21
235.7162566763543907
 31
0.0
  0
ARC
  5
11FAD
  8
0
 10
4645.537047111019092
 20
235.851683976544706
 30
0.0
 40
0.0803436198755524
 50
214.4583302377187977
 51
244.6111707251695009
  0
ARC
  5
11FAE
  8
0
 10
4645.4946977672407229
 20
235.7696771078626909
 30
0.0
 40
0.0122972324422934
 50
358.9975796206264249
 51
50.0195541643407822
  0
ARC
  5
11FAF
  8
0
 10
4645.6486073968935671
 20
236.0527402135886064
 30
0.0
 40
0.3434316257632771
 50
245.6474115060246959
 51
255.6308806274302015
  0
ARC
  5
11FB0
  8
0
 10
4645.6774883789439627
 20
236.2699207487829938
 30
0.0
 40
0.5299397203982842
 50
257.8669970916873808
 51
266.0062280276579827
  0
ARC
  5
11FB1
  8
0
 10
4645.6402843838823173
 20
235.7370464473241043
 30
0.0
 40
0.0042317487049166
 50
359.8935173124953053
 51
86.006228027709966
  0
ARC
  5
11FB2
  8
0
 10
4645.5653044427008354
 20
235.7500267602200097
 30
0.0
 40
0.001962474827041
 50
65.9337309314227724
 51
191.1053864861682996
  0
ARC
  5
11FB3
  8
0
 10
4645.6798028537077698
 20
236.3839107945794922
 30
0.0
 40
0.6571013656384216
 50
259.7945503875711211
 51
266.9240991059050998
  0
ARC
  5
11FB4
  8
0
 10
4645.6078480105870767
 20
236.0218119222153064
 30
0.0
 40
0.3238305532191278
 50
245.9332063814129867
 51
256.3956317112491092
  0
ARC
  5
11FB5
  8
0
 10
4645.5326317050257785
 20
235.7110533906642047
 30
0.0
 40
0.0040988706970208
 50
256.5427012811658187
 51
288.2604092155939952
  0
ARC
  5
11FB6
  8
0
 10
4645.476987988543442
 20
235.7299101138349045
 30
0.0
 40
0.003963905338519
 50
179.7398039779756971
 51
252.4007765260126064
  0
ARC
  5
11FB7
  8
0
 10
4645.4647125712617708
 20
235.7597389918811928
 30
0.0
 40
0.0083092212031758
 50
359.8165586608818103
 51
45.0032924773925771
  0
ARC
  5
11FB8
  8
0
 10
4645.4669137838272945
 20
235.7694920986365048
 30
0.0
 40
0.0038904558886557
 50
269.7126809164877272
 51
2.426579691561324
  0
LINE
  5
11FB9
  8
0
 10
4645.4705877402793703
 20
235.7656148361641044
 30
0.0
 11
4645.4691672897606622
 21
235.7663241342033018
 31
0.0
  0
ARC
  5
11FBA
  8
0
 10
4645.5594698864870224
 20
235.7200441173401089
 30
0.0
 40
0.0039088424246953
 50
284.3171295089870796
 51
0.1175957881888848
  0
ARC
  5
11FBB
  8
0
 10
4645.687823112379192
 20
236.4550826424658965
 30
0.0
 40
0.7655605566018141
 50
267.0368578989944126
 51
270.0000134191080861
  0
ARC
  5
11FBC
  8
0
 10
4645.6484520418853208
 20
235.6944762937640121
 30
0.0
 40
0.0039359122542381
 50
179.9796332644060044
 51
267.0368578989944126
  0
LINE
  5
11FBD
  8
0
 10
4645.4757894741269411
 20
235.7261317400144947
 30
0.0
 11
4645.5037640139789801
 21
235.7353954404640888
 31
0.0
  0
ARC
  5
11FBE
  8
0
 10
4645.5023054436232997
 20
235.7398504517688878
 30
0.0
 40
0.0046877023380807
 50
288.128442600645883
 51
0.1821239903634894
  0
LINE
  5
11FBF
  8
0
 10
4645.4730217498790807
 20
235.7597123886640986
 30
0.0
 11
4645.5009801238802538
 21
235.7696437815640991
 31
0.0
  0
ARC
  5
11FC0
  8
0
 10
4645.5037172645534156
 20
235.7606444413650877
 30
0.0
 40
0.0094063841666975
 50
69.6191666111916021
 51
106.9170883919731949
  0
ARC
  5
11FC1
  8
0
 10
4645.5421530342418919
 20
235.9002476472257115
 30
0.0
 40
0.1827578976353341
 50
236.2281322501885086
 51
247.7744252067944046
  0
ARC
  5
11FC2
  8
0
 10
4645.6783377330921212
 20
236.3755640009030117
 30
0.0
 40
0.6792577879445105
 50
258.4519924046745132
 51
267.1459484259621036
  0
ARC
  5
11FC3
  8
0
 10
4645.6874294844383257
 20
236.3344600040605883
 30
0.0
 40
0.6268626295951317
 50
266.4984803222146752
 51
270.0359943202458908
  0
ARC
  5
11FC4
  8
0
 10
4645.6483714110909204
 20
235.7003620213332908
 30
0.0
 40
0.0084410100490666
 50
84.749565468158977
 51
117.1764543157705987
  0
ARC
  5
11FC5
  8
0
 10
4645.6833035763893349
 20
236.1247980063529894
 30
0.0
 40
0.341198119834271
 50
249.6833364842163121
 51
270.7589965172541042
  0
ARC
  5
11FC6
  8
0
 10
4645.5924477671551358
 20
235.8668206156823999
 30
0.0
 40
0.0678648622412762
 50
209.7420648240380103
 51
245.992680546967307
  0
ARC
  5
11FC7
  8
0
 10
4645.6683772619453521
 20
235.5262299051616992
 30
0.0
 40
0.349854677438263
 50
93.9107789182363604
 51
107.4648373656244047
  0
LINE
  5
11FC8
  8
0
 10
4645.6445161298788662
 20
235.8585661922762995
 30
0.0
 11
4645.6445161298788662
 21
235.8767398043270873
 31
0.0
  0
ARC
  5
11FC9
  8
0
 10
4645.688172625675179
 20
235.1915320956667017
 30
0.0
 40
0.6631785049501183
 50
90.0301809609681385
 51
93.4336483291864965
  0
ARC
  5
11FCA
  8
0
 10
4645.6491331122761039
 20
235.8581094956504955
 30
0.0
 40
0.0046395148740125
 50
174.3508678626072879
 51
261.572290453199173
  0
LINE
  5
11FCB
  8
0
 10
4645.6829019478782357
 20
235.778515165464114
 30
0.0
 11
4645.6829019478782357
 21
235.7836001228997134
 31
0.0
  0
LINE
  5
11FCC
  8
0
 10
4645.6449455457377553
 20
235.7768844924933944
 30
0.0
 11
4645.6515780696663569
 21
235.7850780493272964
 31
0.0
  0
LINE
  5
11FCD
  8
0
 10
4645.6369787208786875
 20
235.7810261672640877
 30
0.0
 11
4645.636978720015577
 21
235.7867593034499123
 31
0.0
  0
LINE
  5
11FCE
  8
0
 10
4645.5945204616791671
 20
235.7875167946754971
 30
0.0
 11
4645.5945204616791671
 21
235.7953534502883883
 31
0.0
  0
LINE
  5
11FCF
  8
0
 10
4645.6012681391803198
 20
235.7824284493640903
 30
0.0
 11
4645.6149305035605721
 21
235.7905207563188128
 31
0.0
  0
LINE
  5
11FD0
  8
0
 10
4645.5634548229791108
 20
235.7916858412640977
 30
0.0
 11
4645.5834730445358218
 21
235.7985312107882976
 31
0.0
  0
LINE
  5
11FD1
  8
0
 10
4645.5584206303783503
 20
235.7975447148641024
 30
0.0
 11
4645.5584206303783503
 21
235.8081027011261028
 31
0.0
  0
LINE
  5
11FD2
  8
0
 10
4645.5345031659780943
 20
235.8041317854641079
 30
0.0
 11
4645.5574675389916592
 21
235.8086654511247104
 31
0.0
  0
LINE
  5
11FD3
  8
0
 10
4645.5162011879792772
 20
235.8187526090640915
 30
0.0
 11
4645.5422583719755494
 21
235.8211405966519862
 31
0.0
  0
LINE
  5
11FD4
  8
0
 10
4645.5311393708789183
 20
235.8104265489641023
 30
0.0
 11
4645.5311393708789183
 21
235.8201216056276905
 31
0.0
  0
LINE
  5
11FD5
  8
0
 10
4645.51453585588024
 20
235.8252844187641131
 30
0.0
 11
4645.51453585588024
 21
235.8257778793627892
 31
0.0
  0
ARC
  5
11FD6
  8
0
 10
4645.5257134824632885
 20
235.8245805109376079
 30
0.0
 40
0.011155271851218
 50
176.3610288851544965
 51
211.4907510355494935
  0
ARC
  5
11FD7
  8
0
 10
4645.5368211568111292
 20
235.8094166271744996
 30
0.0
 40
0.005770843387472
 50
169.9210978887739998
 51
246.3172048730320967
  0
ARC
  5
11FD8
  8
0
 10
4645.5636091207134086
 20
235.7969106530790953
 30
0.0
 40
0.0052270896579756
 50
173.0326902142213896
 51
268.308448118974411
  0
ARC
  5
11FD9
  8
0
 10
4645.5998684892156234
 20
235.7875906026106065
 30
0.0
 40
0.0053485368239511
 50
180.7906867893966876
 51
285.1702685327657036
  0
ARC
  5
11FDA
  8
0
 10
4645.6420657704366022
 20
235.7810782594181944
 30
0.0
 40
0.0050873162670817
 50
180.5866969095201
 51
304.4766022068632765
  0
ARC
  5
11FDB
  8
0
 10
4645.6879504543076109
 20
235.7789314886445879
 30
0.0
 40
0.0050656433109993
 50
184.7142079902849048
 51
268.561555377364698
  0
LINE
  5
11FDC
  8
0
 10
4645.6347361847801949
 20
235.824675394964089
 30
0.0
 11
4645.6385481879788131
 21
235.8246755432641919
 31
0.0
  0
LINE
  5
11FDD
  8
0
 10
4645.6385481879788131
 20
235.8246755432641919
 30
0.0
 11
4645.6631488700713817
 21
235.8295340216587874
 31
0.0
  0
LINE
  5
11FDE
  8
0
 10
4645.6641387391791795
 20
235.809515806664109
 30
0.0
 11
4645.6603250368789304
 21
235.8095167173640903
 31
0.0
  0
LINE
  5
11FDF
  8
0
 10
4645.6603250368789304
 20
235.8095167173640903
 30
0.0
 11
4645.6366421060793073
 21
235.8145851743641117
 31
0.0
  0
LINE
  5
11FE0
  8
0
 10
4645.6366421060793073
 20
235.8145851743641117
 30
0.0
 11
4645.6129576367793561
 21
235.8095157996640978
 31
0.0
  0
LINE
  5
11FE1
  8
0
 10
4645.6129576367793561
 20
235.8095157996640978
 30
0.0
 11
4645.6091448171791853
 21
235.8095166216641019
 31
0.0
  0
LINE
  5
11FE2
  8
0
 10
4645.6091448171791853
 20
235.8095166216641019
 30
0.0
 11
4645.5854610036785743
 21
235.8145851673641005
 31
0.0
  0
LINE
  5
11FE3
  8
0
 10
4645.5854610036785743
 20
235.8145851673641005
 30
0.0
 11
4645.5608756637793704
 21
235.8093385948641014
 31
0.0
  0
LINE
  5
11FE4
  8
0
 10
4645.6347361847801949
 20
235.824675394964089
 30
0.0
 11
4645.610964530160345
 21
235.8297628153208905
 31
0.0
  0
LINE
  5
11FE5
  8
0
 10
4645.610964530160345
 20
235.8297628153208905
 30
0.0
 11
4645.5873677412791949
 21
235.8246763588641102
 31
0.0
  0
LINE
  5
11FE6
  8
0
 10
4645.5873677412791949
 20
235.8246763588641102
 30
0.0
 11
4645.5835542659788189
 21
235.824676358364087
 31
0.0
  0
LINE
  5
11FE7
  8
0
 10
4645.5835542659788189
 20
235.824676358364087
 30
0.0
 11
4645.5598753771801057
 21
235.8295488938640858
 31
0.0
  0
LINE
  5
11FE8
  8
0
 10
4645.5598753771801057
 20
235.8295488938640858
 30
0.0
 11
4645.5426024528787821
 21
235.8259432535641054
 31
0.0
  0
LINE
  5
11FE9
  8
0
 10
4645.5426024528787821
 20
235.8259432535641054
 30
0.0
 11
4645.5404874011792344
 21
235.8259174076640932
 31
0.0
  0
LINE
  5
11FEA
  8
0
 10
4645.6366421060793073
 20
235.8449046546641057
 30
0.0
 11
4645.6129582923786074
 21
235.8398361025641918
 31
0.0
  0
LINE
  5
11FEB
  8
0
 10
4645.6129582923786074
 20
235.8398361025641918
 30
0.0
 11
4645.6091448171791853
 21
235.8398361020641119
 31
0.0
  0
LINE
  5
11FEC
  8
0
 10
4645.6091448171791853
 20
235.8398361020641119
 30
0.0
 11
4645.5854610036785743
 21
235.8449046476640945
 31
0.0
  0
LINE
  5
11FED
  8
0
 10
4645.5854610036785743
 20
235.8449046476640945
 30
0.0
 11
4645.5598719880617864
 21
235.8394598838889067
 31
0.0
  0
LINE
  5
11FEE
  8
0
 10
4645.5598719880617864
 20
235.8394598838889067
 30
0.0
 11
4645.5569047109738676
 21
235.8400448045620976
 31
0.0
  0
LINE
  5
11FEF
  8
0
 10
4645.6110515548789408
 20
235.8600643913640909
 30
0.0
 11
4645.6347353683777328
 21
235.8549958456640923
 31
0.0
  0
LINE
  5
11FF0
  8
0
 10
4645.6347353683777328
 20
235.8549958456640923
 30
0.0
 11
4645.6385488435789739
 21
235.854995846164087
 31
0.0
  0
LINE
  5
11FF1
  8
0
 10
4645.6385488435789739
 20
235.854995846164087
 30
0.0
 11
4645.6448839365593813
 21
235.8562468083462136
 31
0.0
  0
LINE
  5
11FF2
  8
0
 10
4645.6110515548789408
 20
235.8600643913640909
 30
0.0
 11
4645.5873677412791949
 21
235.8549958391641042
 31
0.0
  0
LINE
  5
11FF3
  8
0
 10
4645.5873677412791949
 20
235.8549958391641042
 30
0.0
 11
4645.5835550823785525
 21
235.8549948682641002
 31
0.0
  0
LINE
  5
11FF4
  8
0
 10
4645.5835550823785525
 20
235.8549948682641002
 30
0.0
 11
4645.5633787210790615
 21
235.8589799066886883
 31
0.0
  0
LINE
  5
11FF5
  8
0
 10
4645.6366421060793073
 20
235.8449046546641057
 30
0.0
 11
4645.6612414195788006
 21
235.8396552892641012
 31
0.0
  0
LINE
  5
11FF6
  8
0
 10
4645.6612414195788006
 20
235.8396552892641012
 30
0.0
 11
4645.6638943042462415
 21
235.8394111450544131
 31
0.0
  0
ARC
  5
11FF7
  8
0
 10
4645.6865325521021077
 20
235.78346884128959
 30
0.0
 40
0.0607687840878075
 50
88.7829361224638802
 51
107.8556685159852009
  0
ARC
  5
11FF8
  8
0
 10
4645.6730957593126732
 20
235.8251802741430936
 30
0.0
 40
0.0169465177026812
 50
107.8556735448499069
 51
134.3081765796810885
  0
ARC
  5
11FF9
  8
0
 10
4645.6636838971426187
 20
235.8348222144734905
 30
0.0
 40
0.0034724625273852
 50
134.3081765796810885
 51
221.0779700229286959
  0
ARC
  5
11FFA
  8
0
 10
4645.6710410860423508
 20
235.8412353195442961
 30
0.0
 40
0.0132323879957907
 50
221.0779700229286959
 51
251.4926475019780128
  0
ARC
  5
11FFB
  8
0
 10
4645.6872048018221903
 20
235.889522987787899
 30
0.0
 40
0.0641535487467697
 50
251.4926496662683064
 51
270.5523842116984952
  0
LINE
  5
11FFC
  8
0
 10
4645.6616177629794038
 20
235.8474657541682973
 30
0.0
 11
4645.6616177629794038
 21
235.8541787350349068
 31
0.0
  0
ARC
  5
11FFD
  8
0
 10
4645.6799461907221485
 20
235.8482970467354107
 30
0.0
 40
0.0183472697729022
 50
182.5968862200124079
 51
208.9677588761537095
  0
ARC
  5
11FFE
  8
0
 10
4645.6903969902796234
 20
235.8512742551729104
 30
0.0
 40
0.0075054117835959
 50
176.9878629980173912
 51
249.9455884639129124
  0
LINE
  5
11FFF
  8
0
 10
4645.6829019477791007
 20
235.8516686457641072
 30
0.0
 11
4645.6829019477791007
 21
235.854689655794914
 31
0.0
  0
ARC
  5
12000
  8
0
 10
4645.6878224908023185
 20
235.0970603701348125
 30
0.0
 40
0.773135637729693
 50
89.9999406483491668
 51
92.9227347911873522
  0
ARC
  5
12001
  8
0
 10
4645.6481940679714171
 20
235.8732415025293108
 30
0.0
 40
0.0040564634790428
 50
204.9486936293561996
 51
272.9227347912917025
  0
LINE
  5
12002
  8
0
 10
4645.6129582923786074
 20
235.7994101287640945
 30
0.0
 11
4645.5936326754290349
 21
235.7955939867858888
 31
0.0
  0
LINE
  5
12003
  8
0
 10
4645.6317208455793661
 20
235.7938090564641129
 30
0.0
 11
4645.6317208439786555
 21
235.8098128116641021
 31
0.0
  0
LINE
  5
12004
  8
0
 10
4645.6317208439786555
 20
235.8098128116641021
 30
0.0
 11
4645.6458785131499098
 21
235.8126084624248051
 31
0.0
  0
LINE
  5
12005
  8
0
 10
4645.6385499170792173
 20
235.79435703476409
 30
0.0
 11
4645.6623187250179399
 21
235.7994431439200014
 31
0.0
  0
LINE
  5
12006
  8
0
 10
4645.6623187250179399
 20
235.7994431439200014
 30
0.0
 11
4645.6859155880792969
 21
235.7943569807640927
 31
0.0
  0
ARC
  5
12007
  8
0
 10
4645.6380725596509365
 20
235.8007372015817111
 30
0.0
 40
0.0063980683696968
 50
186.9010926597516971
 51
274.2691519490040832
  0
LINE
  5
12008
  8
0
 10
4645.6573113966787787
 20
235.8050216870641123
 30
0.0
 11
4645.6573113966787787
 21
235.8101616757899137
 31
0.0
  0
LINE
  5
12009
  8
0
 10
4645.667153916378993
 20
235.8050216884641088
 30
0.0
 11
4645.667153916378993
 21
235.8101118931780036
 31
0.0
  0
LINE
  5
1200A
  8
0
 10
4645.6641393947793404
 20
235.8095166292640954
 30
0.0
 11
4645.687823291677887
 21
235.8141933810130126
 31
0.0
  0
LINE
  5
1200B
  8
0
 10
4645.6829019478782357
 20
235.8201814307641087
 30
0.0
 11
4645.6829019478782357
 21
235.8255139007613082
 31
0.0
  0
LINE
  5
1200C
  8
0
 10
4645.687823291677887
 20
235.8107846144474138
 30
0.0
 11
4645.6791919021779904
 21
235.8124889796640957
 31
0.0
  0
ARC
  5
1200D
  8
0
 10
4645.6890320441871154
 20
235.8206101992516039
 30
0.0
 40
0.0061450730811409
 50
184.0010268064422974
 51
258.6557918181362083
  0
ARC
  5
1200E
  8
0
 10
4645.6903066380045857
 20
235.7906379478411907
 30
0.0
 40
0.0074351071992753
 50
185.1844285355888076
 51
250.4880922842930033
  0
LINE
  5
1200F
  8
0
 10
4645.6829019478782357
 20
235.7899660972641129
 30
0.0
 11
4645.6829019478782357
 21
235.7950065529429082
 31
0.0
  0
ARC
  5
12010
  8
0
 10
4645.6633492631635818
 20
235.8054047332371965
 30
0.0
 40
0.0060500046327921
 50
183.6300167686638929
 51
260.1926008346978278
  0
ARC
  5
12011
  8
0
 10
4645.6610412775826262
 20
235.8054350867822109
 30
0.0
 40
0.0061266019302703
 50
282.0349499052776991
 51
356.1309727961012186
  0
LINE
  5
12012
  8
0
 10
4645.6622326549777426
 20
235.8259443341640917
 30
0.0
 11
4645.6536013511522469
 21
235.8276487163300885
 31
0.0
  0
LINE
  5
12013
  8
0
 10
4645.6622326549777426
 20
235.8259443341640917
 30
0.0
 11
4645.6622326573706232
 21
235.8095162618303959
 31
0.0
  0
LINE
  5
12014
  8
0
 10
4645.6622326549777426
 20
235.8259443341640917
 30
0.0
 11
4645.670512039834648
 21
235.8275792267947963
 31
0.0
  0
LINE
  5
12015
  8
0
 10
4645.6366421038792396
 20
235.8411040708641906
 30
0.0
 11
4645.6366421038792396
 21
235.8246754691109004
 31
0.0
  0
LINE
  5
12016
  8
0
 10
4645.6366421038792396
 20
235.8411040714696014
 30
0.0
 11
4645.6274056001120698
 21
235.8429279581615106
 31
0.0
  0
LINE
  5
12017
  8
0
 10
4645.6366421054117382
 20
235.8411040711667965
 30
0.0
 11
4645.6458924126927741
 21
235.8429306874037081
 31
0.0
  0
LINE
  5
12018
  8
0
 10
4645.6366421061111396
 20
235.8549958459140896
 30
0.0
 11
4645.6366421038792396
 21
235.8714235511640993
 31
0.0
  0
LINE
  5
12019
  8
0
 10
4645.6366421038792396
 20
235.8714235511640993
 30
0.0
 11
4645.6260514622335904
 21
235.8735148342967989
 31
0.0
  0
LINE
  5
1201A
  8
0
 10
4645.6366421038792396
 20
235.8714235511640993
 30
0.0
 11
4645.6445161298788662
 21
235.8729783778250919
 31
0.0
  0
LINE
  5
1201B
  8
0
 10
4645.6061302943780902
 20
235.865660640764105
 30
0.0
 11
4645.6061302943780902
 21
235.8705024866349902
 31
0.0
  0
LINE
  5
1201C
  8
0
 10
4645.615972814079214
 20
235.865660642064114
 30
0.0
 11
4645.615972814079214
 21
235.8721375072310025
 31
0.0
  0
LINE
  5
1201D
  8
0
 10
4645.6018150507234168
 20
235.8580876952015046
 30
0.0
 11
4645.6110515526788731
 21
235.8562638074641029
 31
0.0
  0
LINE
  5
1201E
  8
0
 10
4645.6110515526788731
 20
235.8562638074641029
 30
0.0
 11
4645.6202880569107947
 21
235.8580876981824872
 31
0.0
  0
LINE
  5
1201F
  8
0
 10
4645.6110515526788731
 20
235.8562638074641029
 30
0.0
 11
4645.6110515526788731
 21
235.8398361023141092
 31
0.0
  0
LINE
  5
12020
  8
0
 10
4645.6017609017208088
 20
235.8277789074452926
 30
0.0
 11
4645.6110515526788731
 21
235.8259443271641089
 31
0.0
  0
LINE
  5
12021
  8
0
 10
4645.6110515526788731
 20
235.8259443271641089
 30
0.0
 11
4645.6202862352702141
 21
235.8277678581713985
 31
0.0
  0
LINE
  5
12022
  8
0
 10
4645.6110515526788731
 20
235.8259443271641089
 30
0.0
 11
4645.6110515526788731
 21
235.8095162105938982
 31
0.0
  0
LINE
  5
12023
  8
0
 10
4645.6061302943780902
 20
235.805021680064101
 30
0.0
 11
4645.6061302943780902
 21
235.8101617562230103
 31
0.0
  0
LINE
  5
12024
  8
0
 10
4645.615972814079214
 20
235.8030781249640881
 30
0.0
 11
4645.615972814079214
 21
235.8101611619615028
 31
0.0
  0
ARC
  5
12025
  8
0
 10
4645.6126529827342893
 20
235.8059984813818062
 30
0.0
 40
0.0065954229730628
 50
188.5170032348798941
 51
272.6532350864152932
  0
ARC
  5
12026
  8
0
 10
4645.6123536648829031
 20
235.8029797702239136
 30
0.0
 40
0.0036204854040456
 50
279.6135415597981932
 51
1.55669868943573
  0
LINE
  5
12027
  8
0
 10
4645.5805397431777237
 20
235.8201814167640862
 30
0.0
 11
4645.5805397431777237
 21
235.8252966733410005
 31
0.0
  0
LINE
  5
12028
  8
0
 10
4645.5903822628788475
 20
235.8201814180640952
 30
0.0
 11
4645.5903822628788475
 21
235.8253261605356101
 31
0.0
  0
ARC
  5
12029
  8
0
 10
4645.586676741851079
 20
235.8206162370966013
 30
0.0
 40
0.0061523833934351
 50
184.0527638338207908
 51
258.603092933661685
  0
ARC
  5
1202A
  8
0
 10
4645.5843218308227733
 20
235.8205489051761958
 30
0.0
 40
0.0060715635125535
 50
280.8141734404987915
 51
356.5299980036430725
  0
LINE
  5
1202B
  8
0
 10
4645.5601341594792757
 20
235.8259963936640986
 30
0.0
 11
4645.5601341610790769
 21
235.816152018864102
 31
0.0
  0
LINE
  5
1202C
  8
0
 10
4645.5601341594792757
 20
235.8259963936640986
 30
0.0
 11
4645.556125307176444
 21
235.8287660846943936
 31
0.0
  0
LINE
  5
1202D
  8
0
 10
4645.5601341594792757
 20
235.8259963936640986
 30
0.0
 11
4645.5688119706546786
 21
235.8277099617532997
 31
0.0
  0
ARC
  5
1202E
  8
0
 10
4645.5341108673992494
 20
235.8338561845071979
 30
0.0
 40
0.0101825517825542
 50
298.9611142994153283
 51
356.4925889217259964
  0
LINE
  5
1202F
  8
0
 10
4645.5442743461780992
 20
235.8332332399641018
 30
0.0
 11
4645.5442743461780992
 21
235.836601865856494
 31
0.0
  0
LINE
  5
12030
  8
0
 10
4645.5805397431777237
 20
235.8505008970641939
 30
0.0
 11
4645.5805397431777237
 21
235.855590428702186
 31
0.0
  0
LINE
  5
12031
  8
0
 10
4645.5903822628788475
 20
235.8505008983640892
 30
0.0
 11
4645.5903822628788475
 21
235.8556409742907931
 31
0.0
  0
ARC
  5
12032
  8
0
 10
4645.5866689723270611
 20
235.8509288849901964
 30
0.0
 40
0.006144153612665
 50
183.9943298445969049
 51
258.6615269229080241
  0
ARC
  5
12033
  8
0
 10
4645.5842618846118057
 20
235.8509211000892947
 30
0.0
 40
0.0061347860295037
 50
281.2717544205535205
 51
356.0724545861399974
  0
ARC
  5
12034
  8
0
 10
4645.6121326268603298
 20
235.8659770376031872
 30
0.0
 40
0.0060106657017105
 50
183.0174005277442859
 51
259.6384562395721218
  0
ARC
  5
12035
  8
0
 10
4645.6098776162398281
 20
235.8660587016931913
 30
0.0
 40
0.0061081820674263
 50
281.0806857172510718
 51
356.2634854849845283
  0
ARC
  5
12036
  8
0
 10
4645.6121890846916358
 20
235.8357078885609042
 30
0.0
 40
0.0060698788811969
 50
183.4637894256595132
 51
258.3611065844036148
  0
ARC
  5
12037
  8
0
 10
4645.6099929237516335
 20
235.8356725431424081
 30
0.0
 40
0.0059890651971863
 50
279.3363606590999098
 51
356.8281434231504932
  0
LINE
  5
12038
  8
0
 10
4645.6061302943780902
 20
235.835341160364095
 30
0.0
 11
4645.6061302943780902
 21
235.8404812366102874
 31
0.0
  0
LINE
  5
12039
  8
0
 10
4645.615972814079214
 20
235.8353411617640916
 30
0.0
 11
4645.615972814079214
 21
235.8404812376967925
 31
0.0
  0
ARC
  5
1203A
  8
0
 10
4645.6401480115528102
 20
235.7946086376641972
 30
0.0
 40
0.0084650136709606
 50
185.4200772114442941
 51
248.012835911138211
  0
ARC
  5
1203B
  8
0
 10
4645.6350493025092874
 20
235.7929982967625051
 30
0.0
 40
0.0065305198471868
 50
287.184297557085074
 51
355.9315154641503796
  0
LINE
  5
1203C
  8
0
 10
4645.6415633651777171
 20
235.7925349642640924
 30
0.0
 11
4645.6415633651777171
 21
235.7947589621238933
 31
0.0
  0
LINE
  5
1203D
  8
0
 10
4645.6317208455793661
 20
235.8505009040640914
 30
0.0
 11
4645.6317208455793661
 21
235.8556409802230007
 31
0.0
  0
LINE
  5
1203E
  8
0
 10
4645.6415633651777171
 20
235.850500905464088
 30
0.0
 11
4645.6415633651777171
 21
235.8555911101215941
 31
0.0
  0
ARC
  5
1203F
  8
0
 10
4645.6377769757846181
 20
235.8508646098420911
 30
0.0
 40
0.006067041698823
 50
183.4368163040244895
 51
259.2190404634853849
  0
ARC
  5
12040
  8
0
 10
4645.6354860741175798
 20
235.850883218006004
 30
0.0
 40
0.0060893045193347
 50
280.9438148611034194
 51
356.4003587531648805
  0
LINE
  5
12041
  8
0
 10
4645.5854614118288737
 20
235.854995353714088
 30
0.0
 11
4645.5854614118288737
 21
235.8661170292558893
 31
0.0
  0
LINE
  5
12042
  8
0
 10
4645.5854610036285521
 20
235.8246763586141128
 30
0.0
 11
4645.5854610036285521
 21
235.841104064288686
 31
0.0
  0
LINE
  5
12043
  8
0
 10
4645.5854610014803256
 20
235.8411040638640941
 30
0.0
 11
4645.576196767179681
 21
235.8429334276669067
 31
0.0
  0
LINE
  5
12044
  8
0
 10
4645.5854610014803256
 20
235.8411040638640941
 30
0.0
 11
4645.5946975058232056
 21
235.8429279544976112
 31
0.0
  0
ARC
  5
12045
  8
0
 10
4645.5591139297057452
 20
235.8188059528507949
 30
0.0
 40
0.0096298792405742
 50
248.3542954899473045
 51
280.5413196114299126
  0
ARC
  5
12046
  8
0
 10
4645.545102336551281
 20
235.8162944189865016
 30
0.0
 40
0.0150324990082311
 50
331.8646232646248109
 51
359.4572394089922796
  0
ARC
  5
12047
  8
0
 10
4645.6651487822837225
 20
235.8407420852589951
 30
0.0
 40
0.0107973489720872
 50
177.9722494610873866
 51
264.1564265820027231
  0
LINE
  5
12048
  8
0
 10
4645.6317208455793661
 20
235.8201814237640974
 30
0.0
 11
4645.6317208455793661
 21
235.8253207138648975
 31
0.0
  0
LINE
  5
12049
  8
0
 10
4645.6415633651777171
 20
235.8201814250641064
 30
0.0
 11
4645.6415633651777171
 21
235.8252710216019921
 31
0.0
  0
ARC
  5
1204A
  8
0
 10
4645.6378209268623323
 20
235.8205837794808133
 30
0.0
 40
0.0061133363872819
 50
183.7737102977079076
 51
258.8821464697375063
  0
ARC
  5
1204B
  8
0
 10
4645.6354933715492734
 20
235.8205573198380876
 30
0.0
 40
0.0060816214565998
 50
280.8878071788765851
 51
356.4563857117843781
  0
LINE
  5
1204C
  8
0
 10
4645.6631488700713817
 20
235.8295340216587874
 30
0.0
 11
4645.6640494731500439
 21
235.8300008439780981
 31
0.0
  0
LINE
  5
1204D
  8
0
 10
4645.615972814079214
 20
235.8061167489821059
 30
0.0
 11
4645.6317208445871074
 21
235.803730902708395
 31
0.0
  0
LINE
  5
1204E
  8
0
 10
4646.2899259123778393
 20
236.5681943583701923
 30
0.0
 11
4646.2899259123778393
 21
236.4961330817070859
 31
0.0
  0
LINE
  5
1204F
  8
0
 10
4646.5774766325794189
 20
236.0560768754641003
 30
0.0
 11
4646.6719896069726019
 21
232.0932712483831892
 31
0.0
  0
ARC
  5
12050
  8
0
 10
4646.6616925351636382
 20
232.0930256630641111
 30
0.0
 40
0.0103
 50
270.0
 51
1.3662462000376401
  0
ARC
  5
12051
  8
0
 10
4646.3290220689486887
 20
236.0566048060063054
 30
0.0
 40
0.2484551245183973
 50
359.8782548165777939
 51
40.158884045485749
  0
ARC
  5
12052
  8
0
 10
4628.5167891656183201
 20
214.9533948770063034
 30
0.0
 40
27.8612188389662983
 50
49.7525981054670297
 51
50.288560234235959
  0
ARC
  5
12053
  8
0
 10
4645.6869039784733104
 20
234.9853100558123913
 30
0.0
 40
1.7947681900244581
 50
75.6659208973110964
 51
89.970652048904995
  0
ARC
  5
12054
  8
0
 10
4646.1069427586853635
 20
236.5430501388887876
 30
0.0
 40
0.1827772808533341
 50
19.7531984107703984
 51
82.3594902453955342
  0
ARC
  5
12055
  8
0
 10
4645.9455835063336053
 20
236.4851060787107997
 30
0.0
 40
0.3542250059167737
 50
2.7062158347334599
 51
19.7531984107703984
  0
ARC
  5
12056
  8
0
 10
4647.2641509961085831
 20
236.5970213686711077
 30
0.0
 40
0.9694223829691641
 50
185.6351325291859951
 51
192.5574861449387924
  0
ARC
  5
12057
  8
0
 10
4645.7572937122322401
 20
236.0653285591550912
 30
0.0
 40
0.5080057302713782
 50
336.8694951324969793
 51
351.3381279359431915
  0
ARC
  5
12058
  8
0
 10
4644.4889722761572557
 20
236.2585453216240978
 30
0.0
 40
1.790960126383571
 50
351.3381279359431915
 51
357.4416461541957233
  0
ARC
  5
12059
  8
0
 10
4625.3234564367821804
 20
237.1148873408554891
 30
0.0
 40
20.9755977055311611
 50
357.4416461541957233
 51
358.3095999596590104
  0
ARC
  5
1205A
  8
0
 10
4645.6660928267383497
 20
234.5131985839637139
 30
0.0
 40
1.57668252076329
 50
77.1139177628439683
 51
89.2103017998389731
  0
ARC
  5
1205B
  8
0
 10
4645.8810554016299648
 20
235.4872135782256919
 30
0.0
 40
0.5793089602438753
 50
58.1097868637231016
 51
76.3553540050773023
  0
ARC
  5
1205C
  8
0
 10
4646.1270045980090799
 20
235.8824979724682009
 30
0.0
 40
0.1137547104185272
 50
26.4414122575503008
 51
58.1097868637231016
  0
ARC
  5
1205D
  8
0
 10
4646.1722223334927548
 20
235.904985001938087
 30
0.0
 40
0.0632541154041656
 50
341.9656687153832877
 51
26.4414122575503008
  0
ARC
  5
1205E
  8
0
 10
4645.6619491935680344
 20
236.5383466256446923
 30
0.0
 40
0.9174658541484609
 50
271.616052734028699
 51
297.1016188213949931
  0
ARC
  5
1205F
  8
0
 10
4645.9250248895486948
 20
236.0214767412946912
 30
0.0
 40
0.3375013362742478
 50
297.3189989452528152
 51
332.5257072820189137
  0
ARC
  5
12060
  8
0
 10
4645.6741142481178031
 20
234.8926891542724036
 30
0.0
 40
1.139314135893458
 50
75.921389950559302
 51
89.3105595130440548
  0
ARC
  5
12061
  8
0
 10
4645.8540362656412981
 20
235.6521764123492062
 30
0.0
 40
0.3590188931112688
 50
58.8993973704048912
 51
74.2885948589067908
  0
LINE
  5
12062
  8
0
 10
4646.0772285027778707
 20
235.9231593195640926
 30
0.0
 11
4646.07722850187929
 21
235.9091807606129123
 31
0.0
  0
ARC
  5
12063
  8
0
 10
4646.0486617840506369
 20
235.9096319885229889
 30
0.0
 40
0.0285702812012818
 50
308.9259633334631872
 51
359.0950551173131089
  0
ARC
  5
12064
  8
0
 10
4646.0120029699892257
 20
235.9550216526710074
 30
0.0
 40
0.0869148632968661
 50
280.6890490448690798
 51
308.9259633334631872
  0
ARC
  5
12065
  8
0
 10
4645.9668256362729153
 20
236.1258316885748911
 30
0.0
 40
0.2634473481141901
 50
269.3435302382462737
 51
283.4547427674020241
  0
ARC
  5
12066
  8
0
 10
4645.9623045134967469
 20
236.1189038327522098
 30
0.0
 40
0.2565066022107744
 50
253.9733898949637876
 51
270.3356650919992035
  0
ARC
  5
12067
  8
0
 10
4645.7065872237672011
 20
235.1279244410278864
 30
0.0
 40
0.7670608296509424
 50
76.0514820262309144
 51
86.6117212798064742
  0
ARC
  5
12068
  8
0
 10
4645.6880135023093317
 20
234.9199508479323981
 30
0.0
 40
0.9757886326448154
 50
86.2447604870319253
 51
90.0111686753027556
  0
ARC
  5
12069
  8
0
 10
4645.9860213386309624
 20
235.8664334857145946
 30
0.0
 40
0.1074084122296283
 50
31.8793372381987794
 51
60.1482264514885117
  0
ARC
  5
1206A
  8
0
 10
4645.6898171134116637
 20
235.1009419597426984
 30
0.0
 40
0.7768970895359705
 50
80.9315018798706944
 51
90.1470435367998277
  0
ARC
  5
1206B
  8
0
 10
4645.7334004598651518
 20
235.3740031527534882
 30
0.0
 40
0.5003795978349415
 50
70.2335299600623841
 51
80.9315018798706944
  0
ARC
  5
1206C
  8
0
 10
4645.8386463219467259
 20
235.6668724240686004
 30
0.0
 40
0.1891737149119782
 50
53.7338541051553804
 51
70.2335299600623841
  0
ARC
  5
1206D
  8
0
 10
4645.9238764161873405
 20
235.7897053254588968
 30
0.0
 40
0.0399145521806484
 50
352.3156332304754983
 51
48.067403560564621
  0
ARC
  5
1206E
  8
0
 10
4645.9016883187114217
 20
235.8037647177565077
 30
0.0
 40
0.0647192009795134
 50
301.0673789527168083
 51
342.5601793318838872
  0
ARC
  5
1206F
  8
0
 10
4645.683091854293707
 20
236.2019927056373945
 30
0.0
 40
0.4466481633552693
 50
270.606957524454117
 51
289.8859511910579272
  0
ARC
  5
12070
  8
0
 10
4645.8109788868723626
 20
235.8401054895984998
 30
0.0
 40
0.0629029577979868
 50
292.4684212933327103
 51
322.0294342615706
  0
ARC
  5
12071
  8
0
 10
4645.8413342326293787
 20
235.8164143973611999
 30
0.0
 40
0.0243969210329912
 50
322.0294342615706
 51
19.34606306548147
  0
ARC
  5
12072
  8
0
 10
4645.6767681382279989
 20
236.343040061734996
 30
0.0
 40
0.5955155729531425
 50
271.0637001791590137
 51
284.5888712541707832
  0
ARC
  5
12073
  8
0
 10
4645.7976696918030939
 20
235.8807097121793959
 30
0.0
 40
0.1176400655022678
 50
284.3204865548058251
 51
315.4191932724900767
  0
ARC
  5
12074
  8
0
 10
4645.8598443011387644
 20
235.8171141488402043
 30
0.0
 40
0.0287645281714799
 50
318.7183787781722231
 51
359.2691465137082218
  0
LINE
  5
12075
  8
0
 10
4645.8706817454803968
 20
235.8223405746641106
 30
0.0
 11
4645.9026224588787954
 21
235.833464219864112
 31
0.0
  0
LINE
  5
12076
  8
0
 10
4645.9026224588787954
 20
235.8334642199640996
 30
0.0
 11
4645.9026224605777315
 21
235.8448998042640881
 31
0.0
  0
LINE
  5
12077
  8
0
 10
4645.812267862279441
 20
235.843339997145506
 30
0.0
 11
4645.812267862279441
 21
235.8681283137865989
 31
0.0
  0
ARC
  5
12078
  8
0
 10
4645.7526577335029287
 20
235.572727599448001
 30
0.0
 40
0.275364488562675
 50
64.9846424031030665
 51
77.2519167237837365
  0
ARC
  5
12079
  8
0
 10
4645.8142517150290587
 20
235.8431192849267859
 30
0.0
 40
0.0019960925880064
 50
173.6517023249818124
 51
245.4064747218924083
  0
ARC
  5
1207A
  8
0
 10
4645.8697684669459704
 20
235.8247345878268959
 30
0.0
 40
0.0025622991046847
 50
254.8469066196778101
 51
290.8810696801498921
  0
LINE
  5
1207B
  8
0
 10
4645.8402238670778388
 20
235.856075255264102
 30
0.0
 11
4645.8402238670778388
 21
235.8628471990512026
 31
0.0
  0
ARC
  5
1207C
  8
0
 10
4645.7330184787542748
 20
235.41994350996751
 30
0.0
 40
0.4469506546256502
 50
67.6991962081676775
 51
75.444994490726387
  0
ARC
  5
1207D
  8
0
 10
4645.8536799029789108
 20
235.8701323192858013
 30
0.0
 40
0.019459340972075
 50
226.2514365361797957
 51
244.6268657582845094
  0
LINE
  5
1207E
  8
0
 10
4645.8402238670778388
 20
235.856075255264102
 30
0.0
 11
4645.8122678627787536
 21
235.846513746737287
 31
0.0
  0
LINE
  5
1207F
  8
0
 10
4645.8886064891976275
 20
235.8167472442308963
 30
0.0
 11
4645.8886039461849577
 21
235.8285821447684043
 31
0.0
  0
LINE
  5
12080
  8
0
 10
4645.9087523093794516
 20
235.7656016916641022
 30
0.0
 11
4645.9466573072786559
 21
235.7656016916641022
 31
0.0
  0
LINE
  5
12081
  8
0
 10
4645.9535713983777896
 20
235.7830040425641016
 30
0.0
 11
4645.9535713983777896
 21
235.8163770241004045
 31
0.0
  0
LINE
  5
12082
  8
0
 10
4645.9048458322286024
 20
235.7696568172140985
 30
0.0
 11
4645.9048458322286024
 21
235.826110232248908
 31
0.0
  0
ARC
  5
12083
  8
0
 10
4645.8859676984502585
 20
235.8273028816381043
 30
0.0
 40
0.018915769811272
 50
356.3850726855928883
 51
28.3009334104758388
  0
ARC
  5
12084
  8
0
 10
4645.9163933289064516
 20
235.7833005805379969
 30
0.0
 40
0.0371792520711234
 50
336.4660502618287978
 51
359.5430097818340869
  0
ARC
  5
12085
  8
0
 10
4645.9460701122634418
 20
235.7703758334077975
 30
0.0
 40
0.0048101223504595
 50
277.0118638504142154
 51
336.4660502618332885
  0
LINE
  5
12086
  8
0
 10
4645.9466573072795654
 20
235.7927698247640933
 30
0.0
 11
4645.9048458322286024
 21
235.7927698310402036
 31
0.0
  0
LINE
  5
12087
  8
0
 10
4645.9505495475787029
 20
235.7966718882647115
 30
0.0
 11
4645.9505495475787029
 21
235.8193990201320105
 31
0.0
  0
ARC
  5
12088
  8
0
 10
4645.9465029581533599
 20
235.7968160379903964
 30
0.0
 40
0.0040491561003342
 50
272.1845778107326055
 51
357.9598424361643083
  0
ARC
  5
12089
  8
0
 10
4645.9160463726720991
 20
235.781422376975911
 30
0.0
 40
0.0377247264774563
 50
5.8980144722679011
 51
22.7803469975800184
  0
LINE
  5
1208A
  8
0
 10
4645.9087523139778568
 20
235.827412562564092
 30
0.0
 11
4645.9387140907110734
 21
235.827412562564092
 31
0.0
  0
ARC
  5
1208B
  8
0
 10
4645.9081188260561248
 20
235.8228026545575062
 30
0.0
 40
0.0046532310041221
 50
82.1754908933075967
 51
134.6988876711344858
  0
ARC
  5
1208C
  8
0
 10
4645.6791297208683318
 20
236.3347178766915988
 30
0.0
 40
0.6877688141514481
 50
270.7242523523344175
 51
285.8268606701851127
  0
ARC
  5
1208D
  8
0
 10
4645.6771670051939509
 20
236.3496977798540115
 30
0.0
 40
0.7027195617596518
 50
285.6477148230728744
 51
310.1549208442274903
  0
ARC
  5
1208E
  8
0
 10
4646.0403642829769524
 20
235.9208145516963953
 30
0.0
 40
0.1407161446167621
 50
309.7376311649214813
 51
352.7305287978006731
  0
ARC
  5
1208F
  8
0
 10
4646.1086009772752732
 20
235.9004197539844085
 30
0.0
 40
0.0713953370857709
 50
2.078268109292392
 51
49.0120484247728072
  0
ARC
  5
12090
  8
0
 10
4645.9104558827448272
 20
235.6306982628603066
 30
0.0
 40
0.4058792952804608
 50
52.8745648275099001
 51
73.9422735759302867
  0
ARC
  5
12091
  8
0
 10
4645.7235665049820454
 20
234.981407208558295
 30
0.0
 40
1.081531952137367
 50
73.9422735759302867
 51
83.5550323015069267
  0
ARC
  5
12092
  8
0
 10
4645.6254343015571067
 20
233.5039606207679128
 30
0.0
 40
2.5615679998209129
 50
85.0835745094968559
 51
88.6043785171994358
  0
LINE
  5
12093
  8
0
 10
4645.8122678672780239
 20
235.7496487596640975
 30
0.0
 11
4645.8122678627787536
 21
235.7200521399300044
 31
0.0
  0
LINE
  5
12094
  8
0
 10
4645.7311304580789511
 20
235.7370385827358064
 30
0.0
 11
4645.7311304534787268
 21
235.69447769284929
 31
0.0
  0
LINE
  5
12095
  8
0
 10
4645.868653461078793
 20
235.7398653523711118
 30
0.0
 11
4645.8686534656790172
 21
235.7694619721640947
 31
0.0
  0
LINE
  5
12096
  8
0
 10
4645.9026248334794218
 20
235.7597123886640986
 30
0.0
 11
4645.9026224592789731
 21
235.7299281149662988
 31
0.0
  0
LINE
  5
12097
  8
0
 10
4645.8417305531966122
 20
235.7071609300105024
 30
0.0
 11
4645.8152100842908112
 21
235.7162566763543907
 31
0.0
  0
ARC
  5
12098
  8
0
 10
4645.8385994723394106
 20
235.851683976544706
 30
0.0
 40
0.0803436198755524
 50
295.3888292748305275
 51
325.5416697622811739
  0
ARC
  5
12099
  8
0
 10
4645.8809488161159607
 20
235.7696771078626909
 30
0.0
 40
0.0122972324422934
 50
129.9804458356591965
 51
181.0024203793734898
  0
ARC
  5
1209A
  8
0
 10
4645.727039186464026
 20
236.0527402135886064
 30
0.0
 40
0.3434316257632771
 50
284.3691193725697985
 51
294.3525884939751904
  0
ARC
  5
1209B
  8
0
 10
4645.6981582044136303
 20
236.2699207487829938
 30
0.0
 40
0.5299397203982842
 50
273.9937719723420173
 51
282.1330029083126192
  0
ARC
  5
1209C
  8
0
 10
4645.7353621994761852
 20
235.7370464473241043
 30
0.0
 40
0.0042317487049166
 50
93.993771972290034
 51
180.1064826875046947
  0
ARC
  5
1209D
  8
0
 10
4645.8103421406558482
 20
235.7500267602200097
 30
0.0
 40
0.001962474827041
 50
348.8946135138315867
 51
114.0662690685771992
  0
ARC
  5
1209E
  8
0
 10
4645.6958437296498232
 20
236.3839107945794922
 30
0.0
 40
0.6571013656384216
 50
273.0759008940947865
 51
280.2054496124288789
  0
ARC
  5
1209F
  8
0
 10
4645.7677985727714258
 20
236.0218119222153064
 30
0.0
 40
0.3238305532191278
 50
283.6043682887507771
 51
294.0667936185870985
  0
ARC
  5
120A0
  8
0
 10
4645.8430148783299956
 20
235.7110533906642047
 30
0.0
 40
0.0040988706970208
 50
251.7395907844060048
 51
283.4572987188341813
  0
ARC
  5
120A1
  8
0
 10
4645.8986585948150605
 20
235.7299101138349045
 30
0.0
 40
0.003963905338519
 50
287.599223473987422
 51
0.2601960220242954
  0
ARC
  5
120A2
  8
0
 10
4645.9109340120949128
 20
235.7597389918811928
 30
0.0
 40
0.0083092212031758
 50
134.9967075226074087
 51
180.1834413391181897
  0
ARC
  5
120A3
  8
0
 10
4645.9087327995321175
 20
235.7694920986365048
 30
0.0
 40
0.0038904558886557
 50
177.5734203084386991
 51
270.2873190835122728
  0
LINE
  5
120A4
  8
0
 10
4645.9050588430791322
 20
235.7656148361641044
 30
0.0
 11
4645.9064792935960213
 21
235.7663241342033018
 31
0.0
  0
ARC
  5
120A5
  8
0
 10
4645.8161766968705706
 20
235.7200441173401089
 30
0.0
 40
0.0039088424246953
 50
179.8824042118110924
 51
255.682870491012892
  0
ARC
  5
120A6
  8
0
 10
4645.6878234709793105
 20
236.4550826424658965
 30
0.0
 40
0.7655605566018141
 50
269.9999865808919139
 51
272.9631421010054737
  0
ARC
  5
120A7
  8
0
 10
4645.7271945414731817
 20
235.6944762937640121
 30
0.0
 40
0.0039359122542381
 50
272.9631421010054737
 51
0.0203667355939912
  0
LINE
  5
120A8
  8
0
 10
4645.8998571092297425
 20
235.7261317400144947
 30
0.0
 11
4645.8718825693777035
 21
235.7353954404640888
 31
0.0
  0
ARC
  5
120A9
  8
0
 10
4645.8733411397352029
 20
235.7398504517688878
 30
0.0
 40
0.0046877023380807
 50
179.8178760096365068
 51
251.8715573993542023
  0
LINE
  5
120AA
  8
0
 10
4645.9026248334794218
 20
235.7597123886640986
 30
0.0
 11
4645.8746664594791582
 21
235.7696437815640991
 31
0.0
  0
ARC
  5
120AB
  8
0
 10
4645.871929318805087
 20
235.7606444413650877
 30
0.0
 40
0.0094063841666975
 50
73.0829116080268051
 51
110.3808333888083979
  0
ARC
  5
120AC
  8
0
 10
4645.8334935491147917
 20
235.9002476472257115
 30
0.0
 40
0.1827578976353341
 50
292.2255747932056238
 51
303.7718677498115198
  0
ARC
  5
120AD
  8
0
 10
4645.6973088502645624
 20
236.3755640009030117
 30
0.0
 40
0.6792577879445105
 50
272.8540515740378964
 51
281.5480075953254868
  0
ARC
  5
120AE
  8
0
 10
4645.6882170989183578
 20
236.3344600040605883
 30
0.0
 40
0.6268626295951202
 50
269.9640056797539955
 51
273.5015196777853248
  0
ARC
  5
120AF
  8
0
 10
4645.7272751722666726
 20
235.7003620213332908
 30
0.0
 40
0.0084410100490666
 50
62.8235456842293587
 51
95.250434531841023
  0
ARC
  5
120B0
  8
0
 10
4645.6945407680232165
 20
236.1120462422647108
 30
0.0
 40
0.3284851119268443
 50
268.8282273359739065
 51
290.7294396625712238
  0
ARC
  5
120B1
  8
0
 10
4645.7831988162033667
 20
235.8668206156823999
 30
0.0
 40
0.0678648622412762
 50
294.0073194530327214
 51
330.2579351759620181
  0
ARC
  5
120B2
  8
0
 10
4645.707269321412241
 20
235.5262299051616992
 30
0.0
 40
0.349854677438263
 50
72.5351626343755669
 51
86.0892210817636538
  0
LINE
  5
120B3
  8
0
 10
4645.7311304534787268
 20
235.8585661922762995
 30
0.0
 11
4645.7311304534787268
 21
235.8767398043270873
 31
0.0
  0
ARC
  5
120B4
  8
0
 10
4645.687473957682414
 20
235.1915320956667017
 30
0.0
 40
0.6631785049501183
 50
86.5663516708134892
 51
89.9698190390318757
  0
ARC
  5
120B5
  8
0
 10
4645.7265134710805796
 20
235.8581094956504955
 30
0.0
 40
0.0046395148740125
 50
278.427709546800827
 51
5.649132137392713
  0
LINE
  5
120B6
  8
0
 10
4645.6927446354793574
 20
235.778515165464114
 30
0.0
 11
4645.6927446354793574
 21
235.7835660409351988
 31
0.0
  0
LINE
  5
120B7
  8
0
 10
4645.7307010376198377
 20
235.7768844924933944
 30
0.0
 11
4645.7242096270128968
 21
235.7849037235303911
 31
0.0
  0
LINE
  5
120B8
  8
0
 10
4645.7386678624789056
 20
235.7810261672640877
 30
0.0
 11
4645.7386678633083648
 21
235.7865385338778026
 31
0.0
  0
LINE
  5
120B9
  8
0
 10
4645.7811261216793355
 20
235.7875167946754971
 30
0.0
 11
4645.7811261216793355
 21
235.7951780594349032
 31
0.0
  0
LINE
  5
120BA
  8
0
 10
4645.7743784441790922
 20
235.7824284493640903
 30
0.0
 11
4645.7609977283900662
 21
235.7903539340316001
 31
0.0
  0
LINE
  5
120BB
  8
0
 10
4645.8121917603803013
 20
235.7916858412640977
 30
0.0
 11
4645.7923653817588274
 21
235.7984656087670032
 31
0.0
  0
LINE
  5
120BC
  8
0
 10
4645.8172259529792427
 20
235.7975447148641024
 30
0.0
 11
4645.8172259529792427
 21
235.8081027011261028
 31
0.0
  0
LINE
  5
120BD
  8
0
 10
4645.8411434173804082
 20
235.8041317854641079
 30
0.0
 11
4645.8181790443650243
 21
235.8086654511247104
 31
0.0
  0
LINE
  5
120BE
  8
0
 10
4645.8594453953792254
 20
235.8187526090640915
 30
0.0
 11
4645.8333882113811342
 21
235.8211405966519862
 31
0.0
  0
LINE
  5
120BF
  8
0
 10
4645.8445072124786748
 20
235.8104265489641023
 30
0.0
 11
4645.8445072124786748
 21
235.8201216056276905
 31
0.0
  0
LINE
  5
120C0
  8
0
 10
4645.8611107274791721
 20
235.8252844187641131
 30
0.0
 11
4645.8611107274791721
 21
235.8257778793627892
 31
0.0
  0
ARC
  5
120C1
  8
0
 10
4645.849933100895214
 20
235.8245805109376079
 30
0.0
 40
0.011155271851218
 50
328.5092489644504781
 51
3.638971114845496
  0
ARC
  5
120C2
  8
0
 10
4645.8388254265473734
 20
235.8094166271744996
 30
0.0
 40
0.005770843387472
 50
293.6827951269679033
 51
10.0789021112259896
  0
ARC
  5
120C3
  8
0
 10
4645.8120374626450939
 20
235.7969106530790953
 30
0.0
 40
0.0052270896579756
 50
271.6915518810257026
 51
6.9673097857786299
  0
ARC
  5
120C4
  8
0
 10
4645.7757780941410601
 20
235.7875906026106065
 30
0.0
 40
0.0053485368239511
 50
254.8297314672342964
 51
359.209313210603284
  0
ARC
  5
120C5
  8
0
 10
4645.7335808129209909
 20
235.7810782594181944
 30
0.0
 40
0.0050873162670817
 50
235.523397793135814
 51
359.4133030904799284
  0
ARC
  5
120C6
  8
0
 10
4645.6877170748311983
 20
235.7789093097476893
 30
0.0
 40
0.005042986792668
 50
271.2068695470825901
 51
355.5173670852527721
  0
LINE
  5
120C7
  8
0
 10
4645.7409103985792171
 20
235.824675394964089
 30
0.0
 11
4645.7370983953778705
 21
235.8246755432641919
 31
0.0
  0
LINE
  5
120C8
  8
0
 10
4645.7370983953778705
 20
235.8246755432641919
 30
0.0
 11
4645.7124977132862114
 21
235.8295340216587874
 31
0.0
  0
LINE
  5
120C9
  8
0
 10
4645.711507844179323
 20
235.809515806664109
 30
0.0
 11
4645.7153215464777531
 21
235.8095167173640903
 31
0.0
  0
LINE
  5
120CA
  8
0
 10
4645.7153215464777531
 20
235.8095167173640903
 30
0.0
 11
4645.7390044772791953
 21
235.8145851743641117
 31
0.0
  0
LINE
  5
120CB
  8
0
 10
4645.7390044772791953
 20
235.8145851743641117
 30
0.0
 11
4645.7626889465791464
 21
235.8095157996640978
 31
0.0
  0
LINE
  5
120CC
  8
0
 10
4645.7626889465791464
 20
235.8095157996640978
 30
0.0
 11
4645.7665017661793172
 21
235.8095166216641019
 31
0.0
  0
LINE
  5
120CD
  8
0
 10
4645.7665017661793172
 20
235.8095166216641019
 30
0.0
 11
4645.7901855796790187
 21
235.8145851673641005
 31
0.0
  0
LINE
  5
120CE
  8
0
 10
4645.7901855796790187
 20
235.8145851673641005
 30
0.0
 11
4645.8147709195791322
 21
235.8093385948641014
 31
0.0
  0
LINE
  5
120CF
  8
0
 10
4645.7409103985792171
 20
235.824675394964089
 30
0.0
 11
4645.7646820531981575
 21
235.8297628153208905
 31
0.0
  0
LINE
  5
120D0
  8
0
 10
4645.7646820531981575
 20
235.8297628153208905
 30
0.0
 11
4645.7882788420793077
 21
235.8246763588641102
 31
0.0
  0
LINE
  5
120D1
  8
0
 10
4645.7882788420793077
 20
235.8246763588641102
 30
0.0
 11
4645.7920923173778647
 21
235.824676358364087
 31
0.0
  0
LINE
  5
120D2
  8
0
 10
4645.7920923173778647
 20
235.824676358364087
 30
0.0
 11
4645.8157712061793063
 21
235.8295488938640858
 31
0.0
  0
LINE
  5
120D3
  8
0
 10
4645.8157712061793063
 20
235.8295488938640858
 30
0.0
 11
4645.833044130478811
 21
235.8259432535641054
 31
0.0
  0
LINE
  5
120D4
  8
0
 10
4645.833044130478811
 20
235.8259432535641054
 30
0.0
 11
4645.8351591821792681
 21
235.8259174076640932
 31
0.0
  0
LINE
  5
120D5
  8
0
 10
4645.7390044772791953
 20
235.8449046546641057
 30
0.0
 11
4645.7626882909789856
 21
235.8398361025641918
 31
0.0
  0
LINE
  5
120D6
  8
0
 10
4645.7626882909789856
 20
235.8398361025641918
 30
0.0
 11
4645.7665017661793172
 21
235.8398361020641119
 31
0.0
  0
LINE
  5
120D7
  8
0
 10
4645.7665017661793172
 20
235.8398361020641119
 30
0.0
 11
4645.7901855796790187
 21
235.8449046476640945
 31
0.0
  0
LINE
  5
120D8
  8
0
 10
4645.7901855796790187
 20
235.8449046476640945
 30
0.0
 11
4645.8157745952958066
 21
235.8394598838889067
 31
0.0
  0
LINE
  5
120D9
  8
0
 10
4645.8157745952958066
 20
235.8394598838889067
 30
0.0
 11
4645.8187418723837254
 21
235.8400448045620976
 31
0.0
  0
LINE
  5
120DA
  8
0
 10
4645.7645950284777427
 20
235.8600643913640909
 30
0.0
 11
4645.7409112149789507
 21
235.8549958456640923
 31
0.0
  0
LINE
  5
120DB
  8
0
 10
4645.7409112149789507
 20
235.8549958456640923
 30
0.0
 11
4645.7370977397777096
 21
235.854995846164087
 31
0.0
  0
LINE
  5
120DC
  8
0
 10
4645.7370977397777096
 20
235.854995846164087
 30
0.0
 11
4645.7307626467982118
 21
235.8562468083462136
 31
0.0
  0
LINE
  5
120DD
  8
0
 10
4645.7645950284777427
 20
235.8600643913640909
 30
0.0
 11
4645.7882788420793077
 21
235.8549958391641042
 31
0.0
  0
LINE
  5
120DE
  8
0
 10
4645.7882788420793077
 20
235.8549958391641042
 30
0.0
 11
4645.7920915009790406
 21
235.8549948682641002
 31
0.0
  0
LINE
  5
120DF
  8
0
 10
4645.7920915009790406
 20
235.8549948682641002
 30
0.0
 11
4645.812267862279441
 21
235.8589799066886883
 31
0.0
  0
LINE
  5
120E0
  8
0
 10
4645.7390044772791953
 20
235.8449046546641057
 30
0.0
 11
4645.714405163777883
 21
235.8396552892641012
 31
0.0
  0
LINE
  5
120E1
  8
0
 10
4645.714405163777883
 20
235.8396552892641012
 30
0.0
 11
4645.7117522791113515
 21
235.8394111450544131
 31
0.0
  0
ARC
  5
120E2
  8
0
 10
4645.6891140312563948
 20
235.78346884128959
 30
0.0
 40
0.0607687840878135
 50
72.1443314840152539
 51
91.2170638775361056
  0
ARC
  5
120E3
  8
0
 10
4645.7025508240440104
 20
235.8251802741430936
 30
0.0
 40
0.0169465177026812
 50
45.6918234203187978
 51
72.1443264551501358
  0
ARC
  5
120E4
  8
0
 10
4645.7119626862158839
 20
235.8348222144734905
 30
0.0
 40
0.0034724625273852
 50
318.9220299770714178
 51
45.6918234203187978
  0
ARC
  5
120E5
  8
0
 10
4645.7046054973161517
 20
235.8412353195442961
 30
0.0
 40
0.0132323879957907
 50
288.5073524980219872
 51
318.9220299770714178
  0
ARC
  5
120E6
  8
0
 10
4645.6884417815363122
 20
235.889522987787899
 30
0.0
 40
0.0641535487467757
 50
269.4476157883015048
 51
288.5073503337316083
  0
LINE
  5
120E7
  8
0
 10
4645.7140288203781893
 20
235.8474657541682973
 30
0.0
 11
4645.7140288203781893
 21
235.8541787350349068
 31
0.0
  0
ARC
  5
120E8
  8
0
 10
4645.6957003926354446
 20
235.8482970467354107
 30
0.0
 40
0.0183472697729022
 50
331.0322411238462905
 51
357.4031137799876205
  0
ARC
  5
120E9
  8
0
 10
4645.6852495930770601
 20
235.8512742551729104
 30
0.0
 40
0.0075054117835939
 50
290.0544115360348201
 51
3.0121370019907432
  0
LINE
  5
120EA
  8
0
 10
4645.6927446355794018
 20
235.8516686457641072
 30
0.0
 11
4645.6927446355794018
 21
235.854689655794914
 31
0.0
  0
ARC
  5
120EB
  8
0
 10
4645.687824092556184
 20
235.0970603701348978
 30
0.0
 40
0.7731356377296228
 50
87.0772652088126335
 51
90.0000593516508189
  0
ARC
  5
120EC
  8
0
 10
4645.7274525153861759
 20
235.8732415025293108
 30
0.0
 40
0.0040564634790428
 50
267.0772652087081838
 51
335.051306370643772
  0
LINE
  5
120ED
  8
0
 10
4645.7626882909789856
 20
235.7994101287640945
 30
0.0
 11
4645.782376507418121
 21
235.7955223859084981
 31
0.0
  0
LINE
  5
120EE
  8
0
 10
4645.7439257377791364
 20
235.7938090564641129
 30
0.0
 11
4645.7439257393780281
 21
235.8098128116641021
 31
0.0
  0
LINE
  5
120EF
  8
0
 10
4645.7439257393780281
 20
235.8098128116641021
 30
0.0
 11
4645.7297680702076832
 21
235.8126084624248051
 31
0.0
  0
LINE
  5
120F0
  8
0
 10
4645.7370966662792853
 20
235.79435703476409
 30
0.0
 11
4645.7133278583396532
 21
235.7994431439200014
 31
0.0
  0
LINE
  5
120F1
  8
0
 10
4645.7133278583396532
 20
235.7994431439200014
 30
0.0
 11
4645.6897309952792057
 21
235.7943569807640927
 31
0.0
  0
ARC
  5
120F2
  8
0
 10
4645.7375740237066566
 20
235.8007372015817111
 30
0.0
 40
0.0063980683696968
 50
265.7308480509959168
 51
353.0989073402483882
  0
LINE
  5
120F3
  8
0
 10
4645.7183351866779049
 20
235.8050216870641123
 30
0.0
 11
4645.7183351866779049
 21
235.8101616757899137
 31
0.0
  0
LINE
  5
120F4
  8
0
 10
4645.7084926669786
 20
235.8050216884641088
 30
0.0
 11
4645.7084926669786
 21
235.8101118931780036
 31
0.0
  0
LINE
  5
120F5
  8
0
 10
4645.7115071885791622
 20
235.8095166292640954
 30
0.0
 11
4645.687823291677887
 21
235.8141933810130126
 31
0.0
  0
LINE
  5
120F6
  8
0
 10
4645.6927446354793574
 20
235.8201814307641087
 30
0.0
 11
4645.6927446354793574
 21
235.8255139007613082
 31
0.0
  0
LINE
  5
120F7
  8
0
 10
4645.687823291677887
 20
235.8107846144474138
 30
0.0
 11
4645.6964546811777836
 21
235.8124889796640957
 31
0.0
  0
ARC
  5
120F8
  8
0
 10
4645.6866145391713872
 20
235.8206101992516039
 30
0.0
 40
0.0061450730811406
 50
281.344208181863678
 51
355.9989731935738746
  0
ARC
  5
120F9
  8
0
 10
4645.6853399453530074
 20
235.7906379478411907
 30
0.0
 40
0.0074351071992759
 50
289.5119077157075935
 51
354.8155714644128125
  0
LINE
  5
120FA
  8
0
 10
4645.6927446354793574
 20
235.7899660972641129
 30
0.0
 11
4645.6927446354793574
 21
235.7950065529429082
 31
0.0
  0
ARC
  5
120FB
  8
0
 10
4645.7122973201931018
 20
235.8054047332371965
 30
0.0
 40
0.0060500046327921
 50
279.8073991653021722
 51
356.3699832313361071
  0
ARC
  5
120FC
  8
0
 10
4645.7146053057740573
 20
235.8054350867822109
 30
0.0
 40
0.0061266019302703
 50
183.8690272038988098
 51
257.9650500947223009
  0
LINE
  5
120FD
  8
0
 10
4645.7134139283789409
 20
235.8259443341640917
 30
0.0
 11
4645.7220452322071651
 21
235.8276487163300885
 31
0.0
  0
LINE
  5
120FE
  8
0
 10
4645.7134139283789409
 20
235.8259443341640917
 30
0.0
 11
4645.7134139259869698
 21
235.8095162618303959
 31
0.0
  0
LINE
  5
120FF
  8
0
 10
4645.7134139283789409
 20
235.8259443341640917
 30
0.0
 11
4645.705134543522945
 21
235.8275792267947963
 31
0.0
  0
LINE
  5
12100
  8
0
 10
4645.739004479479263
 20
235.8411040708641906
 30
0.0
 11
4645.739004479479263
 21
235.8246754691109004
 31
0.0
  0
LINE
  5
12101
  8
0
 10
4645.739004479479263
 20
235.8411040714696014
 30
0.0
 11
4645.7482409832437042
 21
235.8429279581615106
 31
0.0
  0
LINE
  5
12102
  8
0
 10
4645.7390044779449454
 20
235.8411040711667965
 30
0.0
 11
4645.729754170664819
 21
235.8429306874037081
 31
0.0
  0
LINE
  5
12103
  8
0
 10
4645.7390044772482725
 20
235.8549958459140896
 30
0.0
 11
4645.739004479479263
 21
235.8714235511640993
 31
0.0
  0
LINE
  5
12104
  8
0
 10
4645.739004479479263
 20
235.8714235511640993
 30
0.0
 11
4645.7495951211230931
 21
235.8735148342967989
 31
0.0
  0
LINE
  5
12105
  8
0
 10
4645.739004479479263
 20
235.8714235511640993
 30
0.0
 11
4645.7311304534787268
 21
235.8729783778250919
 31
0.0
  0
LINE
  5
12106
  8
0
 10
4645.7695162889804124
 20
235.865660640764105
 30
0.0
 11
4645.7695162889804124
 21
235.8705024866349902
 31
0.0
  0
LINE
  5
12107
  8
0
 10
4645.7596737692792885
 20
235.865660642064114
 30
0.0
 11
4645.7596737692792885
 21
235.8721375072310025
 31
0.0
  0
LINE
  5
12108
  8
0
 10
4645.7738315326350858
 20
235.8580876952015046
 30
0.0
 11
4645.7645950306787199
 21
235.8562638074641029
 31
0.0
  0
LINE
  5
12109
  8
0
 10
4645.7645950306787199
 20
235.8562638074641029
 30
0.0
 11
4645.7553585264467984
 21
235.8580876981824872
 31
0.0
  0
LINE
  5
1210A
  8
0
 10
4645.7645950306787199
 20
235.8562638074641029
 30
0.0
 11
4645.7645950306787199
 21
235.8398361023141092
 31
0.0
  0
LINE
  5
1210B
  8
0
 10
4645.7738856816367843
 20
235.8277789074452926
 30
0.0
 11
4645.7645950306787199
 21
235.8259443271641089
 31
0.0
  0
LINE
  5
1210C
  8
0
 10
4645.7645950306787199
 20
235.8259443271641089
 30
0.0
 11
4645.755360348087379
 21
235.8277678581713985
 31
0.0
  0
LINE
  5
1210D
  8
0
 10
4645.7645950306787199
 20
235.8259443271641089
 30
0.0
 11
4645.7645950306787199
 21
235.8095162105938982
 31
0.0
  0
LINE
  5
1210E
  8
0
 10
4645.7695162889804124
 20
235.805021680064101
 30
0.0
 11
4645.7695162889804124
 21
235.8101617562230103
 31
0.0
  0
LINE
  5
1210F
  8
0
 10
4645.7596737692792885
 20
235.8030781249640881
 30
0.0
 11
4645.7596737692792885
 21
235.8101611619615028
 31
0.0
  0
ARC
  5
12110
  8
0
 10
4645.7629936006242133
 20
235.8059984813818062
 30
0.0
 40
0.0065954229730628
 50
267.3467649135845932
 51
351.4829967651201059
  0
ARC
  5
12111
  8
0
 10
4645.7632929184746899
 20
235.8029797702239136
 30
0.0
 40
0.0036204854040456
 50
178.443301310564209
 51
260.3864584402018068
  0
LINE
  5
12112
  8
0
 10
4645.7951068401789598
 20
235.8201814167640862
 30
0.0
 11
4645.7951068401789598
 21
235.8252966733410005
 31
0.0
  0
LINE
  5
12113
  8
0
 10
4645.7852643204787455
 20
235.8201814180640952
 30
0.0
 11
4645.7852643204787455
 21
235.8253261605356101
 31
0.0
  0
ARC
  5
12114
  8
0
 10
4645.7889698415074236
 20
235.8206162370966013
 30
0.0
 40
0.0061523833934351
 50
281.396907066338315
 51
355.9472361661792092
  0
ARC
  5
12115
  8
0
 10
4645.7913247525348197
 20
235.8205489051761958
 30
0.0
 40
0.0060715635125535
 50
183.4700019963568991
 51
259.1858265595010948
  0
LINE
  5
12116
  8
0
 10
4645.8155124238792268
 20
235.8259963936640986
 30
0.0
 11
4645.8155124222794257
 21
235.816152018864102
 31
0.0
  0
LINE
  5
12117
  8
0
 10
4645.8155124238792268
 20
235.8259963936640986
 30
0.0
 11
4645.8195212761820585
 21
235.8287660846943936
 31
0.0
  0
LINE
  5
12118
  8
0
 10
4645.8155124238792268
 20
235.8259963936640986
 30
0.0
 11
4645.8068346127010955
 21
235.8277099617532997
 31
0.0
  0
ARC
  5
12119
  8
0
 10
4645.8415357159583436
 20
235.8338561845071979
 30
0.0
 40
0.0101825517825542
 50
183.5074110782740036
 51
241.0388857005847001
  0
LINE
  5
1211A
  8
0
 10
4645.8313722371804033
 20
235.8332332399641018
 30
0.0
 11
4645.8313722371804033
 21
235.836601865856494
 31
0.0
  0
LINE
  5
1211B
  8
0
 10
4645.7951068401789598
 20
235.8505008970641939
 30
0.0
 11
4645.7951068401789598
 21
235.855590428702186
 31
0.0
  0
LINE
  5
1211C
  8
0
 10
4645.7852643204787455
 20
235.8505008983640892
 30
0.0
 11
4645.7852643204787455
 21
235.8556409742907931
 31
0.0
  0
ARC
  5
1211D
  8
0
 10
4645.7889776110296225
 20
235.8509288849901964
 30
0.0
 40
0.006144153612665
 50
281.3384730770919759
 51
356.0056701554030951
  0
ARC
  5
1211E
  8
0
 10
4645.7913846987457873
 20
235.8509211000892947
 30
0.0
 40
0.0061347860295037
 50
183.9275454138598889
 51
258.7282455794464795
  0
ARC
  5
1211F
  8
0
 10
4645.7635139564972633
 20
235.8659770376031872
 30
0.0
 40
0.0060106657017105
 50
280.3615437604278213
 51
356.9825994722556857
  0
ARC
  5
12120
  8
0
 10
4645.7657689671186745
 20
235.8660587016931913
 30
0.0
 40
0.0061081820674263
 50
183.7365145150155001
 51
258.9193142827489282
  0
ARC
  5
12121
  8
0
 10
4645.7634574986659572
 20
235.8357078885609042
 30
0.0
 40
0.0060698788811969
 50
281.6388934155963284
 51
356.5362105743404868
  0
ARC
  5
12122
  8
0
 10
4645.7656536596059595
 20
235.8356725431424081
 30
0.0
 40
0.0059890651971863
 50
183.1718565768495068
 51
260.6636393409000902
  0
LINE
  5
12123
  8
0
 10
4645.7695162889804124
 20
235.835341160364095
 30
0.0
 11
4645.7695162889804124
 21
235.8404812366102874
 31
0.0
  0
LINE
  5
12124
  8
0
 10
4645.7596737692792885
 20
235.8353411617640916
 30
0.0
 11
4645.7596737692792885
 21
235.8404812376967925
 31
0.0
  0
ARC
  5
12125
  8
0
 10
4645.7348512575381392
 20
235.794852712752089
 30
0.0
 40
0.0091342985549042
 50
297.0448613953336121
 51
353.4392361549191719
  0
ARC
  5
12126
  8
0
 10
4645.7404693253702135
 20
235.7929467066647078
 30
0.0
 40
0.0063993669105426
 50
183.689022604782707
 51
256.767710580683115
  0
LINE
  5
12127
  8
0
 10
4645.7340832181789665
 20
235.7925349642640924
 30
0.0
 11
4645.7340832181789665
 21
235.7947589621238933
 31
0.0
  0
LINE
  5
12128
  8
0
 10
4645.7439257377791364
 20
235.8505009040640914
 30
0.0
 11
4645.7439257377791364
 21
235.8556409802230007
 31
0.0
  0
LINE
  5
12129
  8
0
 10
4645.7340832181789665
 20
235.850500905464088
 30
0.0
 11
4645.7340832181789665
 21
235.8555911101215941
 31
0.0
  0
ARC
  5
1212A
  8
0
 10
4645.7378696075720654
 20
235.8508646098420911
 30
0.0
 40
0.006067041698823
 50
280.7809595365146151
 51
356.5631836959755105
  0
ARC
  5
1212B
  8
0
 10
4645.7401605092400132
 20
235.850883218006004
 30
0.0
 40
0.0060893045193347
 50
183.5996412468350911
 51
259.0561851388965806
  0
LINE
  5
1212C
  8
0
 10
4645.7901851715278099
 20
235.854995353714088
 30
0.0
 11
4645.7901851715278099
 21
235.8661170292558893
 31
0.0
  0
LINE
  5
1212D
  8
0
 10
4645.7901855797290409
 20
235.8246763586141128
 30
0.0
 11
4645.7901855797290409
 21
235.841104064288686
 31
0.0
  0
LINE
  5
1212E
  8
0
 10
4645.7901855818790864
 20
235.8411040638640941
 30
0.0
 11
4645.799449816177912
 21
235.8429334276669067
 31
0.0
  0
LINE
  5
1212F
  8
0
 10
4645.7901855818790864
 20
235.8411040638640941
 30
0.0
 11
4645.780949077535297
 21
235.8429279544976112
 31
0.0
  0
ARC
  5
12130
  8
0
 10
4645.8165326536500288
 20
235.8188059528507949
 30
0.0
 40
0.0096298792405742
 50
259.4586803885699737
 51
291.6457045100527239
  0
ARC
  5
12131
  8
0
 10
4645.8305442468072215
 20
235.8162944189865016
 30
0.0
 40
0.0150324990082311
 50
180.5427605910076068
 51
208.1353767353751891
  0
ARC
  5
12132
  8
0
 10
4645.71049780107478
 20
235.8407420852589951
 30
0.0
 40
0.0107973489720872
 50
275.8435734179972769
 51
2.0277505389125952
  0
LINE
  5
12133
  8
0
 10
4645.7439257377791364
 20
235.8201814237640974
 30
0.0
 11
4645.7439257377791364
 21
235.8253207138648975
 31
0.0
  0
LINE
  5
12134
  8
0
 10
4645.7340832181789665
 20
235.8201814250641064
 30
0.0
 11
4645.7340832181789665
 21
235.8252710216019921
 31
0.0
  0
ARC
  5
12135
  8
0
 10
4645.7378256564961703
 20
235.8205837794808133
 30
0.0
 40
0.0061133363872819
 50
281.1178535302624937
 51
356.2262897022919788
  0
ARC
  5
12136
  8
0
 10
4645.7401532118083196
 20
235.8205573198380876
 30
0.0
 40
0.0060816214565998
 50
183.5436142882155082
 51
259.1121928211234149
  0
LINE
  5
12137
  8
0
 10
4645.7124977132862114
 20
235.8295340216587874
 30
0.0
 11
4645.7115971102066396
 21
235.8300008439780981
 31
0.0
  0
LINE
  5
12138
  8
0
 10
4645.7596737692792885
 20
235.8061167489821059
 30
0.0
 11
4645.7439257387713951
 21
235.803730902708395
 31
0.0
  0
LINE
  5
12139
  8
0
 10
4645.6859155880792969
 20
235.7943569807640927
 30
0.0
 11
4645.6897309952792057
 21
235.7943569807640927
 31
0.0
  0
LINE
  5
1213B
  8
0
 10
4645.687823291677887
 20
235.7943569807640927
 30
0.0
 11
4645.687823291677887
 21
235.8107846144474138
 31
0.0
  0
ENDSEC
  0
EOF
