  0
SECTION
  2
HEADER
  9
$ACADVER
  1
AC1009
  9
$INSBASE
 10
3244.2251681223551714
 20
157.3159883356570106
 30
0.0
  9
$EXTMIN
 10
3233.6879922624939354
 20
150.0536447571249141
 30
-0.0000000000112498
  9
$EXTMAX
 10
3254.7962607821809797
 20
164.5685653976483138
 30
0.0000000000002956
  9
$LIMMIN
 10
0.0
 20
0.0
  9
$LIMMAX
 10
11.6929133858000007
 20
8.2677165353999982
  9
$ORTHOMODE
 70
     0
  9
$REGENMODE
 70
     1
  9
$FILLMODE
 70
     1
  9
$QTEXTMODE
 70
     0
  9
$MIRRTEXT
 70
     0
  9
$DRAGMODE
 70
     2
  9
$LTSCALE
 40
0.6431102362
  9
$OSMODE
 70
  2039
  9
$ATTMODE
 70
     1
  9
$TEXTSIZE
 40
0.2
  9
$TRACEWID
 40
0.05
  9
$TEXTSTYLE
  7
STANDARD
  9
$CLAYER
  8
0
  9
$CELTYPE
  6
BYLAYER
  9
$CECOLOR
 62
   256
  9
$DIMSCALE
 40
1.0
  9
$DIMASZ
 40
0.1875
  9
$DIMEXO
 40
0.0625
  9
$DIMDLI
 40
0.4443307087
  9
$DIMRND
 40
0.0
  9
$DIMDLE
 40
0.0
  9
$DIMEXE
 40
0.125
  9
$DIMTP
 40
0.01
  9
$DIMTM
 40
0.01
  9
$DIMTXT
 40
2.0
  9
$DIMCEN
 40
0.1052362205
  9
$DIMTSZ
 40
0.0
  9
$DIMTOL
 70
     1
  9
$DIMLIM
 70
     0
  9
$DIMTIH
 70
     1
  9
$DIMTOH
 70
     1
  9
$DIMSE1
 70
     0
  9
$DIMSE2
 70
     0
  9
$DIMTAD
 70
     0
  9
$DIMZIN
 70
     0
  9
$DIMBLK
  1

  9
$DIMASO
 70
     1
  9
$DIMSHO
 70
     1
  9
$DIMPOST
  1
\X
  9
$DIMAPOST
  1

  9
$DIMALT
 70
     1
  9
$DIMALTD
 70
     2
  9
$DIMALTF
 40
25.3999999999999986
  9
$DIMLFAC
 40
1.0
  9
$DIMTOFL
 70
     0
  9
$DIMTVP
 40
0.0
  9
$DIMTIX
 70
     0
  9
$DIMSOXD
 70
     0
  9
$DIMSAH
 70
     0
  9
$DIMBLK1
  1

  9
$DIMBLK2
  1

  9
$DIMSTYLE
  2
STANDARD
  9
$DIMCLRD
 70
     0
  9
$DIMCLRE
 70
     0
  9
$DIMCLRT
 70
     0
  9
$DIMTFAC
 40
1.0
  9
$DIMGAP
 40
0.09
  9
$LUNITS
 70
     2
  9
$LUPREC
 70
     4
  9
$SKETCHINC
 40
0.1
  9
$FILLETRAD
 40
0.0
  9
$AUNITS
 70
     0
  9
$AUPREC
 70
     0
  9
$MENU
  1
.
  9
$ELEVATION
 40
0.0
  9
$PELEVATION
 40
0.0
  9
$THICKNESS
 40
0.0
  9
$LIMCHECK
 70
     0
  9
$BLIPMODE
 70
     0
  9
$CHAMFERA
 40
0.0
  9
$CHAMFERB
 40
0.0
  9
$SKPOLY
 70
     0
  9
$TDCREATE
 40
2458060.468368056230247
  9
$TDUPDATE
 40
2459182.7999305562116206
  9
$TDINDWG
 40
0.6096251157
  9
$TDUSRTIMER
 40
0.6096251157
  9
$USRTIMER
 70
     1
  9
$ANGBASE
 50
0.0
  9
$ANGDIR
 70
     0
  9
$PDMODE
 70
     0
  9
$PDSIZE
 40
0.3125
  9
$PLINEWID
 40
0.0
  9
$COORDS
 70
     1
  9
$SPLFRAME
 70
     0
  9
$SPLINETYPE
 70
     6
  9
$SPLINESEGS
 70
     8
  9
$ATTDIA
 70
     1
  9
$ATTREQ
 70
     1
  9
$HANDLING
 70
     1
  9
$HANDSEED
  5
23075
  9
$SURFTAB1
 70
     6
  9
$SURFTAB2
 70
     6
  9
$SURFTYPE
 70
     6
  9
$SURFU
 70
     6
  9
$SURFV
 70
     6
  9
$UCSNAME
  2

  9
$UCSORG
 10
0.0
 20
0.0
 30
0.0
  9
$UCSXDIR
 10
1.0
 20
0.0
 30
0.0
  9
$UCSYDIR
 10
0.0
 20
1.0
 30
0.0
  9
$PUCSNAME
  2

  9
$PUCSORG
 10
0.0
 20
0.0
 30
0.0
  9
$PUCSXDIR
 10
1.0
 20
0.0
 30
0.0
  9
$PUCSYDIR
 10
0.0
 20
1.0
 30
0.0
  9
$USERI1
 70
     0
  9
$USERI2
 70
     0
  9
$USERI3
 70
     0
  9
$USERI4
 70
     0
  9
$USERI5
 70
     0
  9
$USERR1
 40
0.0
  9
$USERR2
 40
0.0
  9
$USERR3
 40
0.0
  9
$USERR4
 40
0.0
  9
$USERR5
 40
0.0
  9
$WORLDVIEW
 70
     1
  9
$SHADEDGE
 70
     3
  9
$SHADEDIF
 70
    70
  9
$TILEMODE
 70
     1
  9
$MAXACTVP
 70
    64
  9
$PLIMCHECK
 70
     0
  9
$PEXTMIN
 10
1.0000000000000000E+20
 20
1.0000000000000000E+20
 30
1.0000000000000000E+20
  9
$PEXTMAX
 10
-1.0000000000000000E+20
 20
-1.0000000000000000E+20
 30
-1.0000000000000000E+20
  9
$PLIMMIN
 10
0.0
 20
0.0
  9
$PLIMMAX
 10
12.0
 20
9.0
  9
$UNITMODE
 70
     0
  9
$VISRETAIN
 70
     1
  9
$PLINEGEN
 70
     0
  9
$PSLTSCALE
 70
     1
  0
ENDSEC
  0
SECTION
  2
TABLES
  0
TABLE
  2
VPORT
 70
     1
  0
VPORT
  2
*ACTIVE
 70
     0
 10
0.0
 20
0.0
 11
1.0
 21
1.0
 12
-59.4509887120375495
 22
-37.9504064985011382
 13
0.0
 23
0.0
 14
1.0
 24
1.0
 15
0.0
 25
0.0
 16
0.0
 26
0.0
 36
96.5995694866707311
 17
3303.693115234375
 27
195.2615115758877096
 37
0.0
 40
14.6357105487663404
 41
2.6486111111111108
 42
50.0
 43
0.0
 44
0.0
 50
0.0
 51
0.0
 71
     0
 72
   100
 73
     1
 74
     1
 75
     0
 76
     0
 77
     0
 78
     0
  0
ENDTAB
  0
TABLE
  2
LTYPE
 70
     2
  0
LTYPE
  2
CONTINUOUS
 70
     0
  3
Solid line
 72
    65
 73
     0
 40
0.0
  0
LTYPE
  2
PHANTOM2
 70
     0
  3
___ _ _ ___ _ _ ___ _ _ ___ _ _
 72
    65
 73
     6
 40
1.25
 49
0.625
 49
-0.125
 49
0.125
 49
-0.125
 49
0.125
 49
-0.125
  0
ENDTAB
  0
TABLE
  2
LAYER
 70
     2
  0
LAYER
  2
0
 70
     0
 62
   255
  6
CONTINUOUS
  0
LAYER
  2
DEFPOINTS
 70
     0
 62
     7
  6
CONTINUOUS
  0
ENDTAB
  0
TABLE
  2
STYLE
 70
     1
  0
STYLE
  2
STANDARD
 70
     0
 40
0.0
 41
0.8
 50
0.0
 71
     0
 42
0.2
  3
txt
  4

  0
ENDTAB
  0
TABLE
  2
VIEW
 70
     0
  0
ENDTAB
  0
TABLE
  2
UCS
 70
     0
  0
ENDTAB
  0
TABLE
  2
APPID
 70
     9
  0
APPID
  2
ACAD
 70
     0
  0
APPID
  2
ACAD_MLEADERVER
 70
     0
  0
APPID
  2
ACAD_EXEMPT_FROM_CAD_STANDARDS
 70
     0
  0
APPID
  2
ACAD_NAV_VCDISPLAY
 70
     0
  0
APPID
  2
ACAECLAYERSTANDARD
 70
     0
  0
APPID
  2
ACCMTRANSPARENCY
 70
     0
  0
APPID
  2
ACAD_DSTYLE_DIMJAG
 70
     0
  0
APPID
  2
ACAD_DSTYLE_DIMTALN
 70
     0
  0
APPID
  2
ACDBATTR
 70
     0
  0
ENDTAB
  0
TABLE
  2
DIMSTYLE
 70
     1
  0
DIMSTYLE
  2
STANDARD
 70
     0
  3

  4

  5

  6

  7

 40
1.0
 41
0.1875
 42
0.0625
 43
0.38
 44
0.125
 45
0.0
 46
0.0
 47
0.01
 48
0.01
140
0.15625
141
0.09
142
0.0
143
25.3999999999999986
144
1.0
145
0.0
146
1.0
147
0.09
 71
     1
 72
     0
 73
     1
 74
     1
 75
     0
 76
     0
 77
     0
 78
     4
170
     0
171
     2
172
     0
173
     0
174
     0
175
     0
176
     0
177
     0
178
     0
  0
ENDTAB
  0
ENDSEC
  0
SECTION
  2
BLOCKS
  0
BLOCK
  8
0
  2
$MODEL_SPACE
 70
     0
 10
0.0
 20
0.0
 30
0.0
  3
$MODEL_SPACE
  1

  0
ENDBLK
  5
21
  8
0
  0
BLOCK
 67
     1
  8
0
  2
$PAPER_SPACE
 70
     0
 10
0.0
 20
0.0
 30
0.0
  3
$PAPER_SPACE
  1

  0
ENDBLK
  5
1D
 67
     1
  8
0
  0
BLOCK
  8
0
  2
_FILLED
 70
     0
 10
0.0
 20
0.0
 30
0.0
  3
_FILLED
  1

  0
SOLID
  5
211E5
  8
0
  6
BYBLOCK
 62
     0
 10
0.0
 20
0.0
 30
0.0
 11
-1.0
 21
0.1666666667
 31
0.0
 12
-1.0
 22
-0.1666666667
 32
0.0
 13
-1.0
 23
-0.1666666667
 33
0.0
  0
ENDBLK
  5
211E6
  8
0
  6
BYBLOCK
 62
     0
  0
ENDSEC
  0
SECTION
  2
ENTITIES
  0
LINE
  5
22A67
  8
0
 10
3252.7454309817057947
 20
150.0659231953916048
 30
0.0
 11
3235.7049052630018195
 21
150.0659231953916048
 31
0.0
  0
LINE
  5
22A68
  8
0
 10
3233.7301515000549443
 20
162.300102052895312
 30
0.0
 11
3233.7301515000549443
 21
152.3272975953572086
 31
0.0
  0
LINE
  5
22A69
  8
0
 10
3254.7201847447549881
 20
162.3007018367115109
 30
0.0
 11
3254.7201847447549881
 21
152.3308126656185095
 31
0.0
  0
ARC
  5
22A6A
  8
0
 10
3271.2454785985519266
 20
160.6361658099422982
 30
0.0
 40
37.5522096703764703
 50
176.7184759888880876
 51
177.4603958233118135
  0
ARC
  5
22A6B
  8
0
 10
3237.0877403565118584
 20
162.5946374522198994
 30
0.0
 40
3.3383719291152709
 50
161.994600996858793
 51
176.7184759888880876
  0
ARC
  5
22A6C
  8
0
 10
3235.1351103297279224
 20
163.2292888357665106
 30
0.0
 40
1.2851923460932491
 50
112.5769156977062977
 51
161.994600996858793
  0
ARC
  5
22A6D
  8
0
 10
3235.356470226710826
 20
162.5431359055747009
 30
0.0
 40
2.0046165973910308
 50
94.5549462036036061
 51
110.8893628709909933
  0
ARC
  5
22A6E
  8
0
 10
3235.7641711713517907
 20
158.1016236497929981
 30
0.0
 40
6.4647014954168274
 50
90.5252731292901274
 51
95.0308003036727484
  0
ARC
  5
22A6F
  8
0
 10
3216.5583595706098095
 20
160.6011974935049977
 30
0.0
 40
38.1996494176915888
 50
2.5499338216488079
 51
3.2783803302595689
  0
ARC
  5
22A70
  8
0
 10
3251.3625958881971201
 20
162.5946374522198994
 30
0.0
 40
3.3383719291152709
 50
3.2815240111118311
 51
18.0053990031411217
  0
ARC
  5
22A71
  8
0
 10
3253.3152259149810561
 20
163.2292888357665106
 30
0.0
 40
1.2851923460932491
 50
18.0053990031411217
 51
67.4230843022937023
  0
ARC
  5
22A72
  8
0
 10
3253.0938660179981525
 20
162.5431359055747009
 30
0.0
 40
2.0046165973910308
 50
69.1106371290089641
 51
85.4450537963964081
  0
ARC
  5
22A73
  8
0
 10
3252.6861650733571878
 20
158.1016236497929128
 30
0.0
 40
6.4647014954169011
 50
84.9691996963272658
 51
89.4747268707098726
  0
ARC
  5
22A74
  8
0
 10
3276.2652285777348879
 20
154.2668304750775974
 30
0.0
 40
42.5792739463198302
 50
182.6107893230280013
 51
183.2596255076740874
  0
ARC
  5
22A75
  8
0
 10
3237.0877403565118584
 20
152.0368464921631926
 30
0.0
 40
3.3383719291152709
 50
183.2815240111117987
 51
198.0053990031410933
  0
ARC
  5
22A76
  8
0
 10
3235.1351103297279224
 20
151.4021951086166098
 30
0.0
 40
1.2851923460932491
 50
198.0053990031410933
 51
247.4230843022936881
  0
ARC
  5
22A77
  8
0
 10
3235.356470226710826
 20
152.088348038808391
 30
0.0
 40
2.0046165973910308
 50
249.1106371290090067
 51
265.4450537963965076
  0
ARC
  5
22A78
  8
0
 10
3235.7435012677560735
 20
156.2271362870343978
 30
0.0
 40
6.161333979927889
 50
264.9138136387111899
 51
269.6410837898716863
  0
ARC
  5
22A79
  8
0
 10
3216.5919177328678416
 20
154.0284711975994014
 30
0.0
 40
38.1660423651829674
 50
356.7214593110762735
 51
357.4505930767720088
  0
ARC
  5
22A7A
  8
0
 10
3251.3625958881971201
 20
152.0368464921631926
 30
0.0
 40
3.3383719291152709
 50
341.9946009968572866
 51
356.7184759888882013
  0
ARC
  5
22A7B
  8
0
 10
3253.3152259149810561
 20
151.4021951086166098
 30
0.0
 40
1.2851923460932491
 50
292.5769156977062835
 51
341.9946009968572866
  0
ARC
  5
22A7C
  8
0
 10
3253.0938660179981525
 20
152.088348038808391
 30
0.0
 40
2.0046165973910308
 50
274.5549462036036061
 51
290.8893628709910217
  0
ARC
  5
22A7D
  8
0
 10
3252.7068346499268046
 20
156.2271431640837136
 30
0.0
 40
6.1613408588908554
 50
270.3589188505521861
 51
275.0861837208378233
  0
CIRCLE
  5
22A7E
  8
0
 10
3244.2251681223551714
 20
157.3157419721916028
 30
0.0
 40
0.875
  0
CIRCLE
  5
22A7F
  8
0
 10
3244.2251681223551714
 20
157.3157419721916028
 30
0.0
 40
1.104238623199999
  0
LINE
  5
22ACD
  8
0
 10
3252.7454309817057947
 20
164.5660534759225015
 30
0.0
 11
3235.7049052630018195
 21
164.5660534759225015
 31
0.0
  0
ATTDEF
  5
22AD2
  8
DEFPOINTS
 10
3244.2273492767290008
 20
157.3148557565143051
 30
0.0
 40
0.001
  1
K-30334-DM1
  3

  2
MODELNUMBER
 70
     0
1001
ACDBATTR
1070
     0
1070
     1
  0
ATTDEF
  5
22AD3
  8
DEFPOINTS
 10
3244.2273492767290008
 20
157.3131890898476968
 30
0.0
 40
0.001
  1
DUTCHMASTER BLUSH FLORAL
  3

  2
TRADENAME
 70
     0
1001
ACDBATTR
1070
     0
1070
     1
  0
ATTDEF
  5
22AD4
  8
DEFPOINTS
 10
3244.2273492767290008
 20
157.3115224231810032
 30
0.0
 40
0.001
  1
BATHROOM SINK
  3

  2
PRODUCT
 70
     0
1001
ACDBATTR
1070
     0
1070
     1
  0
ENDSEC
  0
EOF
