  0
SECTION
  2
HEADER
  9
$ACADVER
  1
AC1009
  9
$INSBASE
 10
3244.2251681223551714
 20
143.8563087668576088
 30
0.0
  9
$EXTMIN
 10
3233.539973302432827
 20
138.4579856442445873
 30
-0.0000000000000058
  9
$EXTMAX
 10
3254.8955968596301318
 20
144.6604299777224867
 30
0.0000000000000104
  9
$LIMMIN
 10
0.0
 20
0.0
  9
$LIMMAX
 10
11.6929133858000007
 20
8.2677165353999982
  9
$ORTHOMODE
 70
     0
  9
$REGENMODE
 70
     1
  9
$FILLMODE
 70
     1
  9
$QTEXTMODE
 70
     0
  9
$MIRRTEXT
 70
     0
  9
$DRAGMODE
 70
     2
  9
$LTSCALE
 40
0.6431102362
  9
$OSMODE
 70
  2039
  9
$ATTMODE
 70
     1
  9
$TEXTSIZE
 40
0.2
  9
$TRACEWID
 40
0.05
  9
$TEXTSTYLE
  7
STANDARD
  9
$CLAYER
  8
0
  9
$CELTYPE
  6
BYLAYER
  9
$CECOLOR
 62
   256
  9
$DIMSCALE
 40
1.0
  9
$DIMASZ
 40
0.1875
  9
$DIMEXO
 40
0.0625
  9
$DIMDLI
 40
0.4443307087
  9
$DIMRND
 40
0.0
  9
$DIMDLE
 40
0.0
  9
$DIMEXE
 40
0.125
  9
$DIMTP
 40
0.01
  9
$DIMTM
 40
0.01
  9
$DIMTXT
 40
2.0
  9
$DIMCEN
 40
0.1052362205
  9
$DIMTSZ
 40
0.0
  9
$DIMTOL
 70
     1
  9
$DIMLIM
 70
     0
  9
$DIMTIH
 70
     1
  9
$DIMTOH
 70
     1
  9
$DIMSE1
 70
     0
  9
$DIMSE2
 70
     0
  9
$DIMTAD
 70
     0
  9
$DIMZIN
 70
     0
  9
$DIMBLK
  1

  9
$DIMASO
 70
     1
  9
$DIMSHO
 70
     1
  9
$DIMPOST
  1
\X
  9
$DIMAPOST
  1

  9
$DIMALT
 70
     1
  9
$DIMALTD
 70
     2
  9
$DIMALTF
 40
25.3999999999999986
  9
$DIMLFAC
 40
1.0
  9
$DIMTOFL
 70
     0
  9
$DIMTVP
 40
0.0
  9
$DIMTIX
 70
     0
  9
$DIMSOXD
 70
     0
  9
$DIMSAH
 70
     0
  9
$DIMBLK1
  1

  9
$DIMBLK2
  1

  9
$DIMSTYLE
  2
STANDARD
  9
$DIMCLRD
 70
     0
  9
$DIMCLRE
 70
     0
  9
$DIMCLRT
 70
     0
  9
$DIMTFAC
 40
1.0
  9
$DIMGAP
 40
0.09
  9
$LUNITS
 70
     2
  9
$LUPREC
 70
     4
  9
$SKETCHINC
 40
0.1
  9
$FILLETRAD
 40
0.0
  9
$AUNITS
 70
     0
  9
$AUPREC
 70
     0
  9
$MENU
  1
.
  9
$ELEVATION
 40
0.0
  9
$PELEVATION
 40
0.0
  9
$THICKNESS
 40
0.0
  9
$LIMCHECK
 70
     0
  9
$BLIPMODE
 70
     0
  9
$CHAMFERA
 40
0.0
  9
$CHAMFERB
 40
0.0
  9
$SKPOLY
 70
     0
  9
$TDCREATE
 40
2458060.468368056230247
  9
$TDUPDATE
 40
2459182.820324074011296
  9
$TDINDWG
 40
0.610597338
  9
$TDUSRTIMER
 40
0.610597338
  9
$USRTIMER
 70
     1
  9
$ANGBASE
 50
0.0
  9
$ANGDIR
 70
     0
  9
$PDMODE
 70
     0
  9
$PDSIZE
 40
0.3125
  9
$PLINEWID
 40
0.0
  9
$COORDS
 70
     1
  9
$SPLFRAME
 70
     0
  9
$SPLINETYPE
 70
     6
  9
$SPLINESEGS
 70
     8
  9
$ATTDIA
 70
     1
  9
$ATTREQ
 70
     1
  9
$HANDLING
 70
     1
  9
$HANDSEED
  5
23037
  9
$SURFTAB1
 70
     6
  9
$SURFTAB2
 70
     6
  9
$SURFTYPE
 70
     6
  9
$SURFU
 70
     6
  9
$SURFV
 70
     6
  9
$UCSNAME
  2

  9
$UCSORG
 10
0.0
 20
0.0
 30
0.0
  9
$UCSXDIR
 10
1.0
 20
0.0
 30
0.0
  9
$UCSYDIR
 10
0.0
 20
1.0
 30
0.0
  9
$PUCSNAME
  2

  9
$PUCSORG
 10
0.0
 20
0.0
 30
0.0
  9
$PUCSXDIR
 10
1.0
 20
0.0
 30
0.0
  9
$PUCSYDIR
 10
0.0
 20
1.0
 30
0.0
  9
$USERI1
 70
     0
  9
$USERI2
 70
     0
  9
$USERI3
 70
     0
  9
$USERI4
 70
     0
  9
$USERI5
 70
     0
  9
$USERR1
 40
0.0
  9
$USERR2
 40
0.0
  9
$USERR3
 40
0.0
  9
$USERR4
 40
0.0
  9
$USERR5
 40
0.0
  9
$WORLDVIEW
 70
     1
  9
$SHADEDGE
 70
     3
  9
$SHADEDIF
 70
    70
  9
$TILEMODE
 70
     1
  9
$MAXACTVP
 70
    64
  9
$PLIMCHECK
 70
     0
  9
$PEXTMIN
 10
1.0000000000000000E+20
 20
1.0000000000000000E+20
 30
1.0000000000000000E+20
  9
$PEXTMAX
 10
-1.0000000000000000E+20
 20
-1.0000000000000000E+20
 30
-1.0000000000000000E+20
  9
$PLIMMIN
 10
0.0
 20
0.0
  9
$PLIMMAX
 10
12.0
 20
9.0
  9
$UNITMODE
 70
     0
  9
$VISRETAIN
 70
     1
  9
$PLINEGEN
 70
     0
  9
$PSLTSCALE
 70
     1
  0
ENDSEC
  0
SECTION
  2
TABLES
  0
TABLE
  2
VPORT
 70
     1
  0
VPORT
  2
*ACTIVE
 70
     0
 10
0.0
 20
0.0
 11
1.0
 21
1.0
 12
-59.475330153343748
 22
-53.702303764904201
 13
0.0
 23
0.0
 14
1.0
 24
1.0
 15
0.0
 25
0.0
 16
0.0
 26
0.0
 36
96.5995694866707311
 17
3303.693115234375
 27
195.2615115758877096
 37
0.0
 40
8.0882850411779526
 41
2.6486111111111108
 42
50.0
 43
0.0
 44
0.0
 50
0.0
 51
0.0
 71
     0
 72
   100
 73
     1
 74
     1
 75
     0
 76
     0
 77
     0
 78
     0
  0
ENDTAB
  0
TABLE
  2
LTYPE
 70
     2
  0
LTYPE
  2
CONTINUOUS
 70
     0
  3
Solid line
 72
    65
 73
     0
 40
0.0
  0
LTYPE
  2
PHANTOM2
 70
     0
  3
___ _ _ ___ _ _ ___ _ _ ___ _ _
 72
    65
 73
     6
 40
1.25
 49
0.625
 49
-0.125
 49
0.125
 49
-0.125
 49
0.125
 49
-0.125
  0
ENDTAB
  0
TABLE
  2
LAYER
 70
     2
  0
LAYER
  2
0
 70
     0
 62
   255
  6
CONTINUOUS
  0
LAYER
  2
DEFPOINTS
 70
     0
 62
     7
  6
CONTINUOUS
  0
ENDTAB
  0
TABLE
  2
STYLE
 70
     1
  0
STYLE
  2
STANDARD
 70
     0
 40
0.0
 41
0.8
 50
0.0
 71
     0
 42
0.2
  3
txt
  4

  0
ENDTAB
  0
TABLE
  2
VIEW
 70
     0
  0
ENDTAB
  0
TABLE
  2
UCS
 70
     0
  0
ENDTAB
  0
TABLE
  2
APPID
 70
     9
  0
APPID
  2
ACAD
 70
     0
  0
APPID
  2
ACAD_MLEADERVER
 70
     0
  0
APPID
  2
ACAD_EXEMPT_FROM_CAD_STANDARDS
 70
     0
  0
APPID
  2
ACAD_NAV_VCDISPLAY
 70
     0
  0
APPID
  2
ACAECLAYERSTANDARD
 70
     0
  0
APPID
  2
ACCMTRANSPARENCY
 70
     0
  0
APPID
  2
ACAD_DSTYLE_DIMJAG
 70
     0
  0
APPID
  2
ACAD_DSTYLE_DIMTALN
 70
     0
  0
APPID
  2
ACDBATTR
 70
     0
  0
ENDTAB
  0
TABLE
  2
DIMSTYLE
 70
     1
  0
DIMSTYLE
  2
STANDARD
 70
     0
  3

  4

  5

  6

  7

 40
1.0
 41
0.1875
 42
0.0625
 43
0.38
 44
0.125
 45
0.0
 46
0.0
 47
0.01
 48
0.01
140
0.15625
141
0.09
142
0.0
143
25.3999999999999986
144
1.0
145
0.0
146
1.0
147
0.09
 71
     1
 72
     0
 73
     1
 74
     1
 75
     0
 76
     0
 77
     0
 78
     4
170
     0
171
     2
172
     0
173
     0
174
     0
175
     0
176
     0
177
     0
178
     0
  0
ENDTAB
  0
ENDSEC
  0
SECTION
  2
BLOCKS
  0
BLOCK
  8
0
  2
$MODEL_SPACE
 70
     0
 10
0.0
 20
0.0
 30
0.0
  3
$MODEL_SPACE
  1

  0
ENDBLK
  5
21
  8
0
  0
BLOCK
 67
     1
  8
0
  2
$PAPER_SPACE
 70
     0
 10
0.0
 20
0.0
 30
0.0
  3
$PAPER_SPACE
  1

  0
ENDBLK
  5
1D
 67
     1
  8
0
  0
BLOCK
  8
0
  2
_FILLED
 70
     0
 10
0.0
 20
0.0
 30
0.0
  3
_FILLED
  1

  0
SOLID
  5
211E5
  8
0
  6
BYBLOCK
 62
     0
 10
0.0
 20
0.0
 30
0.0
 11
-1.0
 21
0.1666666667
 31
0.0
 12
-1.0
 22
-0.1666666667
 32
0.0
 13
-1.0
 23
-0.1666666667
 33
0.0
  0
ENDBLK
  5
211E6
  8
0
  6
BYBLOCK
 62
     0
  0
ENDSEC
  0
SECTION
  2
ENTITIES
  0
LINE
  5
22A51
  8
0
 10
3233.8324658253409325
 20
144.6554337668576125
 30
0.0
 11
3254.617870419368046
 21
144.6554337668576125
 31
0.0
  0
LINE
  5
22A53
  8
0
 10
3234.1002582183141385
 20
143.9163087668576111
 30
0.0
 11
3254.35007802639484
 21
143.9163087668576111
 31
0.0
  0
LINE
  5
22A55
  8
0
 10
3234.2452606840638509
 20
143.8563087668576088
 30
0.0
 11
3254.2050755606451276
 21
143.8563087668576088
 31
0.0
  0
ARC
  5
22A57
  8
0
 10
3231.776587600476887
 20
143.3101935421194923
 30
0.0
 40
2.3147490522740828
 50
17.3777606114954715
 51
31.9491018052151787
  0
ARC
  5
22A58
  8
0
 10
3234.1005366973049604
 20
144.0363094871759984
 30
0.0
 40
0.1200010434432772
 50
196.8423218861587998
 51
269.8670371131995012
  0
ARC
  5
22A59
  8
0
 10
3234.1109782184480537
 20
143.7959221026902981
 30
0.0
 40
0.1204567289610321
 50
41.8627790105802902
 51
88.0456917091660216
  0
ARC
  5
22A5A
  8
0
 10
3234.245409058722089
 20
143.9163080064610085
 30
0.0
 40
0.0599994230641474
 50
221.8097696608413116
 51
269.8583111311313019
  0
ARC
  5
22A5B
  8
0
 10
3234.5586632062991157
 20
143.727413404271914
 30
0.0
 40
0.1289153108613517
 50
59.0019711170212773
 51
88.9920391578399261
  0
ARC
  5
22A5C
  8
0
 10
3301.9482235458699506
 20
230.2153970902805042
 30
0.0
 40
109.5147381805553977
 50
232.066917805241701
 51
233.4113805433750883
  0
ARC
  5
22A5D
  8
0
 10
3245.6541296774707916
 20
155.0356966087543924
 30
0.0
 40
15.6001361196584494
 50
234.8385104642835017
 51
250.7569068275471977
  0
ARC
  5
22A5E
  8
0
 10
3243.426660409366832
 20
147.1306467815927874
 30
0.0
 40
7.4196512490909514
 50
246.8750665666258897
 51
259.7021005983913824
  0
ARC
  5
22A5F
  8
0
 10
3243.2048873178159738
 20
146.1733184270271977
 30
0.0
 40
6.4382704225999463
 50
260.1209278041761763
 51
266.2988968324254984
  0
LINE
  5
22A60
  8
0
 10
3245.3410853288551152
 20
138.4649497668575862
 30
0.0
 11
3243.1092509158547728
 21
138.4649497668575862
 31
0.0
  0
ARC
  5
22A62
  8
0
 10
3243.1092509158429493
 20
138.7149497668214906
 30
0.0
 40
0.249999999963884
 50
184.9999999954252132
 51
270.0000000025794975
  0
LINE
  5
22A63
  8
0
 10
3242.8602022413551822
 20
138.6931608311575985
 30
0.0
 11
3242.7677490801388558
 21
139.7499053003718927
 31
0.0
  0
ARC
  5
22A64
  8
0
 10
3242.817290461895027
 20
140.0319595340857859
 30
0.0
 40
0.2848634792659085
 50
264.3584683151290164
 51
286.8487721048049934
  0
ARC
  5
22A65
  8
0
 10
3159.1869827398300004
 20
349.8568346095876791
 30
0.0
 40
226.1610248480679957
 50
291.7246969548056086
 51
291.8821257231298887
  0
ARC
  5
22A66
  8
0
 10
3243.8233753103218078
 20
139.0576885572112076
 30
0.0
 40
0.9947626425558095
 50
93.8480334590188647
 51
110.3885652965756066
  0
ARC
  5
22A80
  8
0
 10
3254.2046441648608379
 20
143.9169428794249086
 30
0.0
 40
0.0606356471817604
 50
270.4076375431307042
 51
317.6457151190812738
  0
ARC
  5
22A81
  8
0
 10
3254.3392141304930192
 20
143.7961726160841067
 30
0.0
 40
0.1201834328690291
 50
91.6072296108696662
 51
138.3194247408194997
  0
ARC
  5
22A82
  8
0
 10
3254.3497989809980027
 20
144.0363114126878088
 30
0.0
 40
0.1200029702656472
 50
270.1332311849546954
 51
308.0463014024031168
  0
ARC
  5
22A83
  8
0
 10
3254.3498004198149829
 20
144.0363087666530078
 30
0.0
 40
0.1199999997401899
 50
308.0465390173530977
 51
343.1580283641879987
  0
ARC
  5
22A84
  8
0
 10
3256.3818857294018017
 20
143.4211613983632958
 30
0.0
 40
2.0031526066818088
 50
153.6300795765407088
 51
163.1580283641879134
  0
ARC
  5
22A85
  8
0
 10
3242.2794250847518924
 20
151.2198183118730128
 30
0.0
 40
14.1143147552462906
 50
330.6924172511409097
 51
331.730845231388173
  0
ARC
  5
22A86
  8
0
 10
3254.6007754274710351
 20
144.5826294377737895
 30
0.0
 40
0.1194563394486192
 50
336.5434081513835167
 51
358.392323793281605
  0
ARC
  5
22A87
  8
0
 10
3254.6397293540189821
 20
144.5734031162309918
 30
0.0
 40
0.080669600404394
 50
4.1763641646187581
 51
64.5569800781753145
  0
ARC
  5
22A88
  8
0
 10
3254.6138261331079775
 20
144.4520594031781116
 30
0.0
 40
0.2034134566957588
 50
72.6793768486851093
 51
88.8766778152792938
  0
ARC
  5
22A89
  8
0
 10
3253.8916730384098628
 20
143.727413404271914
 30
0.0
 40
0.1289153108613517
 50
91.0079608421600454
 51
120.9980288829787014
  0
ARC
  5
22A8A
  8
0
 10
3186.5021126988390279
 20
230.2153970902805042
 30
0.0
 40
109.5147381805553977
 50
306.5886194566248832
 51
307.933082194758299
  0
ARC
  5
22A8B
  8
0
 10
3242.7962065672381868
 20
155.0356966087543924
 30
0.0
 40
15.6001361196584494
 50
289.2430931724526886
 51
305.1614895357164983
  0
ARC
  5
22A8C
  8
0
 10
3245.023675835343056
 20
147.1306467815927874
 30
0.0
 40
7.4196512490909514
 50
280.2978994016086176
 51
293.1249334333739966
  0
ARC
  5
22A8D
  8
0
 10
3245.2454489268939142
 20
146.1733184270271977
 30
0.0
 40
6.4382704225999463
 50
273.7011031675745016
 51
279.8790721958238237
  0
ARC
  5
22A8E
  8
0
 10
3245.3410853288660292
 20
138.7149497668214906
 30
0.0
 40
0.249999999963884
 50
269.9999999974206162
 51
355.0000000045748152
  0
LINE
  5
22A8F
  8
0
 10
3245.5901340033537963
 20
138.6931608311575985
 30
0.0
 11
3245.6825871645692132
 21
139.7499053003718927
 31
0.0
  0
ARC
  5
22A90
  8
0
 10
3245.6330457828139515
 20
140.0319595340857859
 30
0.0
 40
0.2848634792659085
 50
253.1512278951950066
 51
275.6415316848709836
  0
ARC
  5
22A91
  8
0
 10
3329.2633535048798876
 20
349.8568346095876791
 30
0.0
 40
226.1610248480679957
 50
248.117874276869486
 51
248.2753030451943914
  0
ARC
  5
22A92
  8
0
 10
3244.6269983273609796
 20
139.0578627084586003
 30
0.0
 40
0.9945863747958632
 50
69.6099587196248137
 51
86.1534425247861861
  0
LINE
  5
22A93
  8
0
 10
3243.7566164154459329
 20
140.0502085645559021
 30
0.0
 11
3244.6937198292630455
 21
140.0502085645559021
 31
0.0
  0
LINE
  5
22A94
  8
0
 10
3244.6937198292630455
 20
140.0502085645559021
 30
0.0
 11
3244.6937198292630455
 21
140.0502085645559021
 31
0.0
  0
ARC
  5
22ACA
  8
0
 10
3233.834048385108872
 20
144.5807055360617994
 30
0.0
 40
0.1039066914978324
 50
180.7871777925271886
 51
206.0469410938748069
  0
ARC
  5
22ACB
  8
0
 10
3233.8106068906909059
 20
144.5734031162309918
 30
0.0
 40
0.080669600404394
 50
115.4430199218246997
 51
175.8236358353811966
  0
ARC
  5
22ACC
  8
0
 10
3233.8365230199528924
 20
144.4520046745643924
 30
0.0
 40
0.203469546663225
 50
91.142556903706847
 51
107.3195050219454032
  0
ATTDEF
  5
22ACF
  8
DEFPOINTS
 10
3244.225754648783095
 20
143.8546723458277086
 30
0.0
 40
0.001
  1
K-30334-DM2
  3

  2
MODELNUMBER
 70
     0
1001
ACDBATTR
1070
     0
1070
     1
  0
ATTDEF
  5
22AD0
  8
DEFPOINTS
 10
3244.225754648783095
 20
143.8530056791611003
 30
0.0
 40
0.001
  1
DUTCHMASTER BLUSH FLORAL
  3

  2
TRADENAME
 70
     0
1001
ACDBATTR
1070
     0
1070
     1
  0
ATTDEF
  5
22AD1
  8
DEFPOINTS
 10
3244.225754648783095
 20
143.8513390124944067
 30
0.0
 40
0.001
  1
BATHROOM SINK
  3

  2
PRODUCT
 70
     0
1001
ACDBATTR
1070
     0
1070
     1
  0
ENDSEC
  0
EOF
