  0
SECTION
  2
HEADER
  9
$ACADVER
  1
AC1009
  9
$INSBASE
 10
6187.0802040601365661
 20
43.1340666601646419
 30
0.0
  9
$EXTMIN
 10
6157.2279393828457614
 20
43.1338826710903618
 30
-0.0000000349181948
  9
$EXTMAX
 10
6187.102195449078863
 20
74.1459043112842551
 30
0.0000000814935746
  9
$LIMMIN
 10
0.0
 20
0.0
  9
$LIMMAX
 10
11.6929133858000007
 20
8.2677165353999982
  9
$ORTHOMODE
 70
     1
  9
$REGENMODE
 70
     1
  9
$FILLMODE
 70
     1
  9
$QTEXTMODE
 70
     0
  9
$MIRRTEXT
 70
     0
  9
$DRAGMODE
 70
     2
  9
$LTSCALE
 40
0.6431102362
  9
$OSMODE
 70
  2047
  9
$ATTMODE
 70
     1
  9
$TEXTSIZE
 40
0.2
  9
$TRACEWID
 40
0.05
  9
$TEXTSTYLE
  7
STANDARD
  9
$CLAYER
  8
0
  9
$CELTYPE
  6
BYLAYER
  9
$CECOLOR
 62
   256
  9
$DIMSCALE
 40
1.0
  9
$DIMASZ
 40
0.1875
  9
$DIMEXO
 40
0.0625
  9
$DIMDLI
 40
0.4443307087
  9
$DIMRND
 40
0.0
  9
$DIMDLE
 40
0.0
  9
$DIMEXE
 40
0.125
  9
$DIMTP
 40
0.01
  9
$DIMTM
 40
0.01
  9
$DIMTXT
 40
2.0
  9
$DIMCEN
 40
0.1052362205
  9
$DIMTSZ
 40
0.0
  9
$DIMTOL
 70
     1
  9
$DIMLIM
 70
     0
  9
$DIMTIH
 70
     1
  9
$DIMTOH
 70
     1
  9
$DIMSE1
 70
     0
  9
$DIMSE2
 70
     0
  9
$DIMTAD
 70
     0
  9
$DIMZIN
 70
     0
  9
$DIMBLK
  1

  9
$DIMASO
 70
     1
  9
$DIMSHO
 70
     1
  9
$DIMPOST
  1
\X
  9
$DIMAPOST
  1

  9
$DIMALT
 70
     1
  9
$DIMALTD
 70
     2
  9
$DIMALTF
 40
25.3999999999999986
  9
$DIMLFAC
 40
1.0
  9
$DIMTOFL
 70
     0
  9
$DIMTVP
 40
0.0
  9
$DIMTIX
 70
     0
  9
$DIMSOXD
 70
     0
  9
$DIMSAH
 70
     0
  9
$DIMBLK1
  1

  9
$DIMBLK2
  1

  9
$DIMSTYLE
  2
STANDARD
  9
$DIMCLRD
 70
     0
  9
$DIMCLRE
 70
     0
  9
$DIMCLRT
 70
     0
  9
$DIMTFAC
 40
1.0
  9
$DIMGAP
 40
0.09
  9
$LUNITS
 70
     2
  9
$LUPREC
 70
     4
  9
$SKETCHINC
 40
0.1
  9
$FILLETRAD
 40
0.0
  9
$AUNITS
 70
     0
  9
$AUPREC
 70
     0
  9
$MENU
  1
.
  9
$ELEVATION
 40
0.0
  9
$PELEVATION
 40
0.0
  9
$THICKNESS
 40
0.0
  9
$LIMCHECK
 70
     0
  9
$BLIPMODE
 70
     0
  9
$CHAMFERA
 40
0.0
  9
$CHAMFERB
 40
0.0
  9
$SKPOLY
 70
     0
  9
$TDCREATE
 40
2458060.468368056230247
  9
$TDUPDATE
 40
2460700.5179166668094695
  9
$TDINDWG
 40
0.6008635417
  9
$TDUSRTIMER
 40
0.6008635417
  9
$USRTIMER
 70
     1
  9
$ANGBASE
 50
0.0
  9
$ANGDIR
 70
     0
  9
$PDMODE
 70
     0
  9
$PDSIZE
 40
0.3125
  9
$PLINEWID
 40
0.0
  9
$COORDS
 70
     1
  9
$SPLFRAME
 70
     0
  9
$SPLINETYPE
 70
     6
  9
$SPLINESEGS
 70
     8
  9
$ATTDIA
 70
     1
  9
$ATTREQ
 70
     1
  9
$HANDLING
 70
     1
  9
$HANDSEED
  5
26262
  9
$SURFTAB1
 70
     6
  9
$SURFTAB2
 70
     6
  9
$SURFTYPE
 70
     6
  9
$SURFU
 70
     6
  9
$SURFV
 70
     6
  9
$UCSNAME
  2

  9
$UCSORG
 10
0.0
 20
0.0
 30
0.0
  9
$UCSXDIR
 10
1.0
 20
0.0
 30
0.0
  9
$UCSYDIR
 10
0.0
 20
1.0
 30
0.0
  9
$PUCSNAME
  2

  9
$PUCSORG
 10
0.0
 20
0.0
 30
0.0
  9
$PUCSXDIR
 10
1.0
 20
0.0
 30
0.0
  9
$PUCSYDIR
 10
0.0
 20
1.0
 30
0.0
  9
$USERI1
 70
     0
  9
$USERI2
 70
     0
  9
$USERI3
 70
     0
  9
$USERI4
 70
     0
  9
$USERI5
 70
     0
  9
$USERR1
 40
0.0
  9
$USERR2
 40
0.0
  9
$USERR3
 40
0.0
  9
$USERR4
 40
0.0
  9
$USERR5
 40
0.0
  9
$WORLDVIEW
 70
     1
  9
$SHADEDGE
 70
     3
  9
$SHADEDIF
 70
    70
  9
$TILEMODE
 70
     1
  9
$MAXACTVP
 70
    64
  9
$PLIMCHECK
 70
     0
  9
$PEXTMIN
 10
1.0000000000000000E+20
 20
1.0000000000000000E+20
 30
1.0000000000000000E+20
  9
$PEXTMAX
 10
-1.0000000000000000E+20
 20
-1.0000000000000000E+20
 30
-1.0000000000000000E+20
  9
$PLIMMIN
 10
0.0
 20
0.0
  9
$PLIMMAX
 10
12.0
 20
9.0
  9
$UNITMODE
 70
     0
  9
$VISRETAIN
 70
     1
  9
$PLINEGEN
 70
     0
  9
$PSLTSCALE
 70
     1
  0
ENDSEC
  0
SECTION
  2
TABLES
  0
TABLE
  2
VPORT
 70
     1
  0
VPORT
  2
*ACTIVE
 70
     0
 10
0.0
 20
0.0
 11
1.0
 21
1.0
 12
2379.8071572597132217
 22
-61.5407629419181603
 13
0.0
 23
0.0
 14
1.0
 24
1.0
 15
0.0
 25
0.0
 16
0.0
 26
0.0
 36
5.1040778033513332
 17
3792.35791015625
 27
120.1806564331053977
 37
0.0
 40
31.2679667981597298
 41
2.6101928374655641
 42
50.0
 43
0.0
 44
0.0
 50
0.0
 51
0.0
 71
     0
 72
   100
 73
     1
 74
     1
 75
     0
 76
     0
 77
     0
 78
     0
  0
ENDTAB
  0
TABLE
  2
LTYPE
 70
     2
  0
LTYPE
  2
CONTINUOUS
 70
     0
  3
Solid line
 72
    65
 73
     0
 40
0.0
  0
LTYPE
  2
PHANTOM2
 70
     0
  3
___ _ _ ___ _ _ ___ _ _ ___ _ _
 72
    65
 73
     6
 40
1.25
 49
0.625
 49
-0.125
 49
0.125
 49
-0.125
 49
0.125
 49
-0.125
  0
ENDTAB
  0
TABLE
  2
LAYER
 70
     2
  0
LAYER
  2
0
 70
     0
 62
   255
  6
CONTINUOUS
  0
LAYER
  2
DEFPOINTS
 70
     0
 62
     7
  6
CONTINUOUS
  0
ENDTAB
  0
TABLE
  2
STYLE
 70
     1
  0
STYLE
  2
STANDARD
 70
     0
 40
0.0
 41
0.8
 50
0.0
 71
     0
 42
0.2
  3
txt
  4

  0
ENDTAB
  0
TABLE
  2
VIEW
 70
     0
  0
ENDTAB
  0
TABLE
  2
UCS
 70
     0
  0
ENDTAB
  0
TABLE
  2
APPID
 70
     9
  0
APPID
  2
ACAD
 70
     0
  0
APPID
  2
ACAD_MLEADERVER
 70
     0
  0
APPID
  2
ACAD_EXEMPT_FROM_CAD_STANDARDS
 70
     0
  0
APPID
  2
ACAD_NAV_VCDISPLAY
 70
     0
  0
APPID
  2
ACAECLAYERSTANDARD
 70
     0
  0
APPID
  2
ACCMTRANSPARENCY
 70
     0
  0
APPID
  2
ACAD_DSTYLE_DIMJAG
 70
     0
  0
APPID
  2
ACAD_DSTYLE_DIMTALN
 70
     0
  0
APPID
  2
ACDBATTR
 70
     0
  0
ENDTAB
  0
TABLE
  2
DIMSTYLE
 70
     1
  0
DIMSTYLE
  2
STANDARD
 70
     0
  3

  4

  5

  6

  7

 40
1.0
 41
0.1875
 42
0.0625
 43
0.38
 44
0.125
 45
0.0
 46
0.0
 47
0.01
 48
0.01
140
0.15625
141
0.09
142
0.0
143
25.3999999999999986
144
1.0
145
0.0
146
1.0
147
0.09
 71
     1
 72
     0
 73
     1
 74
     1
 75
     0
 76
     0
 77
     0
 78
     4
170
     0
171
     2
172
     0
173
     0
174
     0
175
     0
176
     0
177
     0
178
     0
  0
ENDTAB
  0
ENDSEC
  0
SECTION
  2
BLOCKS
  0
BLOCK
  8
0
  2
$MODEL_SPACE
 70
     0
 10
0.0
 20
0.0
 30
0.0
  3
$MODEL_SPACE
  1

  0
ENDBLK
  5
21
  8
0
  0
BLOCK
 67
     1
  8
0
  2
$PAPER_SPACE
 70
     0
 10
0.0
 20
0.0
 30
0.0
  3
$PAPER_SPACE
  1

  0
ENDBLK
  5
1D
 67
     1
  8
0
  0
ENDSEC
  0
SECTION
  2
ENTITIES
  0
LINE
  5
260B0
  8
0
 10
6162.236969996886728
 20
43.1340666601646419
 30
0.0
 11
6185.2502040601357294
 21
43.1340666601646419
 31
0.0
  0
LINE
  5
260B1
  8
0
 10
6179.5532142767560799
 20
74.0382311506646715
 30
0.0
 11
6185.0570966742561723
 21
74.0317720518646638
 31
0.0
  0
LINE
  5
260B2
  8
0
 10
6179.1142645777599682
 20
72.8575731708646686
 30
0.0
 11
6185.1568713339429451
 21
72.8498532696234804
 31
0.0
  0
LINE
  5
260B3
  8
0
 10
6157.9472710960835684
 20
58.4887207390646608
 30
0.0
 11
6180.1949605578602132
 21
58.4887207390646608
 31
0.0
  0
LINE
  5
260B4
  8
0
 10
6157.7093416699299269
 20
58.2211249958646135
 30
0.0
 11
6184.9722959333603285
 21
58.2211249958646135
 31
0.0
  0
ARC
  5
260B5
  8
0
 10
6174.7207967487483984
 20
62.1248518388360935
 30
0.0
 40
17.4258533546545209
 50
192.9821941948887911
 51
195.251522716146809
  0
ARC
  5
260B6
  8
0
 10
6183.7030772742436966
 20
64.5739590442086069
 30
0.0
 40
26.7360353905812396
 50
195.251522716146809
 51
199.9635939385053973
  0
ARC
  5
260B7
  8
0
 10
6206.5112026431661434
 20
72.8590292864304843
 30
0.0
 40
51.002328304064882
 50
199.9635939385053973
 51
203.8424556005417969
  0
ARC
  5
260B8
  8
0
 10
6123.6214795575051539
 20
36.2269129813047073
 30
0.0
 40
39.6211683080703096
 50
17.5495945716610713
 51
23.8424556005418005
  0
ARC
  5
260B9
  8
0
 10
6140.6714392966632658
 20
42.1932263666105314
 30
0.0
 40
21.5726962787472907
 50
7.2933574131481249
 51
16.0952475003298012
  0
ARC
  5
260BA
  8
0
 10
6134.0356532574423909
 20
41.4152204330903828
 30
0.0
 40
28.2536492897958986
 50
3.4878143712539611
 51
7.1499857468430683
  0
LINE
  5
260BB
  8
0
 10
6157.7093416699299269
 20
58.2211249958646135
 30
0.0
 11
6157.7113297494961444
 21
58.2635715747681999
 31
0.0
  0
LINE
  5
260BC
  8
0
 10
6157.7093416699299269
 20
58.2211249958646135
 30
0.0
 11
6157.7403494996187874
 21
58.2101645770646883
 31
0.0
  0
ARC
  5
260BD
  8
0
 10
6157.9472710960835684
 20
58.2525207390646571
 30
0.0
 40
0.2362
 50
90.0
 51
177.3183849883727987
  0
LINE
  5
260BE
  8
0
 10
6185.112882166055897
 20
58.9969333375646627
 30
0.0
 11
6179.5188969301962061
 21
58.9969333375646627
 31
0.0
  0
ARC
  5
260BF
  8
0
 10
6185.0532056729880424
 20
58.7999333375646529
 30
0.0
 40
0.197
 50
359.7681527839401951
 51
90.0
  0
LINE
  5
260C0
  8
0
 10
6179.5371964500227477
 20
58.7999333375646529
 30
0.0
 11
6179.5371964500227477
 21
58.6857207390646707
 31
0.0
  0
ARC
  5
260C1
  8
0
 10
6179.7341964500228642
 20
58.7999333375646529
 30
0.0
 40
0.197
 50
90.0
 51
180.0
  0
ARC
  5
260C2
  8
0
 10
6179.3401964500226313
 20
58.6857207390646707
 30
0.0
 40
0.197
 50
270.0
 51
0.0
  0
LINE
  5
260C3
  8
0
 10
6179.0717268097523629
 20
72.6560703321601977
 30
0.0
 11
6179.3809329835903554
 21
59.1317790647665902
 31
0.0
  0
ARC
  5
260C4
  8
0
 10
6179.2686753422258334
 20
72.6605731708646658
 30
0.0
 40
0.197
 50
92.4921701941813836
 51
181.3097265149629038
  0
ARC
  5
260C5
  8
0
 10
6185.112882166055897
 20
59.1349333375646893
 30
0.0
 40
0.138
 50
270.0
 51
354.3176909288523007
  0
ARC
  5
260C6
  8
0
 10
6185.05388216605661
 20
72.6605731708646658
 30
0.0
 40
0.197
 50
4.7553002085697473
 51
73.9721997657684511
  0
LINE
  5
260C7
  8
0
 10
6185.2316708798261971
 20
72.934438589190961
 30
0.0
 11
6185.1913799034073236
 21
73.8653762561146436
 31
0.0
  0
ARC
  5
260C8
  8
0
 10
6185.1530920029481422
 20
72.9285609750681658
 30
0.0
 40
0.0787983898258275
 50
272.749076748085713
 51
4.2776958382465047
  0
LINE
  5
260C9
  8
0
 10
6179.2069338316559879
 20
73.824295432664627
 30
0.0
 11
6179.0718610228559555
 21
73.1949668405646463
 31
0.0
  0
ARC
  5
260CA
  8
0
 10
6179.5236414958962996
 20
73.6988822845334823
 30
0.0
 40
0.3406349986603783
 50
85.0195039586827193
 51
158.3969170227225902
  0
ARC
  5
260CB
  8
0
 10
6185.0515123603454413
 20
73.8898835333765476
 30
0.0
 40
0.1419983670349754
 50
350.0616490890354839
 51
87.7461702121063354
  0
LINE
  5
260CC
  8
0
 10
6179.0332882820193845
 20
72.93092672930986
 30
0.0
 11
6179.0344084525522703
 21
72.9686242162947849
 31
0.0
  0
ARC
  5
260CD
  8
0
 10
6179.1028868075482023
 20
72.9263854129119409
 30
0.0
 40
0.0697465290216067
 50
176.2667322425494092
 51
279.3886353242963878
  0
ARC
  5
260CE
  8
0
 10
6181.9882059265846692
 20
72.583481042842152
 30
0.0
 40
2.9797621513000019
 50
168.1580344587673039
 51
172.3285978758692067
  0
ARC
  5
260CF
  8
0
 10
6185.0540319693200217
 20
72.7862589781647671
 30
0.0
 40
0.1968503936996905
 50
4.7577991412745018
 51
31.6636684818801903
  0
ARC
  5
260D0
  8
0
 10
6179.5188969301962061
 20
59.1349333375646893
 30
0.0
 40
0.138
 50
181.3097265149596069
 51
270.0
  0
ARC
  5
260D1
  8
0
 10
6184.9660057120945567
 20
57.8047682426275671
 30
0.0
 40
0.4164042661280476
 50
47.48172374098489
 51
89.1344544994068286
  0
CIRCLE
  5
260D2
  8
0
 10
6179.2665942080202512
 20
44.5120194160146525
 30
0.0
 40
0.5421836388318125
  0
ARC
  5
260D3
  8
0
 10
6179.2238082899493747
 20
51.2236574570762002
 30
0.0
 40
7.3296849331172673
 50
77.8516335476047061
 51
82.3861626288226461
  0
ARC
  5
260D4
  8
0
 10
6183.2269904067061361
 20
70.0253156157373269
 30
0.0
 40
11.89345124556481
 50
258.0595512009725212
 51
261.2565783337648782
  0
ARC
  5
260D5
  8
0
 10
6181.3565372219582059
 20
57.8534416938696268
 30
0.0
 40
0.4213031519179276
 50
76.0304188374885541
 51
81.4644959871406655
  0
ARC
  5
260D6
  8
0
 10
6181.6898357683576251
 20
58.7940465039062516
 30
0.0
 40
0.5800054475472887
 50
246.4659023836348979
 51
261.035996179864128
  0
LINE
  5
260D7
  8
0
 10
6181.2126130573678893
 20
74.1066346200199462
 30
0.0
 11
6181.2098769187387006
 21
74.0382311506646715
 31
0.0
  0
LINE
  5
260D8
  8
0
 10
6181.2361941999961346
 20
74.1292913743646693
 30
0.0
 11
6183.4664350062557787
 21
74.1292913743646693
 31
0.0
  0
ARC
  5
260D9
  8
0
 10
6181.2361941999961346
 20
74.1056913743646533
 30
0.0
 40
0.0236
 50
90.0
 51
177.7093900781976004
  0
LINE
  5
260DA
  8
0
 10
6181.578310515926205
 20
74.141102399064664
 30
0.0
 11
6183.1243187096260954
 21
74.141102399064664
 31
0.0
  0
ARC
  5
260DB
  8
0
 10
6181.5783104966249084
 20
74.1174803518646144
 30
0.0
 40
0.023622047200032
 50
89.9999531875242695
 51
150.0000030789655909
  0
LINE
  5
260DC
  8
0
 10
6183.4900161488831145
 20
74.1066346200199462
 30
0.0
 11
6183.4927522875132127
 21
74.0382311506646715
 31
0.0
  0
ARC
  5
260DD
  8
0
 10
6183.4664350062557787
 20
74.1056913743646533
 30
0.0
 40
0.0236
 50
2.290609921802413
 51
90.0
  0
ARC
  5
260DE
  8
0
 10
6183.1243187096260954
 20
74.1174803518646144
 30
0.0
 40
0.023622047200032
 50
29.9999969210343487
 51
90.0000468124757163
  0
ARC
  5
260DF
  8
0
 10
6177.1982220603631504
 20
58.5620819523425169
 30
0.0
 40
0.0733768766335977
 50
268.8069066701070824
 51
268.8161187262443832
  0
ARC
  5
260E0
  8
0
 10
6158.6504798342657523
 20
55.1969356022829416
 30
0.0
 40
3.6629826678499282
 50
69.1159654297552919
 51
90.1442338040407094
  0
ARC
  5
260E1
  8
0
 10
6159.3571079840712628
 20
57.2358693842150501
 30
0.0
 40
1.5075749344006431
 50
56.2114396989159388
 51
66.5828889788143528
  0
ARC
  5
260E2
  8
0
 10
6158.2896685898340365
 20
43.0311148922207991
 30
0.0
 40
15.8326960634384299
 50
88.7275513854065423
 51
89.5520321248867361
  0
LINE
  5
260E3
  8
0
 10
6157.6619934636428297
 20
58.8633270124663426
 30
0.0
 11
6175.2931049289563816
 21
58.8633270383646519
 31
0.0
  0
ARC
  5
260E4
  8
0
 10
6175.2931049228964184
 20
62.9888563569352229
 30
0.0
 40
4.125529318570571
 50
270.000000084157989
 51
273.5247550870039959
  0
ARC
  5
260E5
  8
0
 10
6175.4012731418761177
 20
61.2327734591030719
 30
0.0
 40
2.3661181933199318
 50
273.5247550870039959
 51
284.0022718882564732
  0
ARC
  5
260E6
  8
0
 10
6175.7735121004698158
 20
59.4975433280269712
 30
0.0
 40
0.5952805094141109
 50
289.6592789996641955
 51
327.1274760999227169
  0
ARC
  5
260E7
  8
0
 10
6157.6620096682572694
 20
58.9617956386912923
 30
0.0
 40
0.0984686275583028
 50
192.7201951905983037
 51
269.9905710474657781
  0
LINE
  5
260E8
  8
0
 10
6157.5659577568558234
 20
58.9401138276646392
 30
0.0
 11
6157.4099085824045687
 21
59.6314223839571369
 31
0.0
  0
ARC
  5
260E9
  8
0
 10
6157.5443248028423113
 20
59.6617641756813626
 30
0.0
 40
0.1377982026074475
 50
90.8835816695171417
 51
192.7201951905987016
  0
ARC
  5
260EA
  8
0
 10
6151.1768224953821118
 20
472.5291866684416959
 30
0.0
 40
412.778723193002179
 50
270.8835816695171843
 51
271.2342694130038012
  0
ARC
  5
260EB
  8
0
 10
6150.5605681676343011
 20
614.7147785442539316
 30
0.0
 40
554.9499926181669025
 50
270.981667142180072
 51
272.0388299968878982
  0
ARC
  5
260EC
  8
0
 10
6140.4304928619585553
 20
831.9426448757740218
 30
0.0
 40
772.4044517779819898
 50
272.2165168568466243
 51
272.6227430952835107
  0
ARC
  5
260ED
  8
0
 10
6176.5076410679957917
 20
46.6174807023858975
 30
0.0
 40
13.7493328401573809
 50
92.0505078976857334
 51
93.0530322260263745
  0
ARC
  5
260EE
  8
0
 10
6176.017820390072302
 20
60.2983228664544981
 30
0.0
 40
0.0597248613041902
 50
20.4693499295184296
 51
92.0505078976857334
  0
ARC
  5
260EF
  8
0
 10
5906.581416254861324
 20
-37.9702722194066524
 30
0.0
 40
286.8570255499299151
 50
19.8861889081120786
 51
20.0379669576917614
  0
ARC
  5
260F0
  8
0
 10
6175.8401775559696034
 20
59.4529789957932593
 30
0.0
 40
0.5159195240226239
 50
0.0082413591025477
 51
17.1339780176857701
  0
ARC
  5
260F1
  8
0
 10
6175.8398453171948859
 20
59.4536408524942317
 30
0.0
 40
0.5162520919182589
 50
341.9624411540921187
 51
359.9347804583173911
  0
ARC
  5
260F2
  8
0
 10
6175.8378779723334446
 20
59.4567974784716426
 30
0.0
 40
0.5191056805643133
 50
327.0486312023824098
 51
341.6983902235817254
  0
ARC
  5
260F3
  8
0
 10
6161.7028025897607222
 20
58.6689369401311112
 30
0.0
 40
0.1947021478113419
 50
31.4703415328007985
 51
86.7589861528597623
  0
ARC
  5
260F4
  8
0
 10
6161.9046946731778007
 20
58.7925128615760286
 30
0.0
 40
0.0420074246757601
 50
211.4703415328042979
 51
267.9714558687472845
  0
ARC
  5
260F5
  8
0
 10
6161.9001175680450615
 20
58.7305869957734004
 30
0.0
 40
0.0201827358485207
 50
81.1928319823891371
 51
179.2626517196401892
  0
LINE
  5
260F6
  8
0
 10
6161.8799365034556104
 20
58.7308467233646496
 30
0.0
 11
6161.8799399641047785
 21
58.6437021463801074
 31
0.0
  0
ARC
  5
260F7
  8
0
 10
6161.9193392342413063
 20
58.6436922638756783
 30
0.0
 40
0.0394027307852288
 50
179.9999289741957114
 51
233.896183755637793
  0
ARC
  5
260F8
  8
0
 10
6162.0937606108900582
 20
58.8897208246705119
 30
0.0
 40
0.3409835247326705
 50
234.5764745587808022
 51
238.8497936267102943
  0
ARC
  5
260F9
  8
0
 10
6162.2439160572848778
 20
59.1756875800024815
 30
0.0
 40
0.6636750523471103
 50
240.5266442426180902
 51
250.9435190223900065
  0
ARC
  5
260FA
  8
0
 10
6162.3803598734302795
 20
59.5640044813755196
 30
0.0
 40
1.075262218540828
 50
250.8273133348232022
 51
264.6531682883227745
  0
ARC
  5
260FB
  8
0
 10
6162.3584305701078847
 20
59.1182502605029612
 30
0.0
 40
0.6297123974668435
 50
262.860111984774619
 51
268.6191216829445239
  0
LINE
  5
260FC
  8
0
 10
6161.9032077359906907
 20
58.7505317617131979
 30
0.0
 11
6162.9385570317572274
 21
58.7505317627646519
 31
0.0
  0
LINE
  5
260FD
  8
0
 10
6162.9582435844804422
 20
58.7308467233646496
 30
0.0
 11
6162.9582401238321836
 21
58.6437021463801074
 31
0.0
  0
ARC
  5
260FE
  8
0
 10
6162.9188408536947463
 20
58.6436922638756783
 30
0.0
 40
0.0394027307852288
 50
306.1038162443621786
 51
0.0000710258042227
  0
ARC
  5
260FF
  8
0
 10
6162.7444194770459944
 20
58.8897208246705119
 30
0.0
 40
0.3409835247326705
 50
301.1502063732895067
 51
305.4235254412188851
  0
ARC
  5
26100
  8
0
 10
6162.5942640306511748
 20
59.1756875800024815
 30
0.0
 40
0.6636750523471103
 50
289.0564809776100788
 51
299.4733557573820235
  0
ARC
  5
26101
  8
0
 10
6162.457820214505773
 20
59.5640044813755196
 30
0.0
 40
1.075262218540828
 50
275.3468317116772255
 51
289.1726866651767978
  0
ARC
  5
26102
  8
0
 10
6162.4797495178281679
 20
59.1182502605029612
 30
0.0
 40
0.6297123974668435
 50
271.3808783170554761
 51
277.1398880152253241
  0
ARC
  5
26103
  8
0
 10
6162.9384723766361276
 20
58.7307605483541195
 30
0.0
 40
0.0197713956451291
 50
0.2497284523629823
 51
89.7546760986928547
  0
ARC
  5
26104
  8
0
 10
6163.1389621779853769
 20
58.6689369401311112
 30
0.0
 40
0.1947021478113419
 50
93.2410138471402234
 51
148.529658467199198
  0
ARC
  5
26105
  8
0
 10
6162.9370700945692079
 20
58.7925128615760286
 30
0.0
 40
0.0420074246757601
 50
272.0285441312527155
 51
328.5296584671958158
  0
LINE
  5
26106
  8
0
 10
6170.7694846099802817
 20
58.7907399844646505
 30
0.0
 11
6170.7694811493311136
 21
58.7035954074801083
 31
0.0
  0
ARC
  5
26107
  8
0
 10
6170.7300818791945858
 20
58.7035855249756793
 30
0.0
 40
0.0394027307852288
 50
306.1038162443621786
 51
0.0000710258042227
  0
ARC
  5
26108
  8
0
 10
6170.5556605025458339
 20
58.9496140857705129
 30
0.0
 40
0.3409835247326705
 50
301.1502063732895067
 51
305.4235254412188851
  0
ARC
  5
26109
  8
0
 10
6170.2767904694155732
 20
59.4437183585921503
 30
0.0
 40
0.9082576196022532
 50
292.3823982284511089
 51
300.0820802695251928
  0
ARC
  5
2610A
  8
0
 10
6170.3220902545781428
 20
59.3684751804437312
 30
0.0
 40
0.8215401156956643
 50
273.3152322206148028
 51
291.4592916937145901
  0
ARC
  5
2610B
  8
0
 10
6170.2936109394413506
 20
59.6872362960774012
 30
0.0
 40
1.141458506136289
 50
268.2620307222546217
 51
273.8170845209792219
  0
ARC
  5
2610C
  8
0
 10
6170.7497758941071879
 20
58.7898625045001921
 30
0.0
 40
0.0197282399747241
 50
2.5492639193935971
 51
91.1339586092205707
  0
ARC
  5
2610D
  8
0
 10
6170.7493096181442525
 20
58.8491537676771586
 30
0.0
 40
0.0395669595220483
 50
270.1098416541502161
 51
311.8089557301237278
  0
ARC
  5
2610E
  8
0
 10
6170.9073450115220112
 20
58.672802710278539
 30
0.0
 40
0.19723441652785
 50
104.9881976553235035
 51
131.8760234700937133
  0
LINE
  5
2610F
  8
0
 10
6169.8167252427319909
 20
58.7907399844646505
 30
0.0
 11
6169.816728703381159
 21
58.7035954074801083
 31
0.0
  0
ARC
  5
26110
  8
0
 10
6170.0305493501664387
 20
58.9496140857705129
 30
0.0
 40
0.3409835247326705
 50
234.5764745587810864
 51
238.8497936267102943
  0
ARC
  5
26111
  8
0
 10
6170.3094193832957899
 20
59.4437183585921503
 30
0.0
 40
0.9082576196022532
 50
239.9179197304746083
 51
247.6176017715486921
  0
ARC
  5
26112
  8
0
 10
6170.2641195981341298
 20
59.3684751804437312
 30
0.0
 40
0.8215401156956643
 50
248.5407083062854099
 51
266.6847677793850835
  0
ARC
  5
26113
  8
0
 10
6170.2925989132718314
 20
59.6872362960774012
 30
0.0
 40
1.141458506136289
 50
266.1829154790207781
 51
271.7379692777453215
  0
ARC
  5
26114
  8
0
 10
6169.8364339586059941
 20
58.7898625045001921
 30
0.0
 40
0.0197282399747241
 50
88.8660413907794293
 51
177.45073608060639
  0
ARC
  5
26115
  8
0
 10
6169.8369002345689296
 20
58.8491537676771586
 30
0.0
 40
0.0395669595220483
 50
228.191044269875988
 51
269.8901583458498976
  0
ARC
  5
26116
  8
0
 10
6169.6758012549316845
 20
58.6671443079169919
 30
0.0
 40
0.2034981187675299
 50
48.5451811044702097
 51
74.5905977701294773
  0
ARC
  5
26117
  8
0
 10
6169.8596635712392526
 20
58.705377746927013
 30
0.0
 40
0.0429718467365014
 50
182.3771338365365864
 51
231.4947863079025012
  0
LINE
  5
26118
  8
0
 10
6169.8368243808590705
 20
58.80958688086465
 30
0.0
 11
6170.7493854718559305
 21
58.80958688086465
 31
0.0
  0
ARC
  5
26119
  8
0
 10
6165.5568940708462833
 20
59.1528814340848612
 30
0.0
 40
9.762091000128267
 50
358.0673412777143199
 51
358.3006262535930091
  0
ARC
  5
2611A
  8
0
 10
6175.3332563911590114
 20
58.8234243466246198
 30
0.0
 40
0.0198235978252607
 50
178.9982594306069075
 51
264.8308897183698036
  0
ARC
  5
2611B
  8
0
 10
6175.3314351102499131
 20
58.7840334868392205
 30
0.0
 40
0.0196479138655676
 50
89.8971750132210161
 51
177.1028251379879919
  0
ARC
  5
2611C
  8
0
 10
6195.4688954775356251
 20
57.6985134232268067
 30
0.0
 40
20.1863447076566906
 50
176.9146115541905999
 51
177.0853885304904907
  0
ARC
  5
2611D
  8
0
 10
6174.9941343814916763
 20
58.7414249775022483
 30
0.0
 40
0.3149606305699924
 50
321.8233696190508226
 51
357.000000023655673
  0
ARC
  5
2611E
  8
0
 10
6175.2726769630562558
 20
58.5224174849646204
 30
0.0
 40
0.039370078700063
 50
141.823369568130687
 51
179.9999999999593001
  0
LINE
  5
2611F
  8
0
 10
6175.2333068843563524
 20
58.5224174849646488
 30
0.0
 11
6175.2333068843563524
 21
58.4887207391646484
 31
0.0
  0
LINE
  5
26120
  8
0
 10
6175.3314703710575486
 20
58.8036813690646483
 30
0.0
 11
6176.3571016873547705
 21
58.8036813690646483
 31
0.0
  0
ARC
  5
26121
  8
0
 10
6215.8170146410566304
 20
60.3449571206258497
 30
0.0
 40
39.4710968412571575
 50
181.3016250300348133
 51
182.2083326189720935
  0
ARC
  5
26122
  8
0
 10
6176.3556160627376812
 20
58.8232556634112811
 30
0.0
 40
0.0196305904056814
 50
274.3402404383223256
 51
2.2083326189688282
  0
ARC
  5
26123
  8
0
 10
6176.3571016873820554
 20
58.7839963297293409
 30
0.0
 40
0.019685039335308
 50
2.9999998123481819
 51
89.9999750375428818
  0
ARC
  5
26124
  8
0
 10
9831.0224608580756467
 20
250.1683329371765865
 30
0.0
 40
3659.6533675462428619
 50
182.997677339519413
 51
183.0023226897718871
  0
ARC
  5
26125
  8
0
 10
6174.8626705958222374
 20
56.4537544702506082
 30
0.0
 40
2.410808228228416
 50
91.8083026162074987
 51
97.3823763750092155
  0
ARC
  5
26126
  8
0
 10
6174.9352280920447811
 20
56.0747038458759732
 30
0.0
 40
2.7970247466864722
 50
101.4548688225104058
 51
116.2026505896645006
  0
ARC
  5
26127
  8
0
 10
6174.9553647363809432
 20
56.0337855594936016
 30
0.0
 40
2.8426294679945099
 50
116.2026505896645006
 51
120.2751600297670933
  0
LINE
  5
26128
  8
0
 10
6174.3797501708568234
 20
58.8192958414646512
 30
0.0
 11
6174.3797501708568234
 21
58.8101751819646523
 31
0.0
  0
LINE
  5
26129
  8
0
 10
6174.3752614207560327
 20
58.8151108354935985
 30
0.0
 11
6174.3752614207560327
 21
58.8100921671756112
 31
0.0
  0
LINE
  5
2612A
  8
0
 10
6174.3752614207560327
 20
58.8100921671756112
 30
0.0
 11
6174.3797397889557033
 21
58.8108017780646506
 31
0.0
  0
ARC
  5
2612B
  8
0
 10
6174.8391493792169058
 20
56.5015690139872007
 30
0.0
 40
2.362827857845065
 50
96.958187692167968
 51
101.2111457933550014
  0
ARC
  5
2612C
  8
0
 10
6174.8624057421729958
 20
56.4136814956091968
 30
0.0
 40
2.4446141595893289
 50
97.2734688508733569
 51
101.3870806464295953
  0
LINE
  5
2612D
  8
0
 10
6174.3973765579557949
 20
58.817045070770213
 30
0.0
 11
6174.3973765579557949
 21
58.8136463867187231
 31
0.0
  0
ARC
  5
2612E
  8
0
 10
6174.5594564962402728
 20
58.008743056833417
 30
0.0
 40
0.8243919287136394
 50
99.2440000639531945
 51
102.5909514047117028
  0
ARC
  5
2612F
  8
0
 10
6174.6274727214140512
 20
57.689556879406183
 30
0.0
 40
1.150468282944336
 50
97.5007693990355335
 51
100.0338420060825939
  0
LINE
  5
26130
  8
0
 10
6174.4772924329572561
 20
58.830176038364641
 30
0.0
 11
6174.4772924329572561
 21
58.8365240534366976
 31
0.0
  0
LINE
  5
26131
  8
0
 10
6174.5529046264564386
 20
58.8469942264646377
 30
0.0
 11
6174.5529046516558083
 21
58.8386242710646385
 31
0.0
  0
LINE
  5
26132
  8
0
 10
6174.557405125956393
 20
58.8451281443646508
 30
0.0
 11
6174.557405125956393
 21
58.8397912683646425
 31
0.0
  0
LINE
  5
26133
  8
0
 10
6174.557405125956393
 20
58.8397912683646425
 30
0.0
 11
6174.552905449323589
 21
58.8391130864065914
 31
0.0
  0
ARC
  5
26134
  8
0
 10
6179.5628446691307545
 20
72.9454892479734553
 30
0.0
 40
0.528942399276037
 50
176.1229445164296976
 51
177.4931882166445121
  0
LINE
  5
2613A
  8
0
 10
6185.2502040601357294
 20
58.7991361797756014
 30
0.0
 11
6185.2502040601357294
 21
43.1340666601646419
 31
0.0
  0
LINE
  5
2613B
  8
0
 10
6185.2502040601357294
 20
72.8025865096474547
 30
0.0
 11
6185.2502040601357294
 21
59.1212696116366772
 31
0.0
  0
LINE
  5
2614F
  8
0
 10
6169.8342877458826479
 20
58.6707751594646467
 30
0.0
 11
6170.7519221068287152
 21
58.6707751594646467
 31
0.0
  0
LINE
  5
26150
  8
0
 10
6161.8961041650463812
 20
58.61186921008062
 30
0.0
 11
6162.9420759228896713
 21
58.61186921008062
 31
0.0
  0
ARC
  5
26151
  8
0
 10
6138.9382713960740148
 20
1610.5164292441970701
 30
0.0
 40
1550.9949530584879085
 50
270.6823821050473953
 51
270.8116145265635168
  0
ARC
  5
26152
  8
0
 10
6151.2416008271293322
 20
742.0232258570741806
 30
0.0
 40
682.4146077566186932
 50
270.8116145265635168
 51
271.1117336874251009
  0
ARC
  5
26153
  8
0
 10
6158.3402733970642657
 20
376.222549947022685
 30
0.0
 40
316.5450604470543112
 50
271.1117336874251009
 51
272.0995692881493824
  0
ARC
  5
26154
  8
0
 10
6153.6508016947173019
 20
504.1376714464024076
 30
0.0
 40
444.5461129936962266
 50
272.0995692881493824
 51
272.502825802139796
  0
ARC
  5
26155
  8
0
 10
6076.8578110912094417
 20
2260.9979811614298342
 30
0.0
 40
2203.0839463250717927
 50
272.502825802139796
 51
272.5566561310151883
  0
ARC
  5
26156
  8
0
 10
6174.3301620541506054
 20
68.6143874450301752
 30
0.0
 40
8.5450473790353918
 50
275.3799911921863099
 51
281.9364802006696209
  0
ATTDEF
  5
26157
  8
DEFPOINTS
 10
6187.0802340248537803
 20
43.1374402515960682
 30
0.0
 40
0.001
  1
K-30354X-NS
  3

  2
MODELNUMBER
 70
     0
1001
ACDBATTR
1070
     0
1070
     1
  0
ATTDEF
  5
26158
  8
DEFPOINTS
 10
6187.0802340248537803
 20
43.1357735849294102
 30
0.0
 40
0.001
  1
FAMILY CARE
  3

  2
TRADENAME
 70
     0
1001
ACDBATTR
1070
     0
1070
     1
  0
ATTDEF
  5
26159
  8
DEFPOINTS
 10
6187.0802340248537803
 20
43.1341069182627379
 30
0.0
 40
0.001
  1
TOILET
  3

  2
PRODUCT
 70
     0
1001
ACDBATTR
1070
     0
1070
     1
  0
ENDSEC
  0
EOF
