  0
SECTION
  2
HEADER
  9
$ACADVER
  1
AC1009
  9
$INSBASE
 10
4629.250245709590672
 20
140.6420440697615106
 30
0.0
  9
$EXTMIN
 10
4620.4557204682905649
 20
140.6268318172180898
 30
-0.0000000000000058
  9
$EXTMAX
 10
4637.5251630992106584
 20
170.1781519068061925
 30
0.0000000000000104
  9
$LIMMIN
 10
0.0
 20
0.0
  9
$LIMMAX
 10
11.6929133858000007
 20
8.2677165353999982
  9
$ORTHOMODE
 70
     0
  9
$REGENMODE
 70
     1
  9
$FILLMODE
 70
     1
  9
$QTEXTMODE
 70
     0
  9
$MIRRTEXT
 70
     0
  9
$DRAGMODE
 70
     2
  9
$LTSCALE
 40
0.6431102362
  9
$OSMODE
 70
  4095
  9
$ATTMODE
 70
     1
  9
$TEXTSIZE
 40
0.2
  9
$TRACEWID
 40
0.05
  9
$TEXTSTYLE
  7
STANDARD
  9
$CLAYER
  8
0
  9
$CELTYPE
  6
BYLAYER
  9
$CECOLOR
 62
   256
  9
$DIMSCALE
 40
1.0
  9
$DIMASZ
 40
0.1875
  9
$DIMEXO
 40
0.0625
  9
$DIMDLI
 40
0.4443307087
  9
$DIMRND
 40
0.0
  9
$DIMDLE
 40
0.0
  9
$DIMEXE
 40
0.125
  9
$DIMTP
 40
0.01
  9
$DIMTM
 40
0.01
  9
$DIMTXT
 40
2.0
  9
$DIMCEN
 40
0.1052362205
  9
$DIMTSZ
 40
0.0
  9
$DIMTOL
 70
     1
  9
$DIMLIM
 70
     0
  9
$DIMTIH
 70
     1
  9
$DIMTOH
 70
     1
  9
$DIMSE1
 70
     0
  9
$DIMSE2
 70
     0
  9
$DIMTAD
 70
     0
  9
$DIMZIN
 70
     0
  9
$DIMBLK
  1

  9
$DIMASO
 70
     1
  9
$DIMSHO
 70
     1
  9
$DIMPOST
  1
\X
  9
$DIMAPOST
  1

  9
$DIMALT
 70
     1
  9
$DIMALTD
 70
     2
  9
$DIMALTF
 40
25.3999999999999986
  9
$DIMLFAC
 40
1.0
  9
$DIMTOFL
 70
     0
  9
$DIMTVP
 40
0.0
  9
$DIMTIX
 70
     0
  9
$DIMSOXD
 70
     0
  9
$DIMSAH
 70
     0
  9
$DIMBLK1
  1

  9
$DIMBLK2
  1

  9
$DIMSTYLE
  2
STANDARD
  9
$DIMCLRD
 70
     0
  9
$DIMCLRE
 70
     0
  9
$DIMCLRT
 70
     0
  9
$DIMTFAC
 40
1.0
  9
$DIMGAP
 40
0.09
  9
$LUNITS
 70
     2
  9
$LUPREC
 70
     4
  9
$SKETCHINC
 40
0.1
  9
$FILLETRAD
 40
0.0
  9
$AUNITS
 70
     0
  9
$AUPREC
 70
     0
  9
$MENU
  1
.
  9
$ELEVATION
 40
0.0
  9
$PELEVATION
 40
0.0
  9
$THICKNESS
 40
0.0
  9
$LIMCHECK
 70
     0
  9
$BLIPMODE
 70
     0
  9
$CHAMFERA
 40
0.0
  9
$CHAMFERB
 40
0.0
  9
$SKPOLY
 70
     0
  9
$TDCREATE
 40
2458060.468368056230247
  9
$TDUPDATE
 40
2460206.7216435191221535
  9
$TDINDWG
 40
0.414034838
  9
$TDUSRTIMER
 40
0.414034838
  9
$USRTIMER
 70
     1
  9
$ANGBASE
 50
0.0
  9
$ANGDIR
 70
     0
  9
$PDMODE
 70
     0
  9
$PDSIZE
 40
0.3125
  9
$PLINEWID
 40
0.0
  9
$COORDS
 70
     1
  9
$SPLFRAME
 70
     0
  9
$SPLINETYPE
 70
     6
  9
$SPLINESEGS
 70
     8
  9
$ATTDIA
 70
     1
  9
$ATTREQ
 70
     1
  9
$HANDLING
 70
     1
  9
$HANDSEED
  5
EB5C
  9
$SURFTAB1
 70
     6
  9
$SURFTAB2
 70
     6
  9
$SURFTYPE
 70
     6
  9
$SURFU
 70
     6
  9
$SURFV
 70
     6
  9
$UCSNAME
  2

  9
$UCSORG
 10
0.0
 20
0.0
 30
0.0
  9
$UCSXDIR
 10
1.0
 20
0.0
 30
0.0
  9
$UCSYDIR
 10
0.0
 20
1.0
 30
0.0
  9
$PUCSNAME
  2

  9
$PUCSORG
 10
0.0
 20
0.0
 30
0.0
  9
$PUCSXDIR
 10
1.0
 20
0.0
 30
0.0
  9
$PUCSYDIR
 10
0.0
 20
1.0
 30
0.0
  9
$USERI1
 70
     0
  9
$USERI2
 70
     0
  9
$USERI3
 70
     0
  9
$USERI4
 70
     0
  9
$USERI5
 70
     0
  9
$USERR1
 40
0.0
  9
$USERR2
 40
0.0
  9
$USERR3
 40
0.0
  9
$USERR4
 40
0.0
  9
$USERR5
 40
0.0
  9
$WORLDVIEW
 70
     1
  9
$SHADEDGE
 70
     3
  9
$SHADEDIF
 70
    70
  9
$TILEMODE
 70
     1
  9
$MAXACTVP
 70
    64
  9
$PLIMCHECK
 70
     0
  9
$PEXTMIN
 10
1.0000000000000000E+20
 20
1.0000000000000000E+20
 30
1.0000000000000000E+20
  9
$PEXTMAX
 10
-1.0000000000000000E+20
 20
-1.0000000000000000E+20
 30
-1.0000000000000000E+20
  9
$PLIMMIN
 10
0.0
 20
0.0
  9
$PLIMMAX
 10
12.0
 20
9.0
  9
$UNITMODE
 70
     0
  9
$VISRETAIN
 70
     1
  9
$PLINEGEN
 70
     0
  9
$PSLTSCALE
 70
     1
  0
ENDSEC
  0
SECTION
  2
TABLES
  0
TABLE
  2
VPORT
 70
     1
  0
VPORT
  2
*ACTIVE
 70
     0
 10
0.0
 20
0.0
 11
1.0
 21
1.0
 12
228.7028441275014927
 22
48.9583504740727093
 13
0.0
 23
0.0
 14
1.0
 24
1.0
 15
0.0
 25
0.0
 16
0.0
 26
0.0
 36
75.4143529876733965
 17
4400.28759765625
 27
106.4441413879393963
 37
0.0
 40
29.7843134148673307
 41
2.498684210526315
 42
50.0
 43
0.0
 44
0.0
 50
0.0
 51
0.0
 71
     0
 72
   100
 73
     1
 74
     1
 75
     0
 76
     0
 77
     0
 78
     0
  0
ENDTAB
  0
TABLE
  2
LTYPE
 70
     2
  0
LTYPE
  2
CONTINUOUS
 70
     0
  3
Solid line
 72
    65
 73
     0
 40
0.0
  0
LTYPE
  2
PHANTOM2
 70
     0
  3
___ _ _ ___ _ _ ___ _ _ ___ _ _
 72
    65
 73
     6
 40
1.25
 49
0.625
 49
-0.125
 49
0.125
 49
-0.125
 49
0.125
 49
-0.125
  0
ENDTAB
  0
TABLE
  2
LAYER
 70
     2
  0
LAYER
  2
0
 70
     0
 62
   255
  6
CONTINUOUS
  0
LAYER
  2
DEFPOINTS
 70
     0
 62
     7
  6
CONTINUOUS
  0
ENDTAB
  0
TABLE
  2
STYLE
 70
     1
  0
STYLE
  2
STANDARD
 70
     0
 40
0.0
 41
0.8
 50
0.0
 71
     0
 42
0.2
  3
txt
  4

  0
ENDTAB
  0
TABLE
  2
VIEW
 70
     0
  0
ENDTAB
  0
TABLE
  2
UCS
 70
     0
  0
ENDTAB
  0
TABLE
  2
APPID
 70
    10
  0
APPID
  2
ACAD
 70
     0
  0
APPID
  2
ACAD_MLEADERVER
 70
     0
  0
APPID
  2
ACAD_EXEMPT_FROM_CAD_STANDARDS
 70
     0
  0
APPID
  2
ACAD_NAV_VCDISPLAY
 70
     0
  0
APPID
  2
ACAECLAYERSTANDARD
 70
     0
  0
APPID
  2
ACCMTRANSPARENCY
 70
     0
  0
APPID
  2
ACAD_DSTYLE_DIMJAG
 70
     0
  0
APPID
  2
ACAD_DSTYLE_DIMTALN
 70
     0
  0
APPID
  2
ACDBATTR
 70
     0
  0
APPID
  2
DCO15
 70
     0
  0
ENDTAB
  0
TABLE
  2
DIMSTYLE
 70
     1
  0
DIMSTYLE
  2
STANDARD
 70
     0
  3

  4

  5

  6

  7

 40
1.0
 41
0.1875
 42
0.0625
 43
0.38
 44
0.125
 45
0.0
 46
0.0
 47
0.01
 48
0.01
140
0.15625
141
0.09
142
0.0
143
25.3999999999999986
144
1.0
145
0.0
146
1.0
147
0.09
 71
     1
 72
     0
 73
     1
 74
     1
 75
     0
 76
     0
 77
     0
 78
     4
170
     0
171
     2
172
     0
173
     0
174
     0
175
     0
176
     0
177
     0
178
     0
  0
ENDTAB
  0
ENDSEC
  0
SECTION
  2
BLOCKS
  0
BLOCK
  8
0
  2
$MODEL_SPACE
 70
     0
 10
0.0
 20
0.0
 30
0.0
  3
$MODEL_SPACE
  1

  0
ENDBLK
  5
21
  8
0
  0
BLOCK
 67
     1
  8
0
  2
$PAPER_SPACE
 70
     0
 10
0.0
 20
0.0
 30
0.0
  3
$PAPER_SPACE
  1

  0
ENDBLK
  5
1D
 67
     1
  8
0
  0
BLOCK
  8
0
  2
_FILLED
 70
     0
 10
0.0
 20
0.0
 30
0.0
  3
_FILLED
  1

  0
SOLID
  5
CE96
  8
0
  6
BYBLOCK
 62
     0
 10
0.0
 20
0.0
 30
0.0
 11
-1.0
 21
0.1666666667
 31
0.0
 12
-1.0
 22
-0.1666666667
 32
0.0
 13
-1.0
 23
-0.1666666667
 33
0.0
  0
ENDBLK
  5
CE97
  8
0
  6
BYBLOCK
 62
     0
  0
ENDSEC
  0
SECTION
  2
ENTITIES
  0
ATTDEF
  5
9852
  8
DEFPOINTS
 10
4629.2404776016874166
 20
140.6404075566323968
 30
0.0
 40
0.001
  1
K-30731K-S
  3

  2
MODELNUMBER
 70
     0
1001
ACDBATTR
1070
     0
1070
     1
  0
ATTDEF
  5
9853
  8
DEFPOINTS
 10
4629.2404776016874166
 20
140.6387408899657032
 30
0.0
 40
0.001
  1
HARKEN
  3

  2
TRADENAME
 70
     0
1001
ACDBATTR
1070
     0
1070
     1
  0
ATTDEF
  5
9854
  8
DEFPOINTS
 10
4629.2404776016874166
 20
140.6370742232990096
 30
0.0
 40
0.001
  1
TOILET
  3

  2
PRODUCT
 70
     0
1001
ACDBATTR
1070
     0
1070
     1
  0
LINE
  5
E9A6
  8
0
 10
4623.5821799423911216
 20
140.6420440697615106
 30
0.0
 11
4634.9183114767902225
 21
140.6420440697615106
 31
0.0
  0
LINE
  5
E9A7
  8
0
 10
4623.5821799423911216
 20
141.5105961856453973
 30
0.0
 11
4623.5821799423911216
 21
140.6420440697615106
 31
0.0
  0
LINE
  5
E9A8
  8
0
 10
4624.3662827751913937
 20
143.0558273900618076
 30
0.0
 11
4624.3662827751913937
 21
143.9589106033845951
 31
0.0
  0
ARC
  5
E9A9
  8
0
 10
4622.587087956853793
 20
142.7546507926419963
 30
0.0
 40
1.5250845541834801
 50
313.8500179301555022
 51
355.1146672601490764
  0
ARC
  5
E9AA
  8
0
 10
4624.0487290485807534
 20
143.0568762426379976
 30
0.0
 40
0.3175554587396284
 50
299.7955180875979977
 51
359.8107576690213136
  0
ARC
  5
E9AB
  8
0
 10
4624.3059055024095869
 20
142.6077393765633019
 30
0.0
 40
0.2
 50
119.7955180875979977
 51
175.1146672601491048
  0
ARC
  5
E9AC
  8
0
 10
4623.7821799423909397
 20
141.5105961856453973
 30
0.0
 40
0.2
 50
133.8500179301560138
 51
179.9999999999992042
  0
ARC
  5
E9AD
  8
0
 10
4531.1595483893388518
 20
141.3802207902267014
 30
0.0
 40
93.2423990254821149
 50
1.5847606342657701
 51
3.3691412571175241
  0
ARC
  5
E9AE
  8
0
 10
4585.3200691714037021
 20
144.5686764622857936
 30
0.0
 40
38.9881064675919617
 50
3.3691412571175241
 51
8.0943921985104321
  0
ARC
  5
E9AF
  8
0
 10
4550.095680106483087
 20
139.5590208751704893
 30
0.0
 40
74.5669517846951351
 50
8.0943921985104321
 51
10.8576194997150797
  0
ARC
  5
E9B0
  8
0
 10
4598.5961448323414515
 20
148.8615384188645976
 30
0.0
 40
25.1824206917022195
 50
10.8576194997150797
 51
13.1370661711066106
  0
ARC
  5
E9B1
  8
0
 10
4623.0029515259502659
 20
154.5578272144288974
 30
0.0
 40
0.119700986495809
 50
13.1370661711073993
 51
85.8197237766863594
  0
LINE
  5
E9B2
  8
0
 10
4622.9162944619165501
 20
154.6774702287615071
 30
0.0
 11
4635.5841969572657035
 21
154.6774702287615071
 31
0.0
  0
LINE
  5
E9B3
  8
0
 10
4622.311497713449171
 20
156.3900686539616061
 30
0.0
 11
4636.1889937057330826
 21
156.3900686539616061
 31
0.0
  0
ARC
  5
E9B4
  8
0
 10
4622.8962555974721909
 20
156.2523578149937009
 30
0.0
 40
0.7880660868544606
 50
186.0802919617754014
 51
218.1666355986631913
  0
ARC
  5
E9B5
  8
0
 10
4620.7738687632727306
 20
154.4768630397257994
 30
0.0
 40
1.9795582107652909
 50
10.5912952270661602
 51
40.610040241430049
  0
ARC
  5
E9B6
  8
0
 10
4622.9162944619165501
 20
154.8774702287614957
 30
0.0
 40
0.2
 50
190.5912952270660981
 51
270.0
  0
ARC
  5
E9B7
  8
0
 10
4622.311497713449171
 20
156.1900686539615037
 30
0.0
 40
0.2
 50
90.0
 51
186.0802919617754014
  0
LINE
  5
E9B8
  8
0
 10
4622.0927785051862884
 20
156.5805611001615034
 30
0.0
 11
4636.4077129139950557
 21
156.5805611001615034
 31
0.0
  0
LINE
  5
E9B9
  8
0
 10
4622.2558113713275816
 20
157.3140214987220986
 30
0.0
 11
4636.2446800478537625
 21
157.3140214987220986
 31
0.0
  0
ARC
  5
E9BA
  8
0
 10
4627.0550760357591571
 20
128.0196921486935935
 30
0.0
 40
29.5832239270090582
 50
98.0138024762344742
 51
99.1463796019907733
  0
ARC
  5
E9BB
  8
0
 10
4622.4426600053893708
 20
156.6674558046740913
 30
0.0
 40
0.5665262491868575
 50
99.1463796019907733
 51
113.488132053838001
  0
ARC
  5
E9BC
  8
0
 10
4622.3170370339257715
 20
156.9565325898493882
 30
0.0
 40
0.2513334214030686
 50
113.488132053838001
 51
137.1292664093215024
  0
ARC
  5
E9BD
  8
0
 10
4622.5946194358903085
 20
156.8144347652932993
 30
0.0
 40
0.5579151060948876
 50
145.8624508258299102
 51
169.3991346425397069
  0
ARC
  5
E9BE
  8
0
 10
4623.3376890882336738
 20
156.6602520109699128
 30
0.0
 40
1.316750642125043
 50
168.7528851876600129
 51
172.116509619370504
  0
ARC
  5
E9BF
  8
0
 10
4624.1535677329557075
 20
156.6064807330475901
 30
0.0
 40
2.1330998931203631
 50
173.6918550366060003
 51
178.7246064921189088
  0
ARC
  5
E9C0
  8
0
 10
4622.0927785051862884
 20
156.6523611001614995
 30
0.0
 40
0.0718
 50
178.7246064921189088
 51
270.0
  0
ARC
  5
E9C1
  8
0
 10
4625.3703778004137348
 20
156.3226692686870081
 30
0.0
 40
0.5722012528432668
 50
153.2113143749988922
 51
169.2082922871109929
  0
ARC
  5
E9C2
  8
0
 10
4624.7526280706033504
 20
156.4404186757008119
 30
0.0
 40
0.0566704761553678
 50
297.3183786492095919
 51
349.2082922871110213
  0
ARC
  5
E9C3
  8
0
 10
4623.5503765347566514
 20
156.3143827771590963
 30
0.0
 40
0.4674121228803637
 50
13.6238647870242193
 51
34.7134457141863706
  0
ARC
  5
E9C4
  8
0
 10
4624.053765393084177
 20
156.4363873238256133
 30
0.0
 40
0.0505506673815979
 50
193.6238647870241891
 51
246.388458297411205
  0
ARC
  5
E9C5
  8
0
 10
4623.9091854492571656
 20
156.3390061831275943
 30
0.0
 40
0.5661065505886799
 50
154.741992137641688
 51
166.0405999257791052
  0
ARC
  5
E9C6
  8
0
 10
4623.3028113298587414
 20
156.4897359229833
 30
0.0
 40
0.0587206472463111
 50
276.1613049998874203
 51
346.0405999257798726
  0
ARC
  5
E9C7
  8
0
 10
4622.7845445717066468
 20
479.4385467573794131
 30
0.0
 40
323.0076182463769214
 50
269.9687769691685162
 51
270.093049229635028
  0
ARC
  5
E9C8
  8
0
 10
4622.6159936405811095
 20
156.5008842833302083
 30
0.0
 40
0.0703058189127317
 50
207.0190912945782884
 51
263.9005211989132249
  0
ARC
  5
E9C9
  8
0
 10
4622.169167560011374
 20
156.2730274538380115
 30
0.0
 40
0.4312639977870023
 50
27.0190912945782991
 51
45.4875682435223396
  0
LINE
  5
E9CA
  8
0
 10
4623.4961537226963628
 20
156.5805611001615034
 30
0.0
 11
4623.4961537226963628
 21
156.3900686539616061
 31
0.0
  0
LINE
  5
E9CB
  8
0
 10
4623.5816362808800477
 20
156.5805611001615034
 30
0.0
 11
4623.5816362808800477
 21
156.3900686539616061
 31
0.0
  0
LINE
  5
E9CC
  8
0
 10
4623.7649037227693043
 20
156.5805611001615034
 30
0.0
 11
4623.7649037227693043
 21
156.3900686539616061
 31
0.0
  0
LINE
  5
E9CD
  8
0
 10
4625.4584625244424387
 20
158.4425452732616009
 30
0.0
 11
4633.0420288947398149
 21
158.4425452732616009
 31
0.0
  0
LINE
  5
E9CE
  8
0
 10
4636.1975978931586724
 20
158.4425452732616009
 30
0.0
 11
4636.2037921741748505
 21
158.4425452732616009
 31
0.0
  0
ARC
  5
E9CF
  8
0
 10
4626.3963862174368842
 20
136.769048451784812
 30
0.0
 40
21.6937817202175616
 50
92.4779370306593052
 51
94.6950233765242757
  0
ARC
  5
E9D0
  8
0
 10
4624.9785894848300813
 20
154.032405710733201
 30
0.0
 40
4.3723022388026234
 50
94.6950233765242757
 51
104.4201637267764937
  0
ARC
  5
E9D1
  8
0
 10
4625.9151273436937117
 20
150.3901534239610953
 30
0.0
 40
8.1330341996823492
 50
104.4201637267764937
 51
107.5073671559895985
  0
ARC
  5
E9D2
  8
0
 10
4613.5636224953432247
 20
192.9998423526967031
 30
0.0
 40
36.2334796466263072
 50
284.6368587157448928
 51
285.8644246368775157
  0
ARC
  5
E9D3
  8
0
 10
4623.4580921222468533
 20
155.2398362632891065
 30
0.0
 40
2.8015251605282789
 50
105.285540579764799
 51
109.7648023658468048
  0
ARC
  5
E9D4
  8
0
 10
4622.9280844810009512
 20
156.8462501162098022
 30
0.0
 40
1.1114088017968731
 50
112.0564267489411066
 51
121.0724747199039939
  0
ARC
  5
E9D5
  8
0
 10
4622.5550067880012648
 20
157.5172494723913132
 30
0.0
 40
0.3451738290631277
 50
125.5206529496276033
 51
148.1203218343349022
  0
ARC
  5
E9D6
  8
0
 10
4622.7184156869689104
 20
157.4194003021466131
 30
0.0
 40
0.5356213976185045
 50
148.4639999442632927
 51
184.1516159186948016
  0
ARC
  5
E9D7
  8
0
 10
4622.2558113713275816
 20
157.3858214987220947
 30
0.0
 40
0.0718
 50
184.1516159186988943
 51
270.0
  0
LINE
  5
E9D8
  8
0
 10
4622.3405120869883831
 20
157.3140214987220986
 30
0.0
 11
4622.3434718409471316
 21
157.2252314755781128
 31
0.0
  0
ARC
  5
E9D9
  8
0
 10
4624.696515288494993
 20
157.6030639074251951
 30
0.0
 40
0.5003452471534372
 50
215.2879472363503908
 51
239.4995336337227911
  0
ARC
  5
E9DA
  8
0
 10
4624.2971754287409567
 20
157.5578286496678118
 30
0.0
 40
0.4883694954424425
 50
307.4588037018622231
 51
330.0511399054049093
  0
ARC
  5
E9DB
  8
0
 10
4639.8668989607558615
 20
-5222.1818214663344406
 30
0.0
 40
5379.3670011564518063
 50
90.1130782881325558
 51
90.1522258753594627
  0
ARC
  5
E9DC
  8
0
 10
4625.380565174142248
 20
230.2672550045404876
 30
0.0
 40
73.101319281059645
 50
268.988757372114776
 51
270.1522258753594201
  0
ARC
  5
E9DD
  8
0
 10
4623.705679030014835
 20
133.7985572558982881
 30
0.0
 40
23.3819296516642012
 50
89.0571535308790914
 51
93.8570512954287182
  0
ARC
  5
E9DE
  8
0
 10
4625.4650957234161979
 20
-1121.9001094190209642
 30
0.0
 40
1279.5584605487090357
 50
89.8305106884833577
 51
90.0636605822433722
  0
ARC
  5
E9DF
  8
0
 10
4623.9984249197250392
 20
198.1319961040532007
 30
0.0
 40
40.474459773707018
 50
267.5370398985580778
 51
270.0636605822434149
  0
LINE
  5
E9E0
  8
0
 10
4622.3251536341958854
 20
157.7747616079423096
 30
0.0
 11
4621.8159233674723509
 21
168.9146520563741092
 31
0.0
  0
ARC
  5
E9E1
  8
0
 10
4620.1111027137021665
 20
171.4845415772703916
 30
0.0
 40
2.0142541744810432
 50
314.8854271499064907
 51
316.8108897758032754
  0
ARC
  5
E9E2
  8
0
 10
4621.3903910704011651
 20
170.2001266442902079
 30
0.0
 40
0.2014385689521169
 50
285.4750910051665187
 51
314.8854271499064907
  0
ARC
  5
E9E3
  8
0
 10
4621.563384646963641
 20
169.5752772149259044
 30
0.0
 40
0.4469159535959579
 50
105.4750910051665045
 51
119.2928761002867049
  0
ARC
  5
E9E4
  8
0
 10
4621.4557233733003159
 20
169.7330684501075098
 30
0.0
 40
0.2571678541539634
 50
115.5714759100759039
 51
141.9712265605004973
  0
ARC
  5
E9E5
  8
0
 10
4621.4684043731458587
 20
169.7400732750062105
 30
0.0
 40
0.2631791190935331
 50
144.8744801888205131
 51
207.4423225950586129
  0
ARC
  5
E9E6
  8
0
 10
4621.9222927261789664
 20
170.0836489814616925
 30
0.0
 40
0.8298734043480142
 50
214.0669764135751905
 51
228.5779858555796125
  0
ARC
  5
E9E7
  8
0
 10
4620.3224168847982583
 20
168.270351011866893
 30
0.0
 40
1.5883185306262231
 50
39.509252927702768
 51
48.5779858555796267
  0
ARC
  5
E9E8
  8
0
 10
4621.163160558276104
 20
168.9636346818491859
 30
0.0
 40
0.4985973866828852
 50
15.5950107413999302
 51
39.5092529277021427
  0
ARC
  5
E9E9
  8
0
 10
4620.1158424945333536
 20
168.6713165307969007
 30
0.0
 40
1.5859450900758341
 50
12.1694534882171297
 51
15.5950107413999302
  0
ARC
  5
E9EA
  8
0
 10
4621.7790240467111289
 20
169.0299810638958888
 30
0.0
 40
0.1154699453594405
 50
192.1694534882171013
 51
256.6809557882668855
  0
ARC
  5
E9EB
  8
0
 10
4621.7371493000391638
 20
169.9525347685049042
 30
0.0
 40
0.2198511701204631
 50
93.0340775530259663
 51
135.7412700480768137
  0
ARC
  5
E9EC
  8
0
 10
4621.82982681086105
 20
167.9495622555180034
 30
0.0
 40
0.3500387082945443
 50
87.6709209837876955
 51
102.4444938524606954
  0
ARC
  5
E9ED
  8
0
 10
4621.7872002044223336
 20
168.142723827764911
 30
0.0
 40
0.1522296575172294
 50
102.4444938524606954
 51
134.5846902453914993
  0
ARC
  5
E9EE
  8
0
 10
4621.7969427953730701
 20
168.1328389642756065
 30
0.0
 40
0.1661087282576443
 50
134.5846902453914993
 51
162.6261197649191956
  0
ARC
  5
E9EF
  8
0
 10
4628.5702071873029126
 20
166.0136170947189953
 30
0.0
 40
7.2631652910454703
 50
162.6261197649191956
 51
163.6027205156069897
  0
ARC
  5
E9F0
  8
0
 10
4621.2158593324356843
 20
168.1777399353846931
 30
0.0
 40
0.4029849840194843
 50
327.0042291437649169
 51
343.6027205156070181
  0
ARC
  5
E9F1
  8
0
 10
4621.3277340210097464
 20
168.1050994028665002
 30
0.0
 40
0.2695961055179053
 50
308.8208929255209227
 51
327.0042291437649169
  0
ARC
  5
E9F2
  8
0
 10
4621.4652498925815962
 20
167.9341918104578895
 30
0.0
 40
0.0502333464237784
 50
277.4248809074201176
 51
308.8208929255209227
  0
ARC
  5
E9F3
  8
0
 10
4621.4611565793056798
 20
167.9656017779672084
 30
0.0
 40
0.0819089091262663
 50
236.8021501602206058
 51
277.4248809074201176
  0
ARC
  5
E9F4
  8
0
 10
4621.4524672767311131
 20
167.9523220441413969
 30
0.0
 40
0.0660389592298233
 50
200.1685624076764896
 51
236.8021501602206058
  0
ARC
  5
E9F5
  8
0
 10
4621.36189966960319
 20
167.9163128378725105
 30
0.0
 40
0.0314960629842407
 50
24.858114143515369
 51
91.5918257691707538
  0
ARC
  5
E9F6
  8
0
 10
4622.7553103069712961
 20
117.3183101256582006
 30
0.0
 40
50.6486815988220229
 50
91.5774699230989455
 51
91.6348932157905551
  0
ARC
  5
E9F7
  8
0
 10
4621.3110255864394276
 20
167.9188477859252089
 30
0.0
 40
0.0275361514069533
 50
91.5447298874122453
 51
180.0198956165795039
  0
ARC
  5
E9F8
  8
0
 10
5503.6388813957928505
 20
192.4746443497512871
 30
0.0
 40
882.6970178570775261
 50
181.5941207013586904
 51
181.6345197693227931
  0
ARC
  5
E9F9
  8
0
 10
4621.3282037481731095
 20
167.2960318034566001
 30
0.0
 40
0.0271889315222718
 50
178.5950006005697048
 51
270.8528687888810964
  0
ARC
  5
E9FA
  8
0
 10
4621.2998450766090173
 20
169.2010284520179937
 30
0.0
 40
1.932396648618528
 50
270.8528687888810964
 51
272.381867477479318
  0
ARC
  5
E9FB
  8
0
 10
4621.3788195514371182
 20
167.3023933611154064
 30
0.0
 40
0.0321197803487053
 50
272.381867477479318
 51
337.6698560385079873
  0
ARC
  5
E9FC
  8
0
 10
5453.8922083678598938
 20
191.1160479578335014
 30
0.0
 40
832.8245584511814741
 50
181.5953660046928064
 51
181.6393697692782041
  0
ARC
  5
E9FD
  8
0
 10
4621.8426561852165833
 20
167.8483085558233938
 30
0.0
 40
0.9031245239426317
 50
269.2153715636389961
 51
274.012475490722295
  0
ARC
  5
E9FE
  8
0
 10
4621.8329991103610155
 20
167.1431658191654037
 30
0.0
 40
0.1979156625714791
 50
249.8823306949992968
 51
269.2153715636389961
  0
ARC
  5
E9FF
  8
0
 10
4621.8189267004026988
 20
167.1047478665163055
 30
0.0
 40
0.1570014620080673
 50
209.3693684788219969
 51
249.8823306949992968
  0
ARC
  5
EA00
  8
0
 10
4623.0951121947600768
 20
167.6543901210027059
 30
0.0
 40
1.545727314947229
 50
198.4330558763493002
 51
203.9163525727690001
  0
ARC
  5
EA01
  8
0
 10
4621.2432949782260039
 20
167.0267564929712023
 30
0.0
 40
0.4096551039938827
 50
19.8170158737893587
 51
44.3303065647461096
  0
ARC
  5
EA02
  8
0
 10
4621.4546165621095497
 20
167.2273264576515999
 30
0.0
 40
0.1184092671462787
 50
46.3619856216353128
 51
65.5089564109523224
  0
ARC
  5
EA03
  8
0
 10
4621.4771782945599625
 20
167.2727002755881927
 30
0.0
 40
0.0677867964453312
 50
66.9646109915307761
 51
121.0312642834574035
  0
ARC
  5
EA04
  8
0
 10
4621.4827313547430094
 20
167.2628762274624989
 30
0.0
 40
0.0790681135583038
 50
120.8095151742442965
 51
159.7912168531115071
  0
ARC
  5
EA05
  8
0
 10
4620.8379407112743138
 20
168.1078409366506889
 30
0.0
 40
0.0958894030395894
 50
88.4034431288337146
 51
130.7031837077159082
  0
ARC
  5
EA06
  8
0
 10
4621.0804733552104153
 20
167.8259024151959977
 30
0.0
 40
0.4677918274127814
 50
130.7031837077159082
 51
135.6484385151576078
  0
ARC
  5
EA07
  8
0
 10
4620.5386685345165461
 20
168.3555803332241965
 30
0.0
 40
0.2899094069627119
 50
295.8162799364935154
 51
315.6484385151575793
  0
ARC
  5
EA08
  8
0
 10
4620.6726382628521606
 20
168.0722397981676011
 30
0.0
 40
0.0236597452188978
 50
109.0387315467118015
 51
181.5963948037289128
  0
LINE
  5
EA09
  8
0
 10
4620.6489877006906681
 20
168.0715806674600969
 30
0.0
 11
4620.6503879298907123
 21
168.0219942380614953
 31
0.0
  0
ARC
  5
EA0A
  8
0
 10
4620.6770115528688621
 20
168.0227460400112989
 30
0.0
 40
0.026634235611408
 50
181.6174971753540035
 51
253.0388278523683994
  0
ARC
  5
EA0B
  8
0
 10
4620.6412747950889752
 20
167.9055724306770117
 30
0.0
 40
0.0958678891906616
 50
359.6002393201483756
 51
73.038827852368442
  0
ARC
  5
EA0C
  8
0
 10
4620.7025034877160579
 20
167.9051452225791934
 30
0.0
 40
0.0346377062127277
 50
303.90001544578422
 51
359.600239320149285
  0
ARC
  5
EA0D
  8
0
 10
4620.8577554674857311
 20
167.5946606917873112
 30
0.0
 40
0.3128134834497072
 50
115.7566349844341005
 51
141.639652016377994
  0
ARC
  5
EA0E
  8
0
 10
4620.6006298346746917
 20
167.8012741852693921
 30
0.0
 40
0.0172035669039979
 50
279.7527625513387193
 51
313.496271555025487
  0
ARC
  5
EA0F
  8
0
 10
4623.1602546276972134
 20
75.9623606636559145
 30
0.0
 40
91.8575464881086248
 50
91.5949440285921668
 51
91.624842573615993
  0
ARC
  5
EA10
  8
0
 10
4620.5560736268744222
 20
167.7672308235007961
 30
0.0
 40
0.0157480315973806
 50
91.6173682986774764
 51
160.7451940086727973
  0
ARC
  5
EA11
  8
0
 10
4621.0359281965111222
 20
167.5996113837695987
 30
0.0
 40
0.5240360253351103
 50
160.7450327854911905
 51
176.988300292723892
  0
ARC
  5
EA12
  8
0
 10
4620.5245211955079867
 20
167.6265427278815139
 30
0.0
 40
0.011920422429817
 50
177.107925191130505
 51
271.5024545736690129
  0
ARC
  5
EA13
  8
0
 10
4620.5293953813561529
 20
167.6387846611457064
 30
0.0
 40
0.024585156479719
 50
259.3071334666809094
 51
271.3235259931742007
  0
ARC
  5
EA14
  8
0
 10
4620.5286167580479741
 20
167.6006748939927888
 30
0.0
 40
0.013597999214376
 50
3.2150016741395322
 51
84.3172034109080215
  0
ARC
  5
EA15
  8
0
 10
4623.63695953757815
 20
167.6734549737996076
 30
0.0
 40
3.095604018037569
 50
181.3330739445422068
 51
181.9272372734791077
  0
ARC
  5
EA16
  8
0
 10
4620.5296450950663711
 20
167.5698447837224876
 30
0.0
 40
0.0134706088880509
 50
275.3531629038739084
 51
357.8903462118943821
  0
ARC
  5
EA17
  8
0
 10
4620.5338660913075728
 20
167.5108046212419026
 30
0.0
 40
0.0457244907803953
 50
93.7170225535701746
 51
102.4761098690127028
  0
ARC
  5
EA18
  8
0
 10
4620.5268988752432051
 20
167.5438462231751089
 30
0.0
 40
0.0119626842547584
 50
104.0825748912245956
 51
186.0515367417139032
  0
ARC
  5
EA19
  8
0
 10
4621.0359470994244475
 20
167.5996057701416078
 30
0.0
 40
0.5240555947836149
 50
186.2465238111350061
 51
202.4895664208559083
  0
ARC
  5
EA1A
  8
0
 10
4620.5662967230500726
 20
167.4051703826563937
 30
0.0
 40
0.0157480147353987
 50
202.4894943173495108
 51
271.6173869955566147
  0
ARC
  5
EA1B
  8
0
 10
4620.9567377027469774
 20
167.7442621363011881
 30
0.0
 40
0.4919031595530151
 50
225.9388434995744888
 51
239.6803316362515091
  0
ARC
  5
EA1C
  8
0
 10
4620.6895528563791231
 20
167.2849858966135912
 30
0.0
 40
0.039454326242907
 50
1.256948514312219
 51
61.443208167101119
  0
ARC
  5
EA1D
  8
0
 10
4620.3341791544617081
 20
167.2514155900742026
 30
0.0
 40
0.396317421009599
 50
348.852492264276691
 51
4.9846814071733236
  0
ARC
  5
EA1E
  8
0
 10
4620.6757194020428869
 20
167.1958844826328061
 30
0.0
 40
0.051789002901382
 50
274.7815095986546226
 51
335.9677147520225731
  0
ARC
  5
EA1F
  8
0
 10
4620.6814077683293362
 20
167.1281238909153899
 30
0.0
 40
0.0162099428079173
 50
94.8532646656332901
 51
180.9734852549181028
  0
ARC
  5
EA20
  8
0
 10
4537.542510430657785
 20
164.7691923075005889
 30
0.0
 40
83.156147143099389
 50
1.5938902545392351
 51
1.625365970922628
  0
ARC
  5
EA21
  8
0
 10
4620.650797075056289
 20
167.0821717639622079
 30
0.0
 40
0.0156862915288839
 50
286.3278180628229848
 51
0.0457141427043988
  0
ARC
  5
EA22
  8
0
 10
4620.7143271299046319
 20
166.8752745015177084
 30
0.0
 40
0.2007465125964689
 50
107.1276405666999949
 51
145.778753353557704
  0
ARC
  5
EA23
  8
0
 10
4620.5780199749533494
 20
166.9803205011598095
 30
0.0
 40
0.030705420309745
 50
165.1840375448950908
 51
203.3284334373186937
  0
ARC
  5
EA24
  8
0
 10
4620.1022496565810798
 20
166.6051721906717944
 30
0.0
 40
0.5762676469403184
 50
25.5136510913369996
 51
39.0424807772608204
  0
ARC
  5
EA25
  8
0
 10
4619.9357933753808538
 20
166.5800314500737045
 30
0.0
 40
0.738947261899379
 50
350.0405124025327268
 51
21.7109258957543112
  0
ARC
  5
EA26
  8
0
 10
4522.0318568372604204
 20
180.6427088836061046
 30
0.0
 40
99.6473353529244434
 50
351.4724332840560805
 51
351.8128460699667244
  0
ARC
  5
EA27
  8
0
 10
4621.6042357720743894
 20
165.7241781677996073
 30
0.0
 40
1.0364962648956999
 50
172.1088732380474937
 51
198.8356535685566087
  0
ARC
  5
EA28
  8
0
 10
4620.9727339239407229
 20
165.5039312191530883
 30
0.0
 40
0.3677328851273498
 50
198.1237385915964921
 51
236.1028116298300006
  0
ARC
  5
EA29
  8
0
 10
4620.9110900114237666
 20
165.4503570885306942
 30
0.0
 40
0.2896684755959155
 50
240.3174024789385044
 51
273.0542830739075271
  0
ARC
  5
EA2A
  8
0
 10
4620.8486884368148822
 20
168.1081444134744061
 30
0.0
 40
0.0958894030395894
 50
52.5316071750488689
 51
94.8313477538981431
  0
ARC
  5
EA2B
  8
0
 10
4620.6224513840770669
 20
167.8129695344231038
 30
0.0
 40
0.4677918274127814
 50
47.586352367586592
 51
52.5316071750488689
  0
ARC
  5
EA2C
  8
0
 10
4621.1335043985200173
 20
168.3723763425718971
 30
0.0
 40
0.2899094069627119
 50
227.5863523675866134
 51
247.4185109462918035
  0
ARC
  5
EA2D
  8
0
 10
4621.015736398891022
 20
168.0819276462763128
 30
0.0
 40
0.0236597452188978
 50
1.6383960790319589
 51
74.1960593360895047
  0
LINE
  5
EA2E
  8
0
 10
4621.0393864715142627
 20
168.0826041140961138
 30
0.0
 11
4621.0407865246233996
 21
168.0330176797253898
 31
0.0
  0
ARC
  5
EA2F
  8
0
 10
4621.0141628989758829
 20
168.0322659723211132
 30
0.0
 40
0.026634235611408
 50
290.1959630303477979
 51
1.617293707406646
  0
ARC
  5
EA30
  8
0
 10
4621.0564545615197858
 20
167.9172956028324109
 30
0.0
 40
0.0958678891906616
 50
110.1959630303476985
 51
183.634551562612188
  0
ARC
  5
EA31
  8
0
 10
4620.9953475319189238
 20
167.9134140772355863
 30
0.0
 40
0.0346377062127277
 50
183.6345515626113922
 51
239.3347754369875986
  0
ARC
  5
EA32
  8
0
 10
4620.8578628651639519
 20
167.5946637243085036
 30
0.0
 40
0.3128134834497072
 50
41.5951388663891706
 51
67.4781558983118828
  0
ARC
  5
EA33
  8
0
 10
4621.1029200783923443
 20
167.8154570416490969
 30
0.0
 40
0.0172035669039979
 50
229.7385193277405051
 51
263.4820283314347762
  0
ARC
  5
EA34
  8
0
 10
4623.7296380517673242
 20
75.9784379883294889
 30
0.0
 40
91.8575464881086248
 50
91.5239482199825432
 51
91.6398468541650857
  0
ARC
  5
EA35
  8
0
 10
4590.0802868045557261
 20
1267.235849890424106
 30
0.0
 40
1100.2687176677809475
 50
271.6161748023362748
 51
271.6258496584924274
  0
ARC
  5
EA36
  8
0
 10
4620.7505966649359834
 20
167.7384414603677101
 30
0.0
 40
0.4919031595530151
 50
303.5544592464954121
 51
317.2959473831610921
  0
ARC
  5
EA37
  8
0
 10
4621.043271732482026
 20
167.2949736359362873
 30
0.0
 40
0.039454326242907
 50
121.791582715672007
 51
181.9778423684469999
  0
ARC
  5
EA38
  8
0
 10
4621.3999735092611445
 20
167.2815097606330994
 30
0.0
 40
0.396317421009599
 50
178.2501094755847078
 51
194.3822986184794104
  0
ARC
  5
EA39
  8
0
 10
4621.0621109392614017
 20
167.2067947795125917
 30
0.0
 40
0.051789002901382
 50
207.2670761307329883
 51
268.4532812841420082
  0
ARC
  5
EA3A
  8
0
 10
4621.060255214969402
 20
167.1388211700140971
 30
0.0
 40
0.0162099428079173
 50
2.2613056278422219
 51
88.3815262171092542
  0
ARC
  5
EA3B
  8
0
 10
4704.1997952866086052
 20
169.4749901312175098
 30
0.0
 40
83.156147143099389
 50
181.6094249118374933
 51
181.640900628222596
  0
ARC
  5
EA3C
  8
0
 10
4621.0934101114944497
 20
167.0946695522551977
 30
0.0
 40
0.0156862915288839
 50
183.1890767400568905
 51
256.9069728199519886
  0
ARC
  5
EA3D
  8
0
 10
4621.0416560298262993
 20
166.884517083540004
 30
0.0
 40
0.2007465125964689
 50
37.4560375291990795
 51
76.1071503160335254
  0
ARC
  5
EA3E
  8
0
 10
4621.171818493660794
 20
166.9970872196352047
 30
0.0
 40
0.030705420309745
 50
339.9063574454391983
 51
18.0507533378726315
  0
ARC
  5
EA3F
  8
0
 10
4621.6679995398571918
 20
166.6493832937123045
 30
0.0
 40
0.5762676469403184
 50
144.1923101055060954
 51
157.7211397914190059
  0
ARC
  5
EA40
  8
0
 10
4621.835609239434234
 20
166.6336753658873135
 30
0.0
 40
0.738947261899379
 50
161.5238649870130985
 51
193.1942784802344022
  0
ARC
  5
EA41
  8
0
 10
4718.7900284777069828
 20
186.1984466763130115
 30
0.0
 40
99.6473353529244434
 50
191.4219448127986993
 51
191.7623575987028914
  0
ARC
  5
EA42
  8
0
 10
4620.2181190844348748
 20
165.6850392552836979
 30
0.0
 40
1.0364962648956999
 50
344.3991373142046086
 51
11.1259176447109809
  0
ARC
  5
EA43
  8
0
 10
4620.8610427935363987
 20
165.5007774663554017
 30
0.0
 40
0.3677328851273498
 50
307.1319792529016013
 51
345.1110522911586145
  0
ARC
  5
EA44
  8
0
 10
4620.9256115562111518
 20
165.4507671243351865
 30
0.0
 40
0.2896684755959155
 50
270.1805078088601135
 51
302.9173884038193023
  0
LINE
  5
EA45
  8
0
 10
4620.5667412104430696
 20
167.3894286419946127
 30
0.0
 11
4620.614655561789732
 21
167.3907815467113949
 31
0.0
  0
LINE
  5
EA46
  8
0
 10
4620.664920282570165
 20
168.0946053145758015
 30
0.0
 11
4621.0221800459257793
 21
168.1046930357236988
 31
0.0
  0
LINE
  5
EA47
  8
0
 10
4620.6692417184412989
 20
167.9972703225614907
 30
0.0
 11
4621.0233578913603196
 21
168.0072692801066978
 31
0.0
  0
LINE
  5
EA48
  8
0
 10
4620.7218225066890227
 20
167.876395506101403
 30
0.0
 11
4620.9776815764325875
 21
167.8836200390996964
 31
0.0
  0
LINE
  5
EA49
  8
0
 10
4620.5556291441416761
 20
167.7829725811629942
 30
0.0
 11
4620.5667412104976393
 21
167.3894286419960906
 31
0.0
  0
LINE
  5
EA4A
  8
0
 10
4620.6035440676905637
 20
167.7843192461614876
 30
0.0
 11
4620.614655561789732
 21
167.3907815467113949
 31
0.0
  0
LINE
  5
EA4B
  8
0
 10
4620.708413192691296
 20
167.3196403562614876
 30
0.0
 11
4621.0224859729905802
 21
167.3285086335006895
 31
0.0
  0
LINE
  5
EA4C
  8
0
 10
4620.6800363392412692
 20
167.1442757152115064
 30
0.0
 11
4621.0607130476200837
 21
167.1550246460330982
 31
0.0
  0
LINE
  5
EA4D
  8
0
 10
4620.6552070041907427
 20
167.0671181176614937
 30
0.0
 11
4621.0898566523701447
 21
167.0793910487228118
 31
0.0
  0
LINE
  5
EA4E
  8
0
 10
4621.0918018105076044
 20
167.8023289483572
 30
0.0
 11
4621.1120798801421188
 21
167.4048270069912121
 31
0.0
  0
LINE
  5
EA4F
  8
0
 10
4634.9183114767902225
 20
141.5105961856453973
 30
0.0
 11
4634.9183114767902225
 21
140.6420440697615106
 31
0.0
  0
LINE
  5
EA50
  8
0
 10
4634.1342086439908599
 20
143.0558273900618076
 30
0.0
 11
4634.1342086439908599
 21
143.9589106033845951
 31
0.0
  0
ARC
  5
EA51
  8
0
 10
4635.9134034623266416
 20
142.7546507926419963
 30
0.0
 40
1.5250845541834801
 50
184.8853327398508952
 51
226.1499820698444978
  0
ARC
  5
EA52
  8
0
 10
4634.4517623705996812
 20
143.0568762426379976
 30
0.0
 40
0.3175554587396284
 50
180.1892423309778906
 51
240.2044819124020023
  0
ARC
  5
EA53
  8
0
 10
4634.1945859167717572
 20
142.6077393765633019
 30
0.0
 40
0.2
 50
4.8853327398509343
 51
60.204481912401981
  0
ARC
  5
EA54
  8
0
 10
4634.7183114767913139
 20
141.5105961856453973
 30
0.0
 40
0.2
 50
0.0000000000008142
 51
46.149982069843972
  0
ARC
  5
EA55
  8
0
 10
4727.3409430298434017
 20
141.3802207902267014
 30
0.0
 40
93.2423990254821149
 50
176.6308587428825092
 51
178.4152393657342088
  0
ARC
  5
EA56
  8
0
 10
4673.180422247777642
 20
144.5686764622857936
 30
0.0
 40
38.9881064675919617
 50
171.9056078014895945
 51
176.6308587428825092
  0
ARC
  5
EA57
  8
0
 10
4708.4048113126982571
 20
139.5590208751704893
 30
0.0
 40
74.5669517846951351
 50
169.1423805002849008
 51
171.9056078014895945
  0
ARC
  5
EA58
  8
0
 10
4659.904346586840802
 20
148.8615384188645976
 30
0.0
 40
25.1824206917022195
 50
166.8629338288934036
 51
169.1423805002849008
  0
ARC
  5
EA59
  8
0
 10
4635.4975398932310782
 20
154.5578272144288974
 30
0.0
 40
0.119700986495809
 50
94.1802762233136264
 51
166.8629338288926078
  0
ARC
  5
EA5A
  8
0
 10
4635.6042358217109722
 20
156.2523578149937009
 30
0.0
 40
0.7880660868544606
 50
321.8333644013367802
 51
353.9197080382244849
  0
ARC
  5
EA5B
  8
0
 10
4637.7266226559086135
 20
154.4768630397257994
 30
0.0
 40
1.9795582107652909
 50
139.3899597585698871
 51
169.4087047729337883
  0
ARC
  5
EA5C
  8
0
 10
4635.5841969572657035
 20
154.8774702287614957
 30
0.0
 40
0.2
 50
270.0
 51
349.4087047729339019
  0
ARC
  5
EA5D
  8
0
 10
4636.1889937057330826
 20
156.1900686539615037
 30
0.0
 40
0.2
 50
353.9197080382244849
 51
90.0
  0
ARC
  5
EA5E
  8
0
 10
4631.4454153834230965
 20
128.0196921486935935
 30
0.0
 40
29.5832239270090582
 50
80.8536203980092552
 51
81.9861975237655116
  0
ARC
  5
EA5F
  8
0
 10
4636.0578314137928828
 20
156.6674558046740913
 30
0.0
 40
0.5665262491868575
 50
66.511867946161999
 51
80.8536203980092552
  0
ARC
  5
EA60
  8
0
 10
4636.1834543852555726
 20
156.9565325898493882
 30
0.0
 40
0.2513334214030686
 50
42.8707335906784905
 51
66.511867946161999
  0
ARC
  5
EA61
  8
0
 10
4635.9058719832919451
 20
156.8144347652932993
 30
0.0
 40
0.5579151060948876
 50
10.6008653574603198
 51
34.1375491741700969
  0
ARC
  5
EA62
  8
0
 10
4635.1628023309476703
 20
156.6602520109699128
 30
0.0
 40
1.316750642125043
 50
7.8834903806295316
 51
11.24711481233998
  0
ARC
  5
EA63
  8
0
 10
4634.3469236862256366
 20
156.6064807330475901
 30
0.0
 40
2.1330998931203631
 50
1.2753935078811141
 51
6.3081449633939402
  0
ARC
  5
EA64
  8
0
 10
4636.4077129139950557
 20
156.6523611001614995
 30
0.0
 40
0.0718
 50
270.0
 51
1.2753935078811141
  0
ARC
  5
EA65
  8
0
 10
4633.1301136187676093
 20
156.3226692686870081
 30
0.0
 40
0.5722012528432668
 50
10.7917077128889396
 51
26.788685625001019
  0
ARC
  5
EA66
  8
0
 10
4633.7478633485798127
 20
156.4404186757008119
 30
0.0
 40
0.0566704761553678
 50
190.7917077128888934
 51
242.6816213507904081
  0
ARC
  5
EA67
  8
0
 10
4634.9501148844246927
 20
156.3143827771590963
 30
0.0
 40
0.4674121228803637
 50
145.2865542858135939
 51
166.3761352129758109
  0
ARC
  5
EA68
  8
0
 10
4634.4467260260971671
 20
156.4363873238256133
 30
0.0
 40
0.0505506673815979
 50
293.611541702588795
 51
346.3761352129757825
  0
ARC
  5
EA69
  8
0
 10
4634.591305969925088
 20
156.3390061831275943
 30
0.0
 40
0.5661065505886799
 50
13.9594000742209001
 51
25.2580078623582693
  0
ARC
  5
EA6A
  8
0
 10
4635.1976800893253312
 20
156.4897359229833
 30
0.0
 40
0.0587206472463111
 50
193.959400074220099
 51
263.8386950001125797
  0
ARC
  5
EA6B
  8
0
 10
4635.7159468474774258
 20
479.4385467573794131
 30
0.0
 40
323.0076182463769214
 50
269.906950770364972
 51
270.031223030831427
  0
ARC
  5
EA6C
  8
0
 10
4635.8844977786002346
 20
156.5008842833302083
 30
0.0
 40
0.0703058189127317
 50
276.0994788010867751
 51
332.9809087054217116
  0
ARC
  5
EA6D
  8
0
 10
4636.3313238591699701
 20
156.2730274538380115
 30
0.0
 40
0.4312639977870023
 50
134.5124317564776106
 51
152.9809087054217116
  0
LINE
  5
EA6E
  8
0
 10
4635.0043376964868003
 20
156.5805611001615034
 30
0.0
 11
4635.0043376964868003
 21
156.3900686539616061
 31
0.0
  0
LINE
  5
EA6F
  8
0
 10
4634.9188551383022059
 20
156.5805611001615034
 30
0.0
 11
4634.9188551383022059
 21
156.3900686539616061
 31
0.0
  0
LINE
  5
EA70
  8
0
 10
4634.7355876964138588
 20
156.5805611001615034
 30
0.0
 11
4634.7355876964138588
 21
156.3900686539616061
 31
0.0
  0
ARC
  5
EA71
  8
0
 10
4632.1041052017453694
 20
136.769048451784812
 30
0.0
 40
21.6937817202175616
 50
85.3049766234757243
 51
87.5220629693406948
  0
ARC
  5
EA72
  8
0
 10
4633.5219019343521722
 20
154.032405710733201
 30
0.0
 40
4.3723022388026234
 50
75.5798362732234352
 51
85.3049766234757243
  0
ARC
  5
EA73
  8
0
 10
4632.5853640754876324
 20
150.3901534239610953
 30
0.0
 40
8.1330341996823492
 50
72.4926328440103731
 51
75.5798362732234352
  0
ARC
  5
EA74
  8
0
 10
4644.9368689238390289
 20
192.9998423526967031
 30
0.0
 40
36.2334796466263072
 50
254.135575363122598
 51
255.3631412842551072
  0
ARC
  5
EA75
  8
0
 10
4635.0423992969335814
 20
155.2398362632891065
 30
0.0
 40
2.8015251605282789
 50
70.2351976341531952
 51
74.7144594202351726
  0
ARC
  5
EA76
  8
0
 10
4635.5724069381813024
 20
156.8462501162098022
 30
0.0
 40
1.1114088017968731
 50
58.9275252800959777
 51
67.9435732510588792
  0
ARC
  5
EA77
  8
0
 10
4635.9454846311809888
 20
157.5172494723913132
 30
0.0
 40
0.3451738290631277
 50
31.8796781656650694
 51
54.4793470503723398
  0
ARC
  5
EA78
  8
0
 10
4635.7820757322142526
 20
157.4194003021466131
 30
0.0
 40
0.5356213976185045
 50
355.8483840813050847
 51
31.5360000557366504
  0
ARC
  5
EA79
  8
0
 10
4636.2446800478537625
 20
157.3858214987220947
 30
0.0
 40
0.0718
 50
270.0
 51
355.8483840813011057
  0
LINE
  5
EA7A
  8
0
 10
4636.1599793321938705
 20
157.3140214987220986
 30
0.0
 11
4636.1570195782342125
 21
157.2252314755781128
 31
0.0
  0
ARC
  5
EA7B
  8
0
 10
4633.8039761306881701
 20
157.6030639074251951
 30
0.0
 40
0.5003452471534372
 50
300.5004663662771236
 51
324.7120527636495808
  0
ARC
  5
EA7C
  8
0
 10
4634.2033159904422064
 20
157.5578286496678118
 30
0.0
 40
0.4883694954424425
 50
209.9488600945950907
 51
232.5411962981378053
  0
ARC
  5
EA7D
  8
0
 10
4618.6335924584282111
 20
-5222.1818214663344406
 30
0.0
 40
5379.3670011564518063
 50
89.8477741246405515
 51
89.8869217118674442
  0
ARC
  5
EA7E
  8
0
 10
4633.1199262450409151
 20
230.2672550045404876
 30
0.0
 40
73.101319281059645
 50
269.8477741246405799
 51
271.011242627885224
  0
ARC
  5
EA7F
  8
0
 10
4634.7948123891683281
 20
133.7985572558982881
 30
0.0
 40
23.3819296516642012
 50
86.142948704571296
 51
90.9428464691209086
  0
ARC
  5
EA80
  8
0
 10
4633.0353956957660557
 20
-1121.9001094190209642
 30
0.0
 40
1279.5584605487090357
 50
89.9363394177566136
 51
90.1694893115166565
  0
ARC
  5
EA81
  8
0
 10
4634.5020664994581239
 20
198.1319961040532007
 30
0.0
 40
40.474459773707018
 50
269.9363394177565851
 51
272.4629601014419222
  0
LINE
  5
EA82
  8
0
 10
4636.1753377849863682
 20
157.7747616079423096
 30
0.0
 11
4636.6347032725916506
 21
168.9176101401615142
 31
0.0
  0
ARC
  5
EA83
  8
0
 10
4638.339505173865291
 20
171.4936571793955977
 30
0.0
 40
2.0142541744810432
 50
223.1891102241966109
 51
225.1145728500935093
  0
ARC
  5
EA84
  8
0
 10
4637.0602168171662925
 20
170.2092422464154993
 30
0.0
 40
0.2014385689521169
 50
225.1145728500935093
 51
254.5249089948335097
  0
ARC
  5
EA85
  8
0
 10
4636.8872232406038165
 20
169.5843928170511106
 30
0.0
 40
0.4469159535959579
 50
60.7071238997132667
 51
74.5249089948334955
  0
ARC
  5
EA86
  8
0
 10
4636.9948845142680511
 20
169.7421840522328012
 30
0.0
 40
0.2571678541539634
 50
38.0287734394995596
 51
64.4285240899240392
  0
ARC
  5
EA87
  8
0
 10
4636.9822035144206893
 20
169.7491888771315018
 30
0.0
 40
0.2631791190935331
 50
332.5576774049415008
 51
35.1255198111794513
  0
ARC
  5
EA88
  8
0
 10
4636.5283151613866721
 20
170.0927645835868987
 30
0.0
 40
0.8298734043480142
 50
311.4220141444203023
 51
325.9330235864247811
  0
ARC
  5
EA89
  8
0
 10
4638.1281910027701088
 20
168.2794666139920992
 30
0.0
 40
1.5883185306262231
 50
131.4220141444203875
 51
140.4907470722972107
  0
ARC
  5
EA8A
  8
0
 10
4637.287447329292263
 20
168.972750283974392
 30
0.0
 40
0.4985973866828852
 50
140.4907470722978076
 51
164.4049892586000112
  0
ARC
  5
EA8B
  8
0
 10
4638.3347653930331944
 20
168.6804321329221921
 30
0.0
 40
1.5859450900758341
 50
164.4049892586000112
 51
168.0366785442332969
  0
ARC
  5
EA8C
  8
0
 10
4636.7250952873946517
 20
169.9782027037769012
 30
0.0
 40
0.2
 50
43.1891102241966394
 51
75.7836410739826931
  0
LINE
  5
EA8D
  8
0
 10
4624.2065242865483015
 20
142.7813002417769894
 30
0.0
 11
4634.2939671326339521
 21
142.7813002417769894
 31
0.0
  0
LINE
  5
EA8E
  8
0
 10
4624.1066320764921329
 20
142.6247717493502023
 30
0.0
 11
4634.3938593426910302
 21
142.6247717493502023
 31
0.0
  0
LINE
  5
EA8F
  8
0
 10
4623.6436253442825546
 20
141.6548273311830997
 30
0.0
 11
4634.8568660748987895
 21
141.6548273311830997
 31
0.0
  0
LINE
  5
EA91
  8
0
 10
4621.7255126001728058
 20
170.1720777579614889
 30
0.0
 11
4636.7742121212186248
 21
170.1720777579614889
 31
0.0
  0
LINE
  5
EA92
  8
0
 10
4637.0267160903449621
 20
170.0089815762636078
 30
0.0
 11
4621.4539604028714166
 21
170.0089815762636078
 31
0.0
  0
LINE
  5
EA93
  8
0
 10
4637.0704579301946069
 20
169.4643533182444912
 30
0.0
 11
4621.3698773491632892
 21
169.4643533182444912
 31
0.0
  0
LINE
  5
EA94
  8
0
 10
4636.8977987385287634
 20
169.2838344039867877
 30
0.0
 11
4621.5453670753731785
 21
169.2838344039867877
 31
0.0
  0
LINE
  5
EA95
  8
0
 10
4621.7524228666161434
 20
168.9176169882362046
 30
0.0
 11
4636.6702748441339281
 21
168.9176169882362046
 31
0.0
  0
ARC
  5
EA96
  8
0
 10
4636.6702748441339281
 20
169.0331169882360882
 30
0.0
 40
0.1155
 50
270.0
 51
348.0366785442388959
  0
ENDSEC
  0
EOF
