  0
SECTION
  2
HEADER
  9
$ACADVER
  1
AC1009
  9
$INSBASE
 10
4917.8602365162441856
 20
261.8514338728230086
 30
0.0
  9
$EXTMIN
 10
4916.6821904990738403
 20
261.8507370603254003
 30
-0.0000000000112498
  9
$EXTMAX
 10
4925.3246874111018769
 20
269.9025501048801061
 30
0.0000000000002956
  9
$LIMMIN
 10
0.0
 20
0.0
  9
$LIMMAX
 10
11.6929133858000007
 20
8.2677165353999982
  9
$ORTHOMODE
 70
     0
  9
$REGENMODE
 70
     1
  9
$FILLMODE
 70
     1
  9
$QTEXTMODE
 70
     0
  9
$MIRRTEXT
 70
     0
  9
$DRAGMODE
 70
     2
  9
$LTSCALE
 40
0.6431102362
  9
$OSMODE
 70
  4095
  9
$ATTMODE
 70
     1
  9
$TEXTSIZE
 40
0.2
  9
$TRACEWID
 40
0.05
  9
$TEXTSTYLE
  7
STANDARD
  9
$CLAYER
  8
0
  9
$CELTYPE
  6
BYLAYER
  9
$CECOLOR
 62
   256
  9
$DIMSCALE
 40
1.0
  9
$DIMASZ
 40
0.1875
  9
$DIMEXO
 40
0.0625
  9
$DIMDLI
 40
0.4443307087
  9
$DIMRND
 40
0.0
  9
$DIMDLE
 40
0.0
  9
$DIMEXE
 40
0.125
  9
$DIMTP
 40
0.01
  9
$DIMTM
 40
0.01
  9
$DIMTXT
 40
2.0
  9
$DIMCEN
 40
0.1052362205
  9
$DIMTSZ
 40
0.0
  9
$DIMTOL
 70
     1
  9
$DIMLIM
 70
     0
  9
$DIMTIH
 70
     1
  9
$DIMTOH
 70
     1
  9
$DIMSE1
 70
     0
  9
$DIMSE2
 70
     0
  9
$DIMTAD
 70
     0
  9
$DIMZIN
 70
     0
  9
$DIMBLK
  1

  9
$DIMASO
 70
     1
  9
$DIMSHO
 70
     1
  9
$DIMPOST
  1
\X
  9
$DIMAPOST
  1

  9
$DIMALT
 70
     1
  9
$DIMALTD
 70
     2
  9
$DIMALTF
 40
25.3999999999999986
  9
$DIMLFAC
 40
1.0
  9
$DIMTOFL
 70
     0
  9
$DIMTVP
 40
0.0
  9
$DIMTIX
 70
     0
  9
$DIMSOXD
 70
     0
  9
$DIMSAH
 70
     0
  9
$DIMBLK1
  1

  9
$DIMBLK2
  1

  9
$DIMSTYLE
  2
STANDARD
  9
$DIMCLRD
 70
     0
  9
$DIMCLRE
 70
     0
  9
$DIMCLRT
 70
     0
  9
$DIMTFAC
 40
1.0
  9
$DIMGAP
 40
0.09
  9
$LUNITS
 70
     2
  9
$LUPREC
 70
     4
  9
$SKETCHINC
 40
0.1
  9
$FILLETRAD
 40
0.0
  9
$AUNITS
 70
     0
  9
$AUPREC
 70
     0
  9
$MENU
  1
.
  9
$ELEVATION
 40
0.0
  9
$PELEVATION
 40
0.0
  9
$THICKNESS
 40
0.0
  9
$LIMCHECK
 70
     0
  9
$BLIPMODE
 70
     0
  9
$CHAMFERA
 40
0.0
  9
$CHAMFERB
 40
0.0
  9
$SKPOLY
 70
     0
  9
$TDCREATE
 40
2458060.468368056230247
  9
$TDUPDATE
 40
2460241.8365277778357267
  9
$TDINDWG
 40
0.3930278935
  9
$TDUSRTIMER
 40
0.3930278935
  9
$USRTIMER
 70
     1
  9
$ANGBASE
 50
0.0
  9
$ANGDIR
 70
     0
  9
$PDMODE
 70
     0
  9
$PDSIZE
 40
0.3125
  9
$PLINEWID
 40
0.0
  9
$COORDS
 70
     1
  9
$SPLFRAME
 70
     0
  9
$SPLINETYPE
 70
     6
  9
$SPLINESEGS
 70
     8
  9
$ATTDIA
 70
     1
  9
$ATTREQ
 70
     1
  9
$HANDLING
 70
     1
  9
$HANDSEED
  5
F555
  9
$SURFTAB1
 70
     6
  9
$SURFTAB2
 70
     6
  9
$SURFTYPE
 70
     6
  9
$SURFU
 70
     6
  9
$SURFV
 70
     6
  9
$UCSNAME
  2

  9
$UCSORG
 10
0.0
 20
0.0
 30
0.0
  9
$UCSXDIR
 10
1.0
 20
0.0
 30
0.0
  9
$UCSYDIR
 10
0.0
 20
1.0
 30
0.0
  9
$PUCSNAME
  2

  9
$PUCSORG
 10
0.0
 20
0.0
 30
0.0
  9
$PUCSXDIR
 10
1.0
 20
0.0
 30
0.0
  9
$PUCSYDIR
 10
0.0
 20
1.0
 30
0.0
  9
$USERI1
 70
     0
  9
$USERI2
 70
     0
  9
$USERI3
 70
     0
  9
$USERI4
 70
     0
  9
$USERI5
 70
     0
  9
$USERR1
 40
0.0
  9
$USERR2
 40
0.0
  9
$USERR3
 40
0.0
  9
$USERR4
 40
0.0
  9
$USERR5
 40
0.0
  9
$WORLDVIEW
 70
     1
  9
$SHADEDGE
 70
     3
  9
$SHADEDIF
 70
    70
  9
$TILEMODE
 70
     1
  9
$MAXACTVP
 70
    64
  9
$PLIMCHECK
 70
     0
  9
$PEXTMIN
 10
1.0000000000000000E+20
 20
1.0000000000000000E+20
 30
1.0000000000000000E+20
  9
$PEXTMAX
 10
-1.0000000000000000E+20
 20
-1.0000000000000000E+20
 30
-1.0000000000000000E+20
  9
$PLIMMIN
 10
0.0
 20
0.0
  9
$PLIMMAX
 10
12.0
 20
9.0
  9
$UNITMODE
 70
     0
  9
$VISRETAIN
 70
     1
  9
$PLINEGEN
 70
     0
  9
$PSLTSCALE
 70
     1
  0
ENDSEC
  0
SECTION
  2
TABLES
  0
TABLE
  2
VPORT
 70
     1
  0
VPORT
  2
*ACTIVE
 70
     0
 10
0.0
 20
0.0
 11
1.0
 21
1.0
 12
54.528829580087411
 22
17.7157854283058818
 13
0.0
 23
0.0
 14
1.0
 24
1.0
 15
0.0
 25
0.0
 16
0.0
 26
0.0
 36
123.4984480106661948
 17
4866.474609375
 27
248.1608581542969034
 37
0.0
 40
8.1152964588350311
 41
2.498684210526315
 42
50.0
 43
0.0
 44
0.0
 50
0.0
 51
0.0
 71
     0
 72
   100
 73
     1
 74
     1
 75
     0
 76
     0
 77
     0
 78
     0
  0
ENDTAB
  0
TABLE
  2
LTYPE
 70
     2
  0
LTYPE
  2
CONTINUOUS
 70
     0
  3
Solid line
 72
    65
 73
     0
 40
0.0
  0
LTYPE
  2
PHANTOM2
 70
     0
  3
___ _ _ ___ _ _ ___ _ _ ___ _ _
 72
    65
 73
     6
 40
1.25
 49
0.625
 49
-0.125
 49
0.125
 49
-0.125
 49
0.125
 49
-0.125
  0
ENDTAB
  0
TABLE
  2
LAYER
 70
     2
  0
LAYER
  2
0
 70
     0
 62
   255
  6
CONTINUOUS
  0
LAYER
  2
DEFPOINTS
 70
     0
 62
     7
  6
CONTINUOUS
  0
ENDTAB
  0
TABLE
  2
STYLE
 70
     1
  0
STYLE
  2
STANDARD
 70
     0
 40
0.0
 41
0.8
 50
0.0
 71
     0
 42
0.2
  3
txt
  4

  0
ENDTAB
  0
TABLE
  2
VIEW
 70
     0
  0
ENDTAB
  0
TABLE
  2
UCS
 70
     0
  0
ENDTAB
  0
TABLE
  2
APPID
 70
     9
  0
APPID
  2
ACAD
 70
     0
  0
APPID
  2
ACAD_MLEADERVER
 70
     0
  0
APPID
  2
ACAD_EXEMPT_FROM_CAD_STANDARDS
 70
     0
  0
APPID
  2
ACAD_NAV_VCDISPLAY
 70
     0
  0
APPID
  2
ACAECLAYERSTANDARD
 70
     0
  0
APPID
  2
ACCMTRANSPARENCY
 70
     0
  0
APPID
  2
ACAD_DSTYLE_DIMJAG
 70
     0
  0
APPID
  2
ACAD_DSTYLE_DIMTALN
 70
     0
  0
APPID
  2
ACDBATTR
 70
     0
  0
ENDTAB
  0
TABLE
  2
DIMSTYLE
 70
     1
  0
DIMSTYLE
  2
STANDARD
 70
     0
  3

  4

  5

  6

  7

 40
1.0
 41
0.1875
 42
0.0625
 43
0.38
 44
0.125
 45
0.0
 46
0.0
 47
0.01
 48
0.01
140
0.15625
141
0.09
142
0.0
143
25.3999999999999986
144
1.0
145
0.0
146
1.0
147
0.09
 71
     1
 72
     0
 73
     1
 74
     1
 75
     0
 76
     0
 77
     0
 78
     4
170
     0
171
     2
172
     0
173
     0
174
     0
175
     0
176
     0
177
     0
178
     0
  0
ENDTAB
  0
ENDSEC
  0
SECTION
  2
BLOCKS
  0
BLOCK
  8
0
  2
$MODEL_SPACE
 70
     0
 10
0.0
 20
0.0
 30
0.0
  3
$MODEL_SPACE
  1

  0
ENDBLK
  5
21
  8
0
  0
BLOCK
 67
     1
  8
0
  2
$PAPER_SPACE
 70
     0
 10
0.0
 20
0.0
 30
0.0
  3
$PAPER_SPACE
  1

  0
ENDBLK
  5
1D
 67
     1
  8
0
  0
ENDSEC
  0
SECTION
  2
ENTITIES
  0
ATTDEF
  5
3930
  8
DEFPOINTS
 10
4917.8574424083153644
 20
261.8553421628628826
 30
0.0
 40
0.001
  1
K-30735T-4
  3

  2
MODELNUMBER
 70
     0
1001
ACDBATTR
1070
     0
1070
     1
  0
ATTDEF
  5
3931
  8
DEFPOINTS
 10
4917.8574424083153644
 20
261.8536754961962174
 30
0.0
 40
0.001
  1
PARALLEL
  3

  2
TRADENAME
 70
     0
1001
ACDBATTR
1070
     0
1070
     1
  0
ATTDEF
  5
3932
  8
DEFPOINTS
 10
4917.8574424083153644
 20
261.8520088295296091
 30
0.0
 40
0.001
  1
BATHROOM SINK FAUCET
  3

  2
PRODUCT
 70
     0
1001
ACDBATTR
1070
     0
1070
     1
  0
LINE
  5
EDD4
  8
0
 10
4916.8169294296430962
 20
261.8514338728230086
 30
0.0
 11
4918.9035436028425465
 21
261.8514338728230086
 31
0.0
  0
LINE
  5
EDD5
  8
0
 10
4916.8169294296430962
 20
261.8514338728230086
 30
0.0
 11
4916.8169294296430962
 21
262.1860496208229847
 31
0.0
  0
LINE
  5
EDD6
  8
0
 10
4916.8563294296418462
 20
262.2254496208229853
 30
0.0
 11
4918.864143602842887
 21
262.2254496208229853
 31
0.0
  0
LINE
  5
EDD7
  8
0
 10
4917.0137798233417925
 20
262.2766307232229792
 30
0.0
 11
4918.7066932091429408
 21
262.2766307232229792
 31
0.0
  0
LINE
  5
EDD8
  8
0
 10
4917.0137798233417925
 20
269.8367232702229899
 30
0.0
 11
4917.0137798233417925
 21
265.5679693250230002
 31
0.0
  0
LINE
  5
EDD9
  8
0
 10
4917.0137798233417925
 20
265.5561582822230093
 30
0.0
 11
4917.0137798233417925
 21
262.2766307232229792
 31
0.0
  0
LINE
  5
EDDA
  8
0
 10
4917.0137798233417925
 20
265.5561582822230093
 30
0.0
 11
4918.7066932091429408
 21
265.5561582822230093
 31
0.0
  0
LINE
  5
EDDB
  8
0
 10
4917.053179823343271
 20
269.8761232702229904
 30
0.0
 11
4918.6672932091432813
 21
269.8761232702229904
 31
0.0
  0
LINE
  5
EDDC
  8
0
 10
4917.7346922213118887
 20
269.9009572820077096
 30
0.0
 11
4917.9857808111746635
 21
269.9009572820077096
 31
0.0
  0
ARC
  5
EDDD
  8
0
 10
4916.8563294296418462
 20
262.1860496208229847
 30
0.0
 40
0.0394
 50
90.0
 51
180.0
  0
LINE
  5
EDDE
  8
0
 10
4917.3090554139425876
 20
262.245134660223016
 30
0.0
 11
4917.3090554139425876
 21
262.2766307232229792
 31
0.0
  0
ARC
  5
EDDF
  8
0
 10
4917.2893703745430685
 20
262.245134660223016
 30
0.0
 40
0.0196850393999999
 50
270.0
 51
0.0
  0
ARC
  5
EDE0
  8
0
 10
4917.053179823343271
 20
269.8367232702229899
 30
0.0
 40
0.0394
 50
90.0
 51
179.9999999999984084
  0
LINE
  5
EDE1
  8
0
 10
4917.5338038668069203
 20
269.8822882969229795
 30
0.0
 11
4917.7068348833172422
 21
269.8822882969229795
 31
0.0
  0
ARC
  5
EDE2
  8
0
 10
4917.5016896543047551
 20
269.9726520036094826
 30
0.0
 40
0.0965353892232544
 50
270.6728188958267083
 51
280.3708600498121086
  0
ARC
  5
EDE3
  8
0
 10
4917.5161150710264337
 20
269.8938283259203104
 30
0.0
 40
0.0164025943638538
 50
280.3708600498121086
 51
290.6673895915087087
  0
ARC
  5
EDE4
  8
0
 10
4917.5414265868430448
 20
269.8379605871211879
 30
0.0
 40
0.0449783472018919
 50
99.7573147869048142
 51
115.7241433697558932
  0
LINE
  5
EDE5
  8
0
 10
4917.6743791485787369
 20
269.8773705137621732
 30
0.0
 11
4918.0460938839069058
 21
269.8773705137621732
 31
0.0
  0
ARC
  5
EDE6
  8
0
 10
4917.6755886675719012
 20
269.8659003021547278
 30
0.0
 40
0.0115338064192194
 50
96.0195204767578758
 51
117.5821146818918947
  0
ARC
  5
EDE7
  8
0
 10
4917.6857863625637037
 20
269.9220015077648895
 30
0.0
 40
0.0449464052096788
 50
276.7917705903187766
 51
321.7869090578420241
  0
ARC
  5
EDE8
  8
0
 10
4917.7360349932168901
 20
269.8812140041529233
 30
0.0
 40
0.0197888872057388
 50
93.8907859444615269
 51
138.9941621357737915
  0
LINE
  5
EDE9
  8
0
 10
4917.0137798233417925
 20
269.3062964292730044
 30
0.0
 11
4918.7066932091429408
 21
269.3062964292730044
 31
0.0
  0
ARC
  5
EDEA
  8
0
 10
4917.0532738470619734
 20
269.2931892168231798
 30
0.0
 40
0.0396397820434252
 50
184.9152519369262109
 51
234.2692184686318058
  0
ARC
  5
EDEB
  8
0
 10
4917.712429197158599
 20
270.0888591013247719
 30
0.0
 40
1.072786847595643
 50
230.5050014266296046
 51
241.8853026793798051
  0
ARC
  5
EDEC
  8
0
 10
4917.1127746491329162
 20
269.0395799326304882
 30
0.0
 40
0.1395790307670756
 50
25.7220642783197597
 51
47.6011177040000035
  0
ARC
  5
EDED
  8
0
 10
4916.9990443278202292
 20
268.9856597427151996
 30
0.0
 40
0.2654426512723267
 50
2.409697992659785
 51
25.5531804768802111
  0
ARC
  5
EDEE
  8
0
 10
4916.4077358724061924
 20
268.9607763130183002
 30
0.0
 40
0.8572744470697834
 50
353.2761377655157844
 51
2.409697992659785
  0
ARC
  5
EDEF
  8
0
 10
4917.9001956488691576
 20
267.5530098378739012
 30
0.0
 40
1.6489897026611859
 50
91.3885555367437803
 51
104.0338153690943983
  0
ARC
  5
EDF0
  8
0
 10
4917.3278863640507552
 20
269.8426593566480278
 30
0.0
 40
0.7111019981656649
 50
272.9864746653859129
 51
284.0338153690943841
  0
ARC
  5
EDF1
  8
0
 10
4917.3335336686532173
 20
269.7344134578793842
 30
0.0
 40
0.6027088865326647
 50
261.2618764382704057
 51
272.9864746653859129
  0
ARC
  5
EDF2
  8
0
 10
4917.4211168163701586
 20
269.5937782284876221
 30
0.0
 40
0.4890697538615758
 50
241.4611137603031068
 51
248.5124497849704994
  0
ARC
  5
EDF3
  8
0
 10
4917.8908545000340382
 20
270.3373317939949061
 30
0.0
 40
1.3679018617341641
 50
231.0063706830559056
 51
239.0551185037701885
  0
ARC
  5
EDF4
  8
0
 10
4917.0557213248739572
 20
269.3081067363900729
 30
0.0
 40
0.0425025088497627
 50
189.3195184508797126
 51
232.9687584390748043
  0
ARC
  5
EDF5
  8
0
 10
4917.857782156715075
 20
266.9751953540551881
 30
0.0
 40
2.0312947807339778
 50
89.9308169644646256
 51
95.8519708116826905
  0
ARC
  5
EDF6
  8
0
 10
4917.8111302217330376
 20
267.4303681512661228
 30
0.0
 40
1.573737485569533
 50
95.8519708116826905
 51
102.3135437285653069
  0
ARC
  5
EDF7
  8
0
 10
4917.68445528094162
 20
268.0106927880437979
 30
0.0
 40
0.9797482393068285
 50
102.3135437285653069
 51
110.9158177795775941
  0
ARC
  5
EDF8
  8
0
 10
4917.3981749861522985
 20
268.759766187350408
 30
0.0
 40
0.1778334279122533
 50
110.9158177795775941
 51
134.1443524907932101
  0
ARC
  5
EDF9
  8
0
 10
4917.3108047577206889
 20
268.8497857278210859
 30
0.0
 40
0.0523859309958533
 50
134.1443524907932101
 51
180.7076872055951924
  0
ARC
  5
EDFA
  8
0
 10
4917.3159377065503577
 20
268.8521700677408148
 30
0.0
 40
0.0575947137816812
 50
183.0170271504248944
 51
210.4679103369398945
  0
ARC
  5
EDFB
  8
0
 10
4917.3656598614134055
 20
268.8869461162777839
 30
0.0
 40
0.1181802747998088
 50
212.7772502818012867
 51
237.7197886531284041
  0
ARC
  5
EDFC
  8
0
 10
4917.5240526942452561
 20
269.1494557179669869
 30
0.0
 40
0.4247558694149845
 50
238.567385890196789
 51
255.2743073952173916
  0
ARC
  5
EDFD
  8
0
 10
4917.7558827615630435
 20
269.9782040941100831
 30
0.0
 40
1.2852838082549449
 50
254.6700631194310915
 51
264.1644858152909023
  0
ARC
  5
EDFE
  8
0
 10
4917.8574720039523527
 20
270.8371433810523854
 30
0.0
 40
2.150144695162945
 50
263.7985635790312813
 51
270.0736671028171259
  0
ARC
  5
EDFF
  8
0
 10
4917.8588463984169721
 20
266.8669308120906862
 30
0.0
 40
2.1251974343197282
 50
89.959031239799728
 51
96.4273681395082747
  0
ARC
  5
EE00
  8
0
 10
4917.777753941059018
 20
267.5867821550359054
 30
0.0
 40
1.4007928908631631
 50
96.4273681395082747
 51
102.4490908243580947
  0
ARC
  5
EE01
  8
0
 10
4917.6541673222927784
 20
268.146598874854817
 30
0.0
 40
0.8274967962256361
 50
102.4490908243580947
 51
110.4926817727561996
  0
ARC
  5
EE02
  8
0
 10
4917.4603771467527622
 20
268.665116132741673
 30
0.0
 40
0.2739493467122176
 50
110.4926817727561996
 51
125.9271957322615947
  0
ARC
  5
EE03
  8
0
 10
4917.349873177588961
 20
268.8176189299684893
 30
0.0
 40
0.0856192366319044
 50
125.9271957322615947
 51
149.9065977713050017
  0
ARC
  5
EE04
  8
0
 10
4917.3115866444895801
 20
268.8398069670359973
 30
0.0
 40
0.0413680490124992
 50
149.9065977713050017
 51
199.2627321441788979
  0
ARC
  5
EE05
  8
0
 10
4917.324402531634405
 20
268.8442856706581097
 30
0.0
 40
0.0549439743749638
 50
199.2627321441788979
 51
221.6680870583014098
  0
ARC
  5
EE06
  8
0
 10
4917.4065918086253077
 20
268.91743156791091
 30
0.0
 40
0.1649685149888175
 50
221.6680870583014098
 51
247.3766889686361026
  0
ARC
  5
EE07
  8
0
 10
4917.8586781629301186
 20
266.9559947277415972
 30
0.0
 40
2.0247812107750431
 50
89.9559023490386238
 51
94.6792596736112699
  0
ARC
  5
EE08
  8
0
 10
4917.8252265421679112
 20
267.3646862233354113
 30
0.0
 40
1.6147229838093611
 50
94.6792596736112699
 51
98.9594926866427329
  0
ARC
  5
EE09
  8
0
 10
4917.7449223434850865
 20
267.8740373616582247
 30
0.0
 40
1.099080329990993
 50
98.9594926866427329
 51
104.7833081767144989
  0
ARC
  5
EE0A
  8
0
 10
4917.5904659409034139
 20
268.4593217308877797
 30
0.0
 40
0.4937584543222162
 50
104.7833081767144989
 51
117.4522717027420953
  0
ARC
  5
EE0B
  8
0
 10
4917.4170548668907941
 20
268.7931199057780987
 30
0.0
 40
0.1176034036450839
 50
117.4522717027420953
 51
143.4772391616899938
  0
ARC
  5
EE0C
  8
0
 10
4917.3542481895692617
 20
268.8396330248648951
 30
0.0
 40
0.0394487559051373
 50
143.4772391616899938
 51
217.0387422334563041
  0
ARC
  5
EE0D
  8
0
 10
4917.4183481442432821
 20
268.8880037951458917
 30
0.0
 40
0.1197515304948906
 50
217.0387422334563041
 51
241.6220964364678991
  0
ARC
  5
EE0E
  8
0
 10
4917.577009948658997
 20
269.1817133424581243
 30
0.0
 40
0.4535761346847851
 50
241.6220964364678991
 51
257.0856280424886791
  0
ARC
  5
EE0F
  8
0
 10
4917.8487555930068993
 20
270.3668509866079148
 30
0.0
 40
1.6694696048554101
 50
257.0856280424886791
 51
262.62732816023032
  0
ARC
  5
EE10
  8
0
 10
4917.8569337397593699
 20
270.6590938188984978
 30
0.0
 40
1.960566065979469
 50
263.4862806912581163
 51
270.0965212327973859
  0
ARC
  5
EE11
  8
0
 10
4917.8588613545698536
 20
267.0334535088708776
 30
0.0
 40
1.941723189412679
 50
89.9594217413422541
 51
94.8697104016840456
  0
LINE
  5
EE12
  8
0
 10
4917.6940281039442198
 20
268.9740703728958806
 30
0.0
 11
4917.6940281039442198
 21
268.9681676851229781
 31
0.0
  0
LINE
  5
EE13
  8
0
 10
4917.6940281039442198
 20
268.9681676851229781
 30
0.0
 11
4917.7597563408417045
 21
268.9387025225229877
 31
0.0
  0
ARC
  5
EE14
  8
0
 10
4917.8601384047624379
 20
267.4424377143413949
 30
0.0
 40
1.499628265590963
 50
89.9962514885127689
 51
93.8381327621494847
  0
ARC
  5
EE15
  8
0
 10
4917.8142939269746421
 20
268.1312974013782195
 30
0.0
 40
0.8115767149811114
 50
94.1721869318042479
 51
104.7659367866886981
  0
ARC
  5
EE16
  8
0
 10
4917.6738855430266995
 20
268.6640039495649148
 30
0.0
 40
0.2606767415163349
 50
104.7659367866886981
 51
120.1541477134758935
  0
ARC
  5
EE17
  8
0
 10
4917.5734176642299644
 20
268.8369432432834856
 30
0.0
 40
0.0606722566114636
 50
120.1541477134758935
 51
148.2334198426507896
  0
ARC
  5
EE18
  8
0
 10
4917.5414083823634428
 20
268.8567640000824213
 30
0.0
 40
0.0230231327744781
 50
148.2334198426507896
 51
200.5058945162672899
  0
ARC
  5
EE19
  8
0
 10
4917.555706074536829
 20
268.8621113647516836
 30
0.0
 40
0.0382880700628285
 50
200.5058945162672899
 51
224.1694957490408058
  0
ARC
  5
EE1A
  8
0
 10
4917.6158429421366236
 20
268.9205296510451717
 30
0.0
 40
0.1221280308102135
 50
224.1694957490408058
 51
234.1613947187427982
  0
ARC
  5
EE1B
  8
0
 10
4917.7870298353282124
 20
268.276902989145924
 30
0.0
 40
0.6826085702444609
 50
95.5849557646738361
 51
107.7391247854940985
  0
ARC
  5
EE1C
  8
0
 10
4917.7626534799082947
 20
268.2487083633578777
 30
0.0
 40
0.732024926747083
 50
101.6599724479729048
 51
104.5257768680108938
  0
LINE
  5
EE1D
  8
0
 10
4917.5737558107421137
 20
268.9597074726229948
 30
0.0
 11
4917.5790502527443095
 21
268.9573340391229976
 31
0.0
  0
LINE
  5
EE1E
  8
0
 10
4917.5790502527443095
 20
268.9573340391229976
 30
0.0
 11
4917.5790502527443095
 21
268.9116997481229987
 31
0.0
  0
LINE
  5
EE1F
  8
0
 10
4917.5133220157431424
 20
268.948438990455827
 30
0.0
 11
4917.5133220157431424
 21
268.9411649107229891
 31
0.0
  0
LINE
  5
EE20
  8
0
 10
4917.5133220157431424
 20
268.9411649107229891
 30
0.0
 11
4917.5790502527443095
 21
268.9116997481229987
 31
0.0
  0
LINE
  5
EE21
  8
0
 10
4917.3471135898416833
 20
268.8876650183635775
 30
0.0
 11
4917.3471135898416833
 21
268.8666557117230127
 31
0.0
  0
LINE
  5
EE22
  8
0
 10
4917.3471135898416833
 20
268.8666557117230127
 30
0.0
 11
4917.4785700637421542
 21
268.8666557117230127
 31
0.0
  0
ARC
  5
EE23
  8
0
 10
4917.4353440637287349
 20
268.7936003911949001
 30
0.0
 40
0.1145499732850514
 50
116.5432904483789969
 51
140.3750553265138024
  0
ARC
  5
EE24
  8
0
 10
4917.6247060052019151
 20
268.4145166399936784
 30
0.0
 40
0.5382980532847174
 50
101.9418471303907978
 51
116.5432904483789969
  0
ARC
  5
EE25
  8
0
 10
4917.6888706863646803
 20
268.4849052872427819
 30
0.0
 40
0.4406972197311191
 50
104.4300010297252044
 51
112.2705105262973007
  0
ARC
  5
EE26
  8
0
 10
4917.5905040821262446
 20
268.7250999092116217
 30
0.0
 40
0.181140972932925
 50
112.2705105262973007
 51
123.0166820394573932
  0
ARC
  5
EE27
  8
0
 10
4917.544631138151999
 20
268.7956930423698054
 30
0.0
 40
0.0969523903463653
 50
123.0166820394573932
 51
132.9512966370641891
  0
ARC
  5
EE28
  8
0
 10
4917.5194348851473478
 20
268.9018570638614847
 30
0.0
 40
0.0597369731846593
 50
216.105395548007607
 51
226.8367648306075068
  0
LINE
  5
EE29
  8
0
 10
4917.3471135898416833
 20
268.8582844539229768
 30
0.0
 11
4917.4785700637421542
 21
268.8582844539229768
 31
0.0
  0
LINE
  5
EE2A
  8
0
 10
4917.4785700637421542
 20
268.8582844539229768
 30
0.0
 11
4917.4785700637421542
 21
268.8126501629229779
 31
0.0
  0
LINE
  5
EE2B
  8
0
 10
4917.4785700637421542
 20
268.8126501629229779
 30
0.0
 11
4917.3471135898416833
 21
268.8126501629229779
 31
0.0
  0
LINE
  5
EE2C
  8
0
 10
4917.3471135898416833
 20
268.8126501629229779
 30
0.0
 11
4917.3471135898416833
 21
268.8582844539229768
 31
0.0
  0
ARC
  5
EE2D
  8
0
 10
4917.3835178851368255
 20
268.8884626069392993
 30
0.0
 40
0.0472862943705734
 50
191.08064698029699
 51
219.6577914836277046
  0
ARC
  5
EE2E
  8
0
 10
4917.6316180952671857
 20
269.0194628528989824
 30
0.0
 40
0.2572842565888218
 50
233.49737007695839
 51
258.2104130661401769
  0
ARC
  5
EE2F
  8
0
 10
4917.4611852559228282
 20
268.9169068853394151
 30
0.0
 40
0.1545374037941233
 50
222.4260036422176938
 51
246.8645998326952906
  0
ARC
  5
EE30
  8
0
 10
4917.6606096849536698
 20
269.383651608999287
 30
0.0
 40
0.6621009367222169
 50
246.8645998326952906
 51
257.1467315286344046
  0
LINE
  5
EE31
  8
0
 10
4917.5133220157431424
 20
268.7381409639230014
 30
0.0
 11
4917.5790502527443095
 21
268.7676061265229919
 31
0.0
  0
LINE
  5
EE32
  8
0
 10
4917.5790502527443095
 20
268.7676061265229919
 30
0.0
 11
4917.5790502527443095
 21
268.8001378164562993
 31
0.0
  0
ARC
  5
EE33
  8
0
 10
4917.5406840177947743
 20
268.8721019746841989
 30
0.0
 40
0.0298839948354985
 50
141.1837941110258896
 51
177.5616300817609954
  0
ARC
  5
EE34
  8
0
 10
4917.5640221992925945
 20
268.8748239314762145
 30
0.0
 40
0.0532148917230373
 50
181.5619817845766875
 51
227.750685116451109
  0
LINE
  5
EE35
  8
0
 10
4917.5108270810433169
 20
268.8877763597919284
 30
0.0
 11
4917.5108270810433169
 21
268.8733733814208904
 31
0.0
  0
ARC
  5
EE36
  8
0
 10
4917.6510949532612358
 20
268.9559452088261082
 30
0.0
 40
0.1716577478292406
 50
231.5430612513476092
 51
253.3480452290332892
  0
ARC
  5
EE37
  8
0
 10
4917.787840847942789
 20
269.3810802367117958
 30
0.0
 40
0.6182177122838831
 50
252.496694647196307
 51
263.3976229483444058
  0
ARC
  5
EE38
  8
0
 10
4917.8577058313958332
 20
269.9057214055288796
 30
0.0
 40
1.147448340996146
 50
262.944261818654013
 51
270.1263662893373976
  0
ARC
  5
EE39
  8
0
 10
4917.8600485879833286
 20
267.6864787496920144
 30
0.0
 40
1.2430146055371569
 50
89.99133759478255
 51
93.828473870514955
  0
ARC
  5
EE3A
  8
0
 10
4917.8462918946079299
 20
267.8920507567526101
 30
0.0
 40
1.036982819883782
 50
93.828473870514955
 51
98.277452891995253
  0
ARC
  5
EE3B
  8
0
 10
4917.7923934669161099
 20
268.2625316276485137
 30
0.0
 40
0.6626018425258261
 50
98.277452891995253
 51
105.850844237227804
  0
ARC
  5
EE3C
  8
0
 10
4917.6797306277221651
 20
268.6593293245746281
 30
0.0
 40
0.2501199306544631
 50
105.850844237227804
 51
118.0440321629917975
  0
ARC
  5
EE3D
  8
0
 10
4917.6016841590198965
 20
268.8058416429614113
 30
0.0
 40
0.0841165851583558
 50
118.0440321629917975
 51
138.2501383073104932
  0
ARC
  5
EE3E
  8
0
 10
4917.5591768352733197
 20
268.8437806955930114
 30
0.0
 40
0.0271407632099421
 50
138.2501383073104932
 51
178.3722358411075106
  0
ARC
  5
EE3F
  8
0
 10
4917.5582481267838375
 20
268.8438070871570744
 30
0.0
 40
0.0262116798050431
 50
178.3722358411075106
 51
230.6692678520307993
  0
ARC
  5
EE40
  8
0
 10
4917.8592953439529083
 20
267.9255185601056155
 30
0.0
 40
0.997553795005928
 50
89.9459425563542254
 51
91.5948719188464793
  0
ARC
  5
EE41
  8
0
 10
4917.8792372958141641
 20
267.2092889093175927
 30
0.0
 40
1.714061013470497
 50
91.5948719188464793
 51
92.9540501255725076
  0
ARC
  5
EE42
  8
0
 10
4917.8355014488943198
 20
268.0568231593792916
 30
0.0
 40
0.8653990493566746
 50
92.9540501255725076
 51
97.2118252801743239
  0
ARC
  5
EE43
  8
0
 10
4917.8524495797892087
 20
267.9228872043410092
 30
0.0
 40
1.0004030463080931
 50
97.2118252801743239
 51
100.1256641674033006
  0
ARC
  5
EE44
  8
0
 10
4917.7655688665572598
 20
268.4093705013586941
 30
0.0
 40
0.5062226575745576
 50
100.1256641674033006
 51
107.5577479370892036
  0
ARC
  5
EE45
  8
0
 10
4917.6730662594500245
 20
268.7017235136888189
 30
0.0
 40
0.199584407938449
 50
107.5577479370892036
 51
124.4942781758781933
  0
ARC
  5
EE46
  8
0
 10
4917.5865695662778307
 20
268.8313547449693033
 30
0.0
 40
0.0438109621610144
 50
127.2733692260427034
 51
153.5766028168712012
  0
ARC
  5
EE47
  8
0
 10
4917.5685853081813548
 20
268.8415472881812889
 30
0.0
 40
0.0231971085736695
 50
156.3556938670714942
 51
208.8872827863256987
  0
ARC
  5
EE48
  8
0
 10
4917.5868003413988845
 20
268.8515972523842947
 30
0.0
 40
0.0440006951775913
 50
208.8872827863256987
 51
237.336962775689102
  0
ARC
  5
EE49
  8
0
 10
4917.6774349680890737
 20
268.992975731415072
 30
0.0
 40
0.2119367243327667
 50
237.336962775689102
 51
251.2572645757340126
  0
ARC
  5
EE4A
  8
0
 10
4917.7444951394545569
 20
269.1906109478878193
 30
0.0
 40
0.4206392527643493
 50
251.2572645757340126
 51
259.4855679686847907
  0
ARC
  5
EE4B
  8
0
 10
4917.8632253421519636
 20
269.8303224841870929
 30
0.0
 40
1.0712756417767799
 50
259.4855679686847907
 51
263.0618738250018964
  0
ARC
  5
EE4C
  8
0
 10
4917.8326321787571942
 20
269.5789169892801738
 30
0.0
 40
0.818015568895289
 50
263.0618738250018964
 51
267.6382512355734207
  0
ARC
  5
EE4D
  8
0
 10
4917.8789511665099781
 20
270.7019743176725228
 30
0.0
 40
1.9420276735819431
 50
267.6382512355734207
 51
269.4478518062405783
  0
ARC
  5
EE4E
  8
0
 10
4917.5777710087131709
 20
268.8548921615089853
 30
0.0
 40
0.0330955484789761
 50
195.3106015070592036
 51
228.9805375133090024
  0
ARC
  5
EE4F
  8
0
 10
4917.6368675895291744
 20
268.9228283799487826
 30
0.0
 40
0.1231385140007968
 50
228.9805375133090024
 51
237.538627329798004
  0
ARC
  5
EE50
  8
0
 10
4917.6794020535753589
 20
269.0103046314599737
 30
0.0
 40
0.2200547130713062
 50
240.4202189666744971
 51
253.3951339513506866
  0
ARC
  5
EE51
  8
0
 10
4917.8035254978585726
 20
269.4392334130910172
 30
0.0
 40
0.666577035961763
 50
253.7069454943269022
 51
264.7335039345775272
  0
ARC
  5
EE52
  8
0
 10
4917.8587440576957306
 20
269.9154318666317067
 30
0.0
 40
1.145889137952788
 50
264.1696817169308815
 51
270.0746253511455848
  0
ARC
  5
EE53
  8
0
 10
4917.6036964768127291
 20
268.896648896291083
 30
0.0
 40
0.0761668693643254
 50
220.773726775779096
 51
243.2345364750057968
  0
ARC
  5
EE54
  8
0
 10
4917.7044885137338497
 20
269.0964824294503046
 30
0.0
 40
0.2999803535012817
 50
243.2345364750057968
 51
255.1657246073581859
  0
ARC
  5
EE55
  8
0
 10
4917.7908915948582944
 20
269.4227146339982824
 30
0.0
 40
0.637460639905901
 50
255.1657246073581859
 51
261.8776034875562004
  0
ARC
  5
EE56
  8
0
 10
4917.8562593726619525
 20
269.8807290660283229
 30
0.0
 40
1.1001161989591011
 50
261.8776034875562004
 51
265.0779081287719805
  0
ARC
  5
EE57
  8
0
 10
4917.8513786858547974
 20
269.8240550936453133
 30
0.0
 40
1.043232455680664
 50
265.0779081287719805
 51
268.8287383877121783
  0
ARC
  5
EE58
  8
0
 10
4917.8674389708658055
 20
270.6095827303699934
 30
0.0
 40
1.828924253278712
 50
268.8287383877121783
 51
269.7743643353251741
  0
LINE
  5
EE59
  8
0
 10
4917.8759204272073475
 20
268.916848601522986
 30
0.0
 11
4917.8445526052792047
 21
268.916848601522986
 31
0.0
  0
LINE
  5
EE5A
  8
0
 10
4917.8445526052792047
 20
268.916848601522986
 30
0.0
 11
4917.8315312555441778
 21
268.9226859128229989
 31
0.0
  0
LINE
  5
EE5B
  8
0
 10
4917.8445526052428249
 20
268.9160334234230163
 30
0.0
 11
4917.8288686805426551
 21
268.9090025123230134
 31
0.0
  0
LINE
  5
EE5C
  8
0
 10
4917.8288686805426551
 20
268.9090025123230134
 30
0.0
 11
4917.8445526052792047
 21
268.9019716012230106
 31
0.0
  0
LINE
  5
EE5D
  8
0
 10
4917.8445526052792047
 20
268.9019716012230106
 30
0.0
 11
4917.8759204272073475
 21
268.9019716012230106
 31
0.0
  0
LINE
  5
EE5E
  8
0
 10
4917.8759204272428178
 20
268.9160334234230163
 30
0.0
 11
4917.8445526052428249
 21
268.9160334234230163
 31
0.0
  0
LINE
  5
EE5F
  8
0
 10
4917.8468256377427679
 20
268.9067934314230115
 30
0.0
 11
4917.8353832495913593
 21
268.9119229137343723
 31
0.0
  0
LINE
  5
EE60
  8
0
 10
4917.8468256377427679
 20
268.9067934314230115
 30
0.0
 11
4917.8736473947428749
 21
268.9067934314230115
 31
0.0
  0
ARC
  5
EE61
  8
0
 10
4917.839564234156569
 20
268.9068591225578757
 30
0.0
 40
0.0072617007205678
 50
333.072698072278115
 51
359.4816811840731248
  0
ARC
  5
EE62
  8
0
 10
4917.8425029780873956
 20
268.9053664514848947
 30
0.0
 40
0.003965599567496
 50
301.1213110104520183
 51
333.072698072275216
  0
LINE
  5
EE63
  8
0
 10
4917.8468256377427679
 20
268.9216704317229869
 30
0.0
 11
4917.8439612694028256
 21
268.9229544929295912
 31
0.0
  0
LINE
  5
EE64
  8
0
 10
4917.8468256377427679
 20
268.9216704317229869
 30
0.0
 11
4917.8736473947428749
 21
268.9216704317229869
 31
0.0
  0
ARC
  5
EE65
  8
0
 10
4917.839564234156569
 20
268.921736122857908
 30
0.0
 40
0.0072617007205678
 50
333.072698072278115
 51
359.4816811840731248
  0
ARC
  5
EE66
  8
0
 10
4917.8425029780873956
 20
268.9202434517849269
 30
0.0
 40
0.003965599567496
 50
301.1213110104520183
 51
333.072698072275216
  0
LINE
  5
EE67
  8
0
 10
4917.7892232010863154
 20
268.9209839305366927
 30
0.0
 11
4917.7790892675748182
 21
268.9164410124229789
 31
0.0
  0
LINE
  5
EE68
  8
0
 10
4917.7790892675748182
 20
268.9164410124229789
 30
0.0
 11
4917.7947731923113679
 21
268.9094101013229761
 31
0.0
  0
LINE
  5
EE69
  8
0
 10
4917.7947731923113679
 20
268.9094101013229761
 30
0.0
 11
4917.8261410414761485
 21
268.9094101013229761
 31
0.0
  0
LINE
  5
EE6A
  8
0
 10
4917.8261410414761485
 20
268.9094101013229761
 30
0.0
 11
4917.8418249661735899
 21
268.9164410124229789
 31
0.0
  0
LINE
  5
EE6B
  8
0
 10
4917.8418249661735899
 20
268.9164410124229789
 30
0.0
 11
4917.8281142398291195
 21
268.9225873628994918
 31
0.0
  0
LINE
  5
EE6C
  8
0
 10
4917.797046224774931
 20
268.914231931522977
 30
0.0
 11
4917.785603836622613
 21
268.9193614138343946
 31
0.0
  0
LINE
  5
EE6D
  8
0
 10
4917.797046224774931
 20
268.914231931522977
 30
0.0
 11
4917.8238680089762056
 21
268.914231931522977
 31
0.0
  0
LINE
  5
EE6E
  8
0
 10
4917.8238680089762056
 20
268.914231931522977
 30
0.0
 11
4917.8353103971257951
 21
268.9193614138343946
 31
0.0
  0
ARC
  5
EE6F
  8
0
 10
4917.7897848211896417
 20
268.914297622657898
 30
0.0
 40
0.0072617007205678
 50
333.072698072278115
 51
359.4816811840731248
  0
ARC
  5
EE70
  8
0
 10
4917.7927235651186493
 20
268.912804951584917
 30
0.0
 40
0.003965599567496
 50
301.1213110104520183
 51
333.072698072275216
  0
ARC
  5
EE71
  8
0
 10
4917.8311353020008028
 20
268.9142698787342169
 30
0.0
 40
0.007267392098845
 50
180.2991753985965033
 51
202.8890976403542084
  0
ARC
  5
EE72
  8
0
 10
4917.8286101880057686
 20
268.9132037949955247
 30
0.0
 40
0.0045264551738752
 50
202.8890976403542084
 51
236.9416860530332087
  0
LINE
  5
EE73
  8
0
 10
4917.7438609341606934
 20
268.9173564421099059
 30
0.0
 11
4917.7449937793107893
 21
268.916848601522986
 31
0.0
  0
LINE
  5
EE74
  8
0
 10
4917.7449937793107893
 20
268.916848601522986
 30
0.0
 11
4917.7763616284746604
 21
268.916848601522986
 31
0.0
  0
LINE
  5
EE75
  8
0
 10
4917.7763616284746604
 20
268.916848601522986
 30
0.0
 11
4917.7850675525542101
 21
268.9207513605206827
 31
0.0
  0
ARC
  5
EE76
  8
0
 10
4917.7429441521180706
 20
268.9202434517849269
 30
0.0
 40
0.003965599567496
 50
301.1213110104520183
 51
317.5751470051176284
  0
ARC
  5
EE77
  8
0
 10
4917.7813558890011336
 20
268.9217083789342269
 30
0.0
 40
0.007267392098845
 50
193.1589644971662096
 51
202.8890976403542084
  0
ARC
  5
EE78
  8
0
 10
4917.7788307750060994
 20
268.9206422951954778
 30
0.0
 40
0.0045264551738752
 50
202.8890976403542084
 51
236.9416860530332087
  0
LINE
  5
EE79
  8
0
 10
4917.6928380332074084
 20
268.9104753823082206
 30
0.0
 11
4917.6952143663111201
 21
268.9094101013229761
 31
0.0
  0
LINE
  5
EE7A
  8
0
 10
4917.6952143663111201
 20
268.9094101013229761
 30
0.0
 11
4917.7265822154749912
 21
268.9094101013229761
 31
0.0
  0
LINE
  5
EE7B
  8
0
 10
4917.7265822154749912
 20
268.9094101013229761
 30
0.0
 11
4917.7422661401751611
 21
268.9164410124229789
 31
0.0
  0
LINE
  5
EE7C
  8
0
 10
4917.7422661401751611
 20
268.9164410124229789
 30
0.0
 11
4917.7409312869822315
 21
268.9170394107391076
 31
0.0
  0
LINE
  5
EE7D
  8
0
 10
4917.7181294883994269
 20
268.914231931522977
 30
0.0
 11
4917.7243091829750483
 21
268.914231931522977
 31
0.0
  0
LINE
  5
EE7E
  8
0
 10
4917.7243091829750483
 20
268.914231931522977
 30
0.0
 11
4917.7268609886650665
 21
268.9153758747257825
 31
0.0
  0
ARC
  5
EE7F
  8
0
 10
4917.6902259951903034
 20
268.914297622657898
 30
0.0
 40
0.0072617007205678
 50
333.072698072278115
 51
333.8649802034502727
  0
ARC
  5
EE80
  8
0
 10
4917.693164739119311
 20
268.912804951584917
 30
0.0
 40
0.003965599567496
 50
301.1213110104520183
 51
333.072698072275216
  0
ARC
  5
EE81
  8
0
 10
4917.731576476000555
 20
268.9142698787342169
 30
0.0
 40
0.007267392098845
 50
180.2991753985965033
 51
202.8890976403542084
  0
ARC
  5
EE82
  8
0
 10
4917.7290513620046113
 20
268.9132037949955247
 30
0.0
 40
0.0045264551738752
 50
202.8890976403542084
 51
236.9416860530332087
  0
LINE
  5
EE83
  8
0
 10
4917.744993779275319
 20
268.9011564232229716
 30
0.0
 11
4917.7293098545751491
 21
268.8941255121230256
 31
0.0
  0
LINE
  5
EE84
  8
0
 10
4917.7293098545751491
 20
268.8941255121230256
 30
0.0
 11
4917.7449937793107893
 21
268.8870946010230227
 31
0.0
  0
LINE
  5
EE85
  8
0
 10
4917.7449937793107893
 20
268.8870946010230227
 30
0.0
 11
4917.7763616284746604
 21
268.8870946010230227
 31
0.0
  0
LINE
  5
EE86
  8
0
 10
4917.7763616284746604
 20
268.8870946010230227
 30
0.0
 11
4917.7920455531739208
 21
268.8941255121230256
 31
0.0
  0
LINE
  5
EE87
  8
0
 10
4917.7920455531739208
 20
268.8941255121230256
 30
0.0
 11
4917.7763616284746604
 21
268.9011564232229716
 31
0.0
  0
LINE
  5
EE88
  8
0
 10
4917.7763616284746604
 20
268.9011564232229716
 30
0.0
 11
4917.744993779275319
 21
268.9011564232229716
 31
0.0
  0
LINE
  5
EE89
  8
0
 10
4917.7472668117752619
 20
268.8919164312230237
 30
0.0
 11
4917.7358244236229439
 21
268.8970459135343845
 31
0.0
  0
LINE
  5
EE8A
  8
0
 10
4917.7472668117752619
 20
268.8919164312230237
 30
0.0
 11
4917.7740885959747175
 21
268.8919164312230237
 31
0.0
  0
LINE
  5
EE8B
  8
0
 10
4917.7740885959747175
 20
268.8919164312230237
 30
0.0
 11
4917.7855309841270355
 21
268.8970459135343845
 31
0.0
  0
ARC
  5
EE8C
  8
0
 10
4917.7400054081899725
 20
268.8919821223578879
 30
0.0
 40
0.0072617007205678
 50
333.072698072278115
 51
359.4816811840731248
  0
ARC
  5
EE8D
  8
0
 10
4917.7429441521180706
 20
268.8904894512849069
 30
0.0
 40
0.003965599567496
 50
301.1213110104520183
 51
333.072698072275216
  0
ARC
  5
EE8E
  8
0
 10
4917.7813558890011336
 20
268.8919543784342068
 30
0.0
 40
0.007267392098845
 50
180.2991753985965033
 51
202.8890976403542084
  0
ARC
  5
EE8F
  8
0
 10
4917.7788307750060994
 20
268.8908882946955146
 30
0.0
 40
0.0045264551738752
 50
202.8890976403542084
 51
236.9416860530332087
  0
LINE
  5
EE90
  8
0
 10
4917.744993779275319
 20
268.8862794230229838
 30
0.0
 11
4917.7293098545751491
 21
268.8792485119229809
 31
0.0
  0
LINE
  5
EE91
  8
0
 10
4917.7293098545751491
 20
268.8792485119229809
 30
0.0
 11
4917.7449937793107893
 21
268.8722176008229781
 31
0.0
  0
LINE
  5
EE92
  8
0
 10
4917.7449937793107893
 20
268.8722176008229781
 30
0.0
 11
4917.7763616284746604
 21
268.8722176008229781
 31
0.0
  0
LINE
  5
EE93
  8
0
 10
4917.7763616284746604
 20
268.8722176008229781
 30
0.0
 11
4917.7920455531739208
 21
268.8792485119229809
 31
0.0
  0
LINE
  5
EE94
  8
0
 10
4917.7920455531739208
 20
268.8792485119229809
 30
0.0
 11
4917.7763616284746604
 21
268.8862794230229838
 31
0.0
  0
LINE
  5
EE95
  8
0
 10
4917.7763616284746604
 20
268.8862794230229838
 30
0.0
 11
4917.744993779275319
 21
268.8862794230229838
 31
0.0
  0
LINE
  5
EE96
  8
0
 10
4917.7472668117752619
 20
268.877039431022979
 30
0.0
 11
4917.7358244236229439
 21
268.8821689133343966
 31
0.0
  0
LINE
  5
EE97
  8
0
 10
4917.7472668117752619
 20
268.877039431022979
 30
0.0
 11
4917.7740885959747175
 21
268.877039431022979
 31
0.0
  0
LINE
  5
EE98
  8
0
 10
4917.7740885959747175
 20
268.877039431022979
 30
0.0
 11
4917.7855309841270355
 21
268.8821689133343966
 31
0.0
  0
ARC
  5
EE99
  8
0
 10
4917.7400054081899725
 20
268.8771051221579
 30
0.0
 40
0.0072617007205678
 50
333.072698072278115
 51
359.4816811840731248
  0
ARC
  5
EE9A
  8
0
 10
4917.7429441521180706
 20
268.875612451084919
 30
0.0
 40
0.003965599567496
 50
301.1213110104520183
 51
333.072698072275216
  0
ARC
  5
EE9B
  8
0
 10
4917.7813558890011336
 20
268.8770773782342189
 30
0.0
 40
0.007267392098845
 50
180.2991753985965033
 51
202.8890976403542084
  0
ARC
  5
EE9C
  8
0
 10
4917.7788307750060994
 20
268.8760112944955267
 30
0.0
 40
0.0045264551738752
 50
202.8890976403542084
 51
236.9416860530332087
  0
LINE
  5
EE9D
  8
0
 10
4917.744993779275319
 20
268.8714024227230084
 30
0.0
 11
4917.7293098545751491
 21
268.8643715116230055
 31
0.0
  0
LINE
  5
EE9E
  8
0
 10
4917.7293098545751491
 20
268.8643715116230055
 30
0.0
 11
4917.7449937793107893
 21
268.8573406005230026
 31
0.0
  0
LINE
  5
EE9F
  8
0
 10
4917.7449937793107893
 20
268.8573406005230026
 30
0.0
 11
4917.7763616284746604
 21
268.8573406005230026
 31
0.0
  0
LINE
  5
EEA0
  8
0
 10
4917.7763616284746604
 20
268.8573406005230026
 30
0.0
 11
4917.7920455531739208
 21
268.8643715116230055
 31
0.0
  0
LINE
  5
EEA1
  8
0
 10
4917.7920455531739208
 20
268.8643715116230055
 30
0.0
 11
4917.7763616284746604
 21
268.8714024227230084
 31
0.0
  0
LINE
  5
EEA2
  8
0
 10
4917.7763616284746604
 20
268.8714024227230084
 30
0.0
 11
4917.744993779275319
 21
268.8714024227230084
 31
0.0
  0
LINE
  5
EEA3
  8
0
 10
4917.7472668117752619
 20
268.8621624307230036
 30
0.0
 11
4917.7358244236229439
 21
268.8672919130344212
 31
0.0
  0
LINE
  5
EEA4
  8
0
 10
4917.7472668117752619
 20
268.8621624307230036
 30
0.0
 11
4917.7740885959747175
 21
268.8621624307230036
 31
0.0
  0
LINE
  5
EEA5
  8
0
 10
4917.7740885959747175
 20
268.8621624307230036
 30
0.0
 11
4917.7855309841270355
 21
268.8672919130344212
 31
0.0
  0
ARC
  5
EEA6
  8
0
 10
4917.7400054081899725
 20
268.8622281218579246
 30
0.0
 40
0.0072617007205678
 50
333.072698072278115
 51
359.4816811840731248
  0
ARC
  5
EEA7
  8
0
 10
4917.7429441521180706
 20
268.8607354507848868
 30
0.0
 40
0.003965599567496
 50
301.1213110104520183
 51
333.072698072275216
  0
ARC
  5
EEA8
  8
0
 10
4917.7813558890011336
 20
268.8622003779343004
 30
0.0
 40
0.007267392098845
 50
180.2991753985965033
 51
202.8890976403542084
  0
ARC
  5
EEA9
  8
0
 10
4917.7788307750060994
 20
268.8611342941954945
 30
0.0
 40
0.0045264551738752
 50
202.8890976403542084
 51
236.9416860530332087
  0
LINE
  5
EEAA
  8
0
 10
4917.744993779275319
 20
268.8565254225230206
 30
0.0
 11
4917.7293098545751491
 21
268.8494945114230177
 31
0.0
  0
LINE
  5
EEAB
  8
0
 10
4917.7293098545751491
 20
268.8494945114230177
 30
0.0
 11
4917.7449937793107893
 21
268.8424636003230148
 31
0.0
  0
LINE
  5
EEAC
  8
0
 10
4917.7449937793107893
 20
268.8424636003230148
 30
0.0
 11
4917.7763616284746604
 21
268.8424636003230148
 31
0.0
  0
LINE
  5
EEAD
  8
0
 10
4917.7763616284746604
 20
268.8424636003230148
 30
0.0
 11
4917.7920455531739208
 21
268.8494945114230177
 31
0.0
  0
LINE
  5
EEAE
  8
0
 10
4917.7920455531739208
 20
268.8494945114230177
 30
0.0
 11
4917.7763616284746604
 21
268.8565254225230206
 31
0.0
  0
LINE
  5
EEAF
  8
0
 10
4917.7763616284746604
 20
268.8565254225230206
 30
0.0
 11
4917.744993779275319
 21
268.8565254225230206
 31
0.0
  0
LINE
  5
EEB0
  8
0
 10
4917.7472668117752619
 20
268.8472854305230157
 30
0.0
 11
4917.7358244236229439
 21
268.8524149128343765
 31
0.0
  0
LINE
  5
EEB1
  8
0
 10
4917.7472668117752619
 20
268.8472854305230157
 30
0.0
 11
4917.7740885959747175
 21
268.8472854305230157
 31
0.0
  0
LINE
  5
EEB2
  8
0
 10
4917.7740885959747175
 20
268.8472854305230157
 30
0.0
 11
4917.7855309841270355
 21
268.8524149128343765
 31
0.0
  0
ARC
  5
EEB3
  8
0
 10
4917.7400054081899725
 20
268.84735112165788
 30
0.0
 40
0.0072617007205678
 50
333.072698072278115
 51
359.4816811840731248
  0
ARC
  5
EEB4
  8
0
 10
4917.7429441521180706
 20
268.8458584505848989
 30
0.0
 40
0.003965599567496
 50
301.1213110104520183
 51
333.072698072275216
  0
ARC
  5
EEB5
  8
0
 10
4917.7813558890011336
 20
268.8473233777341989
 30
0.0
 40
0.007267392098845
 50
180.2991753985965033
 51
202.8890976403542084
  0
ARC
  5
EEB6
  8
0
 10
4917.7788307750060994
 20
268.8462572939955066
 30
0.0
 40
0.0045264551738752
 50
202.8890976403542084
 51
236.9416860530332087
  0
LINE
  5
EEB7
  8
0
 10
4917.744993779275319
 20
268.8416484223229759
 30
0.0
 11
4917.7293098545751491
 21
268.834617511222973
 31
0.0
  0
LINE
  5
EEB8
  8
0
 10
4917.7293098545751491
 20
268.834617511222973
 30
0.0
 11
4917.7449937793107893
 21
268.827586600123027
 31
0.0
  0
LINE
  5
EEB9
  8
0
 10
4917.7449937793107893
 20
268.827586600123027
 30
0.0
 11
4917.7763616284746604
 21
268.827586600123027
 31
0.0
  0
LINE
  5
EEBA
  8
0
 10
4917.7763616284746604
 20
268.827586600123027
 30
0.0
 11
4917.7920455531739208
 21
268.834617511222973
 31
0.0
  0
LINE
  5
EEBB
  8
0
 10
4917.7920455531739208
 20
268.834617511222973
 30
0.0
 11
4917.7763616284746604
 21
268.8416484223229759
 31
0.0
  0
LINE
  5
EEBC
  8
0
 10
4917.7763616284746604
 20
268.8416484223229759
 30
0.0
 11
4917.744993779275319
 21
268.8416484223229759
 31
0.0
  0
LINE
  5
EEBD
  8
0
 10
4917.7472668117752619
 20
268.8324084303230279
 30
0.0
 11
4917.7358244236229439
 21
268.8375379126343887
 31
0.0
  0
LINE
  5
EEBE
  8
0
 10
4917.7472668117752619
 20
268.8324084303230279
 30
0.0
 11
4917.7740885959747175
 21
268.8324084303230279
 31
0.0
  0
LINE
  5
EEBF
  8
0
 10
4917.7740885959747175
 20
268.8324084303230279
 30
0.0
 11
4917.7855309841270355
 21
268.8375379126343887
 31
0.0
  0
ARC
  5
EEC0
  8
0
 10
4917.7400054081899725
 20
268.8324741214578921
 30
0.0
 40
0.0072617007205678
 50
333.072698072278115
 51
359.4816811840731248
  0
ARC
  5
EEC1
  8
0
 10
4917.7429441521180706
 20
268.8309814503849111
 30
0.0
 40
0.003965599567496
 50
301.1213110104520183
 51
333.072698072275216
  0
ARC
  5
EEC2
  8
0
 10
4917.7813558890011336
 20
268.832446377534211
 30
0.0
 40
0.007267392098845
 50
180.2991753985965033
 51
202.8890976403542084
  0
ARC
  5
EEC3
  8
0
 10
4917.7788307750060994
 20
268.8313802937955188
 30
0.0
 40
0.0045264551738752
 50
202.8890976403542084
 51
236.9416860530332087
  0
LINE
  5
EEC4
  8
0
 10
4917.7449937792252967
 20
268.8273462348229828
 30
0.0
 11
4917.7293098545251269
 21
268.8203153237229799
 31
0.0
  0
LINE
  5
EEC5
  8
0
 10
4917.7293098545251269
 20
268.8203153237229799
 30
0.0
 11
4917.744993779260767
 21
268.813284412622977
 31
0.0
  0
LINE
  5
EEC6
  8
0
 10
4917.744993779260767
 20
268.813284412622977
 30
0.0
 11
4917.7763616284237287
 21
268.813284412622977
 31
0.0
  0
LINE
  5
EEC7
  8
0
 10
4917.7763616284237287
 20
268.813284412622977
 30
0.0
 11
4917.7920455531248081
 21
268.8203153237229799
 31
0.0
  0
LINE
  5
EEC8
  8
0
 10
4917.7920455531248081
 20
268.8203153237229799
 30
0.0
 11
4917.7763616284237287
 21
268.8273462348229828
 31
0.0
  0
LINE
  5
EEC9
  8
0
 10
4917.7763616284237287
 20
268.8273462348229828
 30
0.0
 11
4917.7449937792252967
 21
268.8273462348229828
 31
0.0
  0
LINE
  5
EECA
  8
0
 10
4917.7472668117252397
 20
268.8181062428229779
 30
0.0
 11
4917.7358244235729217
 21
268.8232357251343956
 31
0.0
  0
LINE
  5
EECB
  8
0
 10
4917.7472668117252397
 20
268.8181062428229779
 30
0.0
 11
4917.7740885959237858
 21
268.8181062428229779
 31
0.0
  0
LINE
  5
EECC
  8
0
 10
4917.7740885959237858
 20
268.8181062428229779
 30
0.0
 11
4917.7855309840770133
 21
268.8232357251343956
 31
0.0
  0
ARC
  5
EECD
  8
0
 10
4917.7400054081399503
 20
268.818171933957899
 30
0.0
 40
0.0072617007205678
 50
333.072698072278115
 51
359.4816811840731248
  0
ARC
  5
EECE
  8
0
 10
4917.7429441520680484
 20
268.816679262884918
 30
0.0
 40
0.003965599567496
 50
301.1213110104520183
 51
333.072698072275216
  0
ARC
  5
EECF
  8
0
 10
4917.7813558889511114
 20
268.8181441900342179
 30
0.0
 40
0.007267392098845
 50
180.2991753985965033
 51
202.8890976403542084
  0
ARC
  5
EED0
  8
0
 10
4917.7788307749560772
 20
268.8170781062955257
 30
0.0
 40
0.0045264551738752
 50
202.8890976403542084
 51
236.9416860530332087
  0
LINE
  5
EED1
  8
0
 10
4917.744993779275319
 20
268.8118944218230126
 30
0.0
 11
4917.7293098545751491
 21
268.8048635107230098
 31
0.0
  0
LINE
  5
EED2
  8
0
 10
4917.7293098545751491
 20
268.8048635107230098
 30
0.0
 11
4917.7449937793107893
 21
268.7978325996230069
 31
0.0
  0
LINE
  5
EED3
  8
0
 10
4917.7449937793107893
 20
268.7978325996230069
 30
0.0
 11
4917.7763616284746604
 21
268.7978325996230069
 31
0.0
  0
LINE
  5
EED4
  8
0
 10
4917.7763616284746604
 20
268.7978325996230069
 30
0.0
 11
4917.7920455531739208
 21
268.8048635107230098
 31
0.0
  0
LINE
  5
EED5
  8
0
 10
4917.7920455531739208
 20
268.8048635107230098
 30
0.0
 11
4917.7763616284746604
 21
268.8118944218230126
 31
0.0
  0
LINE
  5
EED6
  8
0
 10
4917.7763616284746604
 20
268.8118944218230126
 30
0.0
 11
4917.744993779275319
 21
268.8118944218230126
 31
0.0
  0
LINE
  5
EED7
  8
0
 10
4917.7472668117752619
 20
268.8026544298230078
 30
0.0
 11
4917.7358244236229439
 21
268.8077839121344255
 31
0.0
  0
LINE
  5
EED8
  8
0
 10
4917.7472668117752619
 20
268.8026544298230078
 30
0.0
 11
4917.7740885959747175
 21
268.8026544298230078
 31
0.0
  0
LINE
  5
EED9
  8
0
 10
4917.7740885959747175
 20
268.8026544298230078
 30
0.0
 11
4917.7855309841270355
 21
268.8077839121344255
 31
0.0
  0
ARC
  5
EEDA
  8
0
 10
4917.7400054081899725
 20
268.802720120957872
 30
0.0
 40
0.0072617007205678
 50
333.072698072278115
 51
359.4816811840731248
  0
ARC
  5
EEDB
  8
0
 10
4917.7429441521180706
 20
268.801227449884891
 30
0.0
 40
0.003965599567496
 50
301.1213110104520183
 51
333.072698072275216
  0
ARC
  5
EEDC
  8
0
 10
4917.7813558890011336
 20
268.8026923770343046
 30
0.0
 40
0.007267392098845
 50
180.2991753985965033
 51
202.8890976403542084
  0
ARC
  5
EEDD
  8
0
 10
4917.7788307750060994
 20
268.8016262932954987
 30
0.0
 40
0.0045264551738752
 50
202.8890976403542084
 51
236.9416860530332087
  0
LINE
  5
EEDE
  8
0
 10
4917.7947731922749881
 20
268.8044559217229903
 30
0.0
 11
4917.7790892675748182
 21
268.7974250106229874
 31
0.0
  0
LINE
  5
EEDF
  8
0
 10
4917.7790892675748182
 20
268.7974250106229874
 30
0.0
 11
4917.7947731923113679
 21
268.7903940995229846
 31
0.0
  0
LINE
  5
EEE0
  8
0
 10
4917.7947731923113679
 20
268.7903940995229846
 30
0.0
 11
4917.8261410414761485
 21
268.7903940995229846
 31
0.0
  0
LINE
  5
EEE1
  8
0
 10
4917.8261410414761485
 20
268.7903940995229846
 30
0.0
 11
4917.8418249661735899
 21
268.7974250106229874
 31
0.0
  0
LINE
  5
EEE2
  8
0
 10
4917.8418249661735899
 20
268.7974250106229874
 30
0.0
 11
4917.8261410414761485
 21
268.8044559217229903
 31
0.0
  0
LINE
  5
EEE3
  8
0
 10
4917.8261410414761485
 20
268.8044559217229903
 30
0.0
 11
4917.7947731922749881
 21
268.8044559217229903
 31
0.0
  0
LINE
  5
EEE4
  8
0
 10
4917.797046224774931
 20
268.7952159297229855
 30
0.0
 11
4917.785603836622613
 21
268.8003454120344031
 31
0.0
  0
LINE
  5
EEE5
  8
0
 10
4917.797046224774931
 20
268.7952159297229855
 30
0.0
 11
4917.8238680089762056
 21
268.7952159297229855
 31
0.0
  0
LINE
  5
EEE6
  8
0
 10
4917.8238680089762056
 20
268.7952159297229855
 30
0.0
 11
4917.8353103971257951
 21
268.8003454120344031
 31
0.0
  0
ARC
  5
EEE7
  8
0
 10
4917.7897848211896417
 20
268.7952816208579065
 30
0.0
 40
0.0072617007205678
 50
333.072698072278115
 51
359.4816811840731248
  0
ARC
  5
EEE8
  8
0
 10
4917.7927235651186493
 20
268.7937889497849255
 30
0.0
 40
0.003965599567496
 50
301.1213110104520183
 51
333.072698072275216
  0
ARC
  5
EEE9
  8
0
 10
4917.8311353020008028
 20
268.7952538769342254
 30
0.0
 40
0.007267392098845
 50
180.2991753985965033
 51
202.8890976403542084
  0
ARC
  5
EEEA
  8
0
 10
4917.8286101880057686
 20
268.7941877931954764
 30
0.0
 40
0.0045264551738752
 50
202.8890976403542084
 51
236.9416860530332087
  0
LINE
  5
EEEB
  8
0
 10
4917.7947731922749881
 20
268.8193329219229781
 30
0.0
 11
4917.7790892675748182
 21
268.8123020108229753
 31
0.0
  0
LINE
  5
EEEC
  8
0
 10
4917.7790892675748182
 20
268.8123020108229753
 30
0.0
 11
4917.7947731923113679
 21
268.8052710997229724
 31
0.0
  0
LINE
  5
EEED
  8
0
 10
4917.7947731923113679
 20
268.8052710997229724
 30
0.0
 11
4917.8261410414761485
 21
268.8052710997229724
 31
0.0
  0
LINE
  5
EEEE
  8
0
 10
4917.8261410414761485
 20
268.8052710997229724
 30
0.0
 11
4917.8418249661735899
 21
268.8123020108229753
 31
0.0
  0
LINE
  5
EEEF
  8
0
 10
4917.8418249661735899
 20
268.8123020108229753
 30
0.0
 11
4917.8261410414761485
 21
268.8193329219229781
 31
0.0
  0
LINE
  5
EEF0
  8
0
 10
4917.8261410414761485
 20
268.8193329219229781
 30
0.0
 11
4917.7947731922749881
 21
268.8193329219229781
 31
0.0
  0
LINE
  5
EEF1
  8
0
 10
4917.797046224774931
 20
268.8100929299229733
 30
0.0
 11
4917.785603836622613
 21
268.815222412234391
 31
0.0
  0
LINE
  5
EEF2
  8
0
 10
4917.797046224774931
 20
268.8100929299229733
 30
0.0
 11
4917.8238680089762056
 21
268.8100929299229733
 31
0.0
  0
LINE
  5
EEF3
  8
0
 10
4917.8238680089762056
 20
268.8100929299229733
 30
0.0
 11
4917.8353103971257951
 21
268.815222412234391
 31
0.0
  0
ARC
  5
EEF4
  8
0
 10
4917.7897848211896417
 20
268.8101586210578944
 30
0.0
 40
0.0072617007205678
 50
333.072698072278115
 51
359.4816811840731248
  0
ARC
  5
EEF5
  8
0
 10
4917.7927235651186493
 20
268.8086659499849134
 30
0.0
 40
0.003965599567496
 50
301.1213110104520183
 51
333.072698072275216
  0
ARC
  5
EEF6
  8
0
 10
4917.8311353020008028
 20
268.8101308771342133
 30
0.0
 40
0.007267392098845
 50
180.2991753985965033
 51
202.8890976403542084
  0
ARC
  5
EEF7
  8
0
 10
4917.8286101880057686
 20
268.8090647933955211
 30
0.0
 40
0.0045264551738752
 50
202.8890976403542084
 51
236.9416860530332087
  0
LINE
  5
EEF8
  8
0
 10
4917.7947731922749881
 20
268.8342099222230104
 30
0.0
 11
4917.7790892675748182
 21
268.8271790111230075
 31
0.0
  0
LINE
  5
EEF9
  8
0
 10
4917.7790892675748182
 20
268.8271790111230075
 30
0.0
 11
4917.7947731923113679
 21
268.8201481000230046
 31
0.0
  0
LINE
  5
EEFA
  8
0
 10
4917.7947731923113679
 20
268.8201481000230046
 30
0.0
 11
4917.8261410414761485
 21
268.8201481000230046
 31
0.0
  0
LINE
  5
EEFB
  8
0
 10
4917.8261410414761485
 20
268.8201481000230046
 30
0.0
 11
4917.8418249661735899
 21
268.8271790111230075
 31
0.0
  0
LINE
  5
EEFC
  8
0
 10
4917.8418249661735899
 20
268.8271790111230075
 30
0.0
 11
4917.8261410414761485
 21
268.8342099222230104
 31
0.0
  0
LINE
  5
EEFD
  8
0
 10
4917.8261410414761485
 20
268.8342099222230104
 30
0.0
 11
4917.7947731922749881
 21
268.8342099222230104
 31
0.0
  0
LINE
  5
EEFE
  8
0
 10
4917.797046224774931
 20
268.8249699302230056
 30
0.0
 11
4917.785603836622613
 21
268.8300994125344232
 31
0.0
  0
LINE
  5
EEFF
  8
0
 10
4917.797046224774931
 20
268.8249699302230056
 30
0.0
 11
4917.8238680089762056
 21
268.8249699302230056
 31
0.0
  0
LINE
  5
EF00
  8
0
 10
4917.8238680089762056
 20
268.8249699302230056
 30
0.0
 11
4917.8353103971257951
 21
268.8300994125344232
 31
0.0
  0
ARC
  5
EF01
  8
0
 10
4917.7897848211896417
 20
268.8250356213579266
 30
0.0
 40
0.0072617007205678
 50
333.072698072278115
 51
359.4816811840731248
  0
ARC
  5
EF02
  8
0
 10
4917.7927235651186493
 20
268.8235429502848888
 30
0.0
 40
0.003965599567496
 50
301.1213110104520183
 51
333.072698072275216
  0
ARC
  5
EF03
  8
0
 10
4917.8311353020008028
 20
268.8250078774343024
 30
0.0
 40
0.007267392098845
 50
180.2991753985965033
 51
202.8890976403542084
  0
ARC
  5
EF04
  8
0
 10
4917.8286101880057686
 20
268.8239417936954965
 30
0.0
 40
0.0045264551738752
 50
202.8890976403542084
 51
236.9416860530332087
  0
LINE
  5
EF05
  8
0
 10
4917.7947731922749881
 20
268.8490869224229982
 30
0.0
 11
4917.7790892675748182
 21
268.8420560113229953
 31
0.0
  0
LINE
  5
EF06
  8
0
 10
4917.7790892675748182
 20
268.8420560113229953
 30
0.0
 11
4917.7947731923113679
 21
268.8350251002229925
 31
0.0
  0
LINE
  5
EF07
  8
0
 10
4917.7947731923113679
 20
268.8350251002229925
 30
0.0
 11
4917.8261410414761485
 21
268.8350251002229925
 31
0.0
  0
LINE
  5
EF08
  8
0
 10
4917.8261410414761485
 20
268.8350251002229925
 30
0.0
 11
4917.8418249661735899
 21
268.8420560113229953
 31
0.0
  0
LINE
  5
EF09
  8
0
 10
4917.8418249661735899
 20
268.8420560113229953
 30
0.0
 11
4917.8261410414761485
 21
268.8490869224229982
 31
0.0
  0
LINE
  5
EF0A
  8
0
 10
4917.8261410414761485
 20
268.8490869224229982
 30
0.0
 11
4917.7947731922749881
 21
268.8490869224229982
 31
0.0
  0
LINE
  5
EF0B
  8
0
 10
4917.797046224774931
 20
268.8398469304229934
 30
0.0
 11
4917.785603836622613
 21
268.844976412734411
 31
0.0
  0
LINE
  5
EF0C
  8
0
 10
4917.797046224774931
 20
268.8398469304229934
 30
0.0
 11
4917.8238680089762056
 21
268.8398469304229934
 31
0.0
  0
LINE
  5
EF0D
  8
0
 10
4917.8238680089762056
 20
268.8398469304229934
 30
0.0
 11
4917.8353103971257951
 21
268.844976412734411
 31
0.0
  0
ARC
  5
EF0E
  8
0
 10
4917.7897848211896417
 20
268.8399126215579145
 30
0.0
 40
0.0072617007205678
 50
333.072698072278115
 51
359.4816811840731248
  0
ARC
  5
EF0F
  8
0
 10
4917.7927235651186493
 20
268.8384199504848766
 30
0.0
 40
0.003965599567496
 50
301.1213110104520183
 51
333.072698072275216
  0
ARC
  5
EF10
  8
0
 10
4917.8311353020008028
 20
268.8398848776341765
 30
0.0
 40
0.007267392098845
 50
180.2991753985965033
 51
202.8890976403542084
  0
ARC
  5
EF11
  8
0
 10
4917.8286101880057686
 20
268.8388187938954843
 30
0.0
 40
0.0045264551738752
 50
202.8890976403542084
 51
236.9416860530332087
  0
LINE
  5
EF12
  8
0
 10
4917.7947731922749881
 20
268.863963922622986
 30
0.0
 11
4917.7790892675748182
 21
268.8569330115229832
 31
0.0
  0
LINE
  5
EF13
  8
0
 10
4917.7790892675748182
 20
268.8569330115229832
 30
0.0
 11
4917.7947731923113679
 21
268.8499021004229803
 31
0.0
  0
LINE
  5
EF14
  8
0
 10
4917.7947731923113679
 20
268.8499021004229803
 30
0.0
 11
4917.8261410414761485
 21
268.8499021004229803
 31
0.0
  0
LINE
  5
EF15
  8
0
 10
4917.8261410414761485
 20
268.8499021004229803
 30
0.0
 11
4917.8418249661735899
 21
268.8569330115229832
 31
0.0
  0
LINE
  5
EF16
  8
0
 10
4917.8418249661735899
 20
268.8569330115229832
 30
0.0
 11
4917.8261410414761485
 21
268.863963922622986
 31
0.0
  0
LINE
  5
EF17
  8
0
 10
4917.8261410414761485
 20
268.863963922622986
 30
0.0
 11
4917.7947731922749881
 21
268.863963922622986
 31
0.0
  0
LINE
  5
EF18
  8
0
 10
4917.797046224774931
 20
268.8547239306229812
 30
0.0
 11
4917.785603836622613
 21
268.8598534129343989
 31
0.0
  0
LINE
  5
EF19
  8
0
 10
4917.797046224774931
 20
268.8547239306229812
 30
0.0
 11
4917.8238680089762056
 21
268.8547239306229812
 31
0.0
  0
LINE
  5
EF1A
  8
0
 10
4917.8238680089762056
 20
268.8547239306229812
 30
0.0
 11
4917.8353103971257951
 21
268.8598534129343989
 31
0.0
  0
ARC
  5
EF1B
  8
0
 10
4917.7897848211896417
 20
268.8547896217579023
 30
0.0
 40
0.0072617007205678
 50
333.072698072278115
 51
359.4816811840731248
  0
ARC
  5
EF1C
  8
0
 10
4917.7927235651186493
 20
268.8532969506849213
 30
0.0
 40
0.003965599567496
 50
301.1213110104520183
 51
333.072698072275216
  0
ARC
  5
EF1D
  8
0
 10
4917.8311353020008028
 20
268.8547618778342212
 30
0.0
 40
0.007267392098845
 50
180.2991753985965033
 51
202.8890976403542084
  0
ARC
  5
EF1E
  8
0
 10
4917.8286101880057686
 20
268.8536957940954721
 30
0.0
 40
0.0045264551738752
 50
202.8890976403542084
 51
236.9416860530332087
  0
LINE
  5
EF1F
  8
0
 10
4917.7947731922749881
 20
268.8788409229230183
 30
0.0
 11
4917.7790892675748182
 21
268.8718100118230154
 31
0.0
  0
LINE
  5
EF20
  8
0
 10
4917.7790892675748182
 20
268.8718100118230154
 30
0.0
 11
4917.7947731923113679
 21
268.8647791007230126
 31
0.0
  0
LINE
  5
EF21
  8
0
 10
4917.7947731923113679
 20
268.8647791007230126
 30
0.0
 11
4917.8261410414761485
 21
268.8647791007230126
 31
0.0
  0
LINE
  5
EF22
  8
0
 10
4917.8261410414761485
 20
268.8647791007230126
 30
0.0
 11
4917.8418249661735899
 21
268.8718100118230154
 31
0.0
  0
LINE
  5
EF23
  8
0
 10
4917.8418249661735899
 20
268.8718100118230154
 30
0.0
 11
4917.8261410414761485
 21
268.8788409229230183
 31
0.0
  0
LINE
  5
EF24
  8
0
 10
4917.8261410414761485
 20
268.8788409229230183
 30
0.0
 11
4917.7947731922749881
 21
268.8788409229230183
 31
0.0
  0
LINE
  5
EF25
  8
0
 10
4917.797046224774931
 20
268.8696009309230135
 30
0.0
 11
4917.785603836622613
 21
268.8747304132343743
 31
0.0
  0
LINE
  5
EF26
  8
0
 10
4917.797046224774931
 20
268.8696009309230135
 30
0.0
 11
4917.8238680089762056
 21
268.8696009309230135
 31
0.0
  0
LINE
  5
EF27
  8
0
 10
4917.8238680089762056
 20
268.8696009309230135
 30
0.0
 11
4917.8353103971257951
 21
268.8747304132343743
 31
0.0
  0
ARC
  5
EF28
  8
0
 10
4917.7897848211896417
 20
268.8696666220578777
 30
0.0
 40
0.0072617007205678
 50
333.072698072278115
 51
359.4816811840731248
  0
ARC
  5
EF29
  8
0
 10
4917.7927235651186493
 20
268.8681739509848967
 30
0.0
 40
0.003965599567496
 50
301.1213110104520183
 51
333.072698072275216
  0
ARC
  5
EF2A
  8
0
 10
4917.8311353020008028
 20
268.8696388781341966
 30
0.0
 40
0.007267392098845
 50
180.2991753985965033
 51
202.8890976403542084
  0
ARC
  5
EF2B
  8
0
 10
4917.8286101880057686
 20
268.8685727943955044
 30
0.0
 40
0.0045264551738752
 50
202.8890976403542084
 51
236.9416860530332087
  0
LINE
  5
EF2C
  8
0
 10
4917.7947731922749881
 20
268.8937179231230061
 30
0.0
 11
4917.7790892675748182
 21
268.8866870120230033
 31
0.0
  0
LINE
  5
EF2D
  8
0
 10
4917.7790892675748182
 20
268.8866870120230033
 30
0.0
 11
4917.7947731923113679
 21
268.8796561009230004
 31
0.0
  0
LINE
  5
EF2E
  8
0
 10
4917.7947731923113679
 20
268.8796561009230004
 30
0.0
 11
4917.8261410414761485
 21
268.8796561009230004
 31
0.0
  0
LINE
  5
EF2F
  8
0
 10
4917.8261410414761485
 20
268.8796561009230004
 30
0.0
 11
4917.8418249661735899
 21
268.8866870120230033
 31
0.0
  0
LINE
  5
EF30
  8
0
 10
4917.8418249661735899
 20
268.8866870120230033
 30
0.0
 11
4917.8261410414761485
 21
268.8937179231230061
 31
0.0
  0
LINE
  5
EF31
  8
0
 10
4917.8261410414761485
 20
268.8937179231230061
 30
0.0
 11
4917.7947731922749881
 21
268.8937179231230061
 31
0.0
  0
LINE
  5
EF32
  8
0
 10
4917.797046224774931
 20
268.8844779311230013
 30
0.0
 11
4917.785603836622613
 21
268.889607413434419
 31
0.0
  0
LINE
  5
EF33
  8
0
 10
4917.797046224774931
 20
268.8844779311230013
 30
0.0
 11
4917.8238680089762056
 21
268.8844779311230013
 31
0.0
  0
LINE
  5
EF34
  8
0
 10
4917.8238680089762056
 20
268.8844779311230013
 30
0.0
 11
4917.8353103971257951
 21
268.889607413434419
 31
0.0
  0
ARC
  5
EF35
  8
0
 10
4917.7897848211896417
 20
268.8845436222579224
 30
0.0
 40
0.0072617007205678
 50
333.072698072278115
 51
359.4816811840731248
  0
ARC
  5
EF36
  8
0
 10
4917.7927235651186493
 20
268.8830509511848845
 30
0.0
 40
0.003965599567496
 50
301.1213110104520183
 51
333.072698072275216
  0
ARC
  5
EF37
  8
0
 10
4917.8311353020008028
 20
268.8845158783342981
 30
0.0
 40
0.007267392098845
 50
180.2991753985965033
 51
202.8890976403542084
  0
ARC
  5
EF38
  8
0
 10
4917.8286101880057686
 20
268.8834497945954922
 30
0.0
 40
0.0045264551738752
 50
202.8890976403542084
 51
236.9416860530332087
  0
LINE
  5
EF39
  8
0
 10
4917.7947731922749881
 20
268.908594923322994
 30
0.0
 11
4917.7790892675748182
 21
268.9015640122229911
 31
0.0
  0
LINE
  5
EF3A
  8
0
 10
4917.7790892675748182
 20
268.9015640122229911
 30
0.0
 11
4917.7947731923113679
 21
268.8945331011229882
 31
0.0
  0
LINE
  5
EF3B
  8
0
 10
4917.7947731923113679
 20
268.8945331011229882
 30
0.0
 11
4917.8261410414761485
 21
268.8945331011229882
 31
0.0
  0
LINE
  5
EF3C
  8
0
 10
4917.8261410414761485
 20
268.8945331011229882
 30
0.0
 11
4917.8418249661735899
 21
268.9015640122229911
 31
0.0
  0
LINE
  5
EF3D
  8
0
 10
4917.8418249661735899
 20
268.9015640122229911
 30
0.0
 11
4917.8261410414761485
 21
268.908594923322994
 31
0.0
  0
LINE
  5
EF3E
  8
0
 10
4917.8261410414761485
 20
268.908594923322994
 30
0.0
 11
4917.7947731922749881
 21
268.908594923322994
 31
0.0
  0
LINE
  5
EF3F
  8
0
 10
4917.797046224774931
 20
268.8993549313229892
 30
0.0
 11
4917.785603836622613
 21
268.9044844136344068
 31
0.0
  0
LINE
  5
EF40
  8
0
 10
4917.797046224774931
 20
268.8993549313229892
 30
0.0
 11
4917.8238680089762056
 21
268.8993549313229892
 31
0.0
  0
LINE
  5
EF41
  8
0
 10
4917.8238680089762056
 20
268.8993549313229892
 30
0.0
 11
4917.8353103971257951
 21
268.9044844136344068
 31
0.0
  0
ARC
  5
EF42
  8
0
 10
4917.7897848211896417
 20
268.8994206224579102
 30
0.0
 40
0.0072617007205678
 50
333.072698072278115
 51
359.4816811840731248
  0
ARC
  5
EF43
  8
0
 10
4917.7927235651186493
 20
268.8979279513848724
 30
0.0
 40
0.003965599567496
 50
301.1213110104520183
 51
333.072698072275216
  0
ARC
  5
EF44
  8
0
 10
4917.8311353020008028
 20
268.8993928785341723
 30
0.0
 40
0.007267392098845
 50
180.2991753985965033
 51
202.8890976403542084
  0
ARC
  5
EF45
  8
0
 10
4917.8286101880057686
 20
268.8983267947954801
 30
0.0
 40
0.0045264551738752
 50
202.8890976403542084
 51
236.9416860530332087
  0
LINE
  5
EF46
  8
0
 10
4917.7449937792252967
 20
268.9166082362229986
 30
0.0
 11
4917.7293098545251269
 21
268.9095773251229957
 31
0.0
  0
LINE
  5
EF47
  8
0
 10
4917.7293098545251269
 20
268.9095773251229957
 30
0.0
 11
4917.744993779260767
 21
268.9025464140229928
 31
0.0
  0
LINE
  5
EF48
  8
0
 10
4917.744993779260767
 20
268.9025464140229928
 30
0.0
 11
4917.7763616284237287
 21
268.9025464140229928
 31
0.0
  0
LINE
  5
EF49
  8
0
 10
4917.7763616284237287
 20
268.9025464140229928
 30
0.0
 11
4917.7920455531248081
 21
268.9095773251229957
 31
0.0
  0
LINE
  5
EF4A
  8
0
 10
4917.7920455531248081
 20
268.9095773251229957
 30
0.0
 11
4917.7763616284237287
 21
268.9166082362229986
 31
0.0
  0
LINE
  5
EF4B
  8
0
 10
4917.7763616284237287
 20
268.9166082362229986
 30
0.0
 11
4917.7449937792252967
 21
268.9166082362229986
 31
0.0
  0
LINE
  5
EF4C
  8
0
 10
4917.7472668117252397
 20
268.9073682442229938
 30
0.0
 11
4917.7358244235729217
 21
268.9124977265344114
 31
0.0
  0
LINE
  5
EF4D
  8
0
 10
4917.7472668117252397
 20
268.9073682442229938
 30
0.0
 11
4917.7740885959237858
 21
268.9073682442229938
 31
0.0
  0
LINE
  5
EF4E
  8
0
 10
4917.7740885959237858
 20
268.9073682442229938
 30
0.0
 11
4917.7855309840770133
 21
268.9124977265344114
 31
0.0
  0
ARC
  5
EF4F
  8
0
 10
4917.7400054081399503
 20
268.9074339353579148
 30
0.0
 40
0.0072617007205678
 50
333.072698072278115
 51
359.4816811840731248
  0
ARC
  5
EF50
  8
0
 10
4917.7429441520680484
 20
268.905941264284877
 30
0.0
 40
0.003965599567496
 50
301.1213110104520183
 51
333.072698072275216
  0
ARC
  5
EF51
  8
0
 10
4917.7813558889511114
 20
268.9074061914341769
 30
0.0
 40
0.007267392098845
 50
180.2991753985965033
 51
202.8890976403542084
  0
ARC
  5
EF52
  8
0
 10
4917.7788307749560772
 20
268.9063401076955984
 30
0.0
 40
0.0045264551738752
 50
202.8890976403542084
 51
236.9416860530332087
  0
LINE
  5
EF53
  8
0
 10
4917.6960495777557298
 20
268.908594923322994
 30
0.0
 11
4917.6803656530573789
 21
268.9015640122229911
 31
0.0
  0
LINE
  5
EF54
  8
0
 10
4917.6803656530573789
 20
268.9015640122229911
 30
0.0
 11
4917.6960495777930191
 21
268.8945331011229882
 31
0.0
  0
LINE
  5
EF55
  8
0
 10
4917.6960495777930191
 20
268.8945331011229882
 30
0.0
 11
4917.7274174269568903
 21
268.8945331011229882
 31
0.0
  0
LINE
  5
EF56
  8
0
 10
4917.7274174269568903
 20
268.8945331011229882
 30
0.0
 11
4917.7431013516570601
 21
268.9015640122229911
 31
0.0
  0
LINE
  5
EF57
  8
0
 10
4917.7431013516570601
 20
268.9015640122229911
 30
0.0
 11
4917.7274174269568903
 21
268.908594923322994
 31
0.0
  0
LINE
  5
EF58
  8
0
 10
4917.7274174269568903
 20
268.908594923322994
 30
0.0
 11
4917.6960495777557298
 21
268.908594923322994
 31
0.0
  0
LINE
  5
EF59
  8
0
 10
4917.6983226102556728
 20
268.8993549313229892
 30
0.0
 11
4917.6868802221051737
 21
268.9044844136344068
 31
0.0
  0
LINE
  5
EF5A
  8
0
 10
4917.6983226102556728
 20
268.8993549313229892
 30
0.0
 11
4917.7251443944569473
 21
268.8993549313229892
 31
0.0
  0
LINE
  5
EF5B
  8
0
 10
4917.7251443944569473
 20
268.8993549313229892
 30
0.0
 11
4917.7365867826092654
 21
268.9044844136344068
 31
0.0
  0
ARC
  5
EF5C
  8
0
 10
4917.6910612066712929
 20
268.8994206224579102
 30
0.0
 40
0.0072617007205678
 50
333.072698072278115
 51
359.4816811840731248
  0
ARC
  5
EF5D
  8
0
 10
4917.6939999506003005
 20
268.8979279513848724
 30
0.0
 40
0.003965599567496
 50
301.1213110104520183
 51
333.072698072275216
  0
ARC
  5
EF5E
  8
0
 10
4917.732411687484273
 20
268.8993928785341723
 30
0.0
 40
0.007267392098845
 50
180.2991753985965033
 51
202.8890976403542084
  0
ARC
  5
EF5F
  8
0
 10
4917.7298865734883293
 20
268.8983267947954801
 30
0.0
 40
0.0045264551738752
 50
202.8890976403542084
 51
236.9416860530332087
  0
LINE
  5
EF60
  8
0
 10
4917.6952143662747403
 20
268.8937179231230061
 30
0.0
 11
4917.6795304415736609
 21
268.8866870120230033
 31
0.0
  0
LINE
  5
EF61
  8
0
 10
4917.6795304415736609
 20
268.8866870120230033
 30
0.0
 11
4917.6952143663111201
 21
268.8796561009230004
 31
0.0
  0
LINE
  5
EF62
  8
0
 10
4917.6952143663111201
 20
268.8796561009230004
 30
0.0
 11
4917.7265822154749912
 21
268.8796561009230004
 31
0.0
  0
LINE
  5
EF63
  8
0
 10
4917.7265822154749912
 20
268.8796561009230004
 30
0.0
 11
4917.7422661401751611
 21
268.8866870120230033
 31
0.0
  0
LINE
  5
EF64
  8
0
 10
4917.7422661401751611
 20
268.8866870120230033
 30
0.0
 11
4917.7265822154749912
 21
268.8937179231230061
 31
0.0
  0
LINE
  5
EF65
  8
0
 10
4917.7265822154749912
 20
268.8937179231230061
 30
0.0
 11
4917.6952143662747403
 21
268.8937179231230061
 31
0.0
  0
LINE
  5
EF66
  8
0
 10
4917.6974873987746832
 20
268.8844779311230013
 30
0.0
 11
4917.6860450106223652
 21
268.889607413434419
 31
0.0
  0
LINE
  5
EF67
  8
0
 10
4917.6974873987746832
 20
268.8844779311230013
 30
0.0
 11
4917.7243091829750483
 21
268.8844779311230013
 31
0.0
  0
LINE
  5
EF68
  8
0
 10
4917.7243091829750483
 20
268.8844779311230013
 30
0.0
 11
4917.7357515711273663
 21
268.889607413434419
 31
0.0
  0
ARC
  5
EF69
  8
0
 10
4917.6902259951903034
 20
268.8845436222579224
 30
0.0
 40
0.0072617007205678
 50
333.072698072278115
 51
359.4816811840731248
  0
ARC
  5
EF6A
  8
0
 10
4917.693164739119311
 20
268.8830509511848845
 30
0.0
 40
0.003965599567496
 50
301.1213110104520183
 51
333.072698072275216
  0
ARC
  5
EF6B
  8
0
 10
4917.731576476000555
 20
268.8845158783342981
 30
0.0
 40
0.007267392098845
 50
180.2991753985965033
 51
202.8890976403542084
  0
ARC
  5
EF6C
  8
0
 10
4917.7290513620046113
 20
268.8834497945954922
 30
0.0
 40
0.0045264551738752
 50
202.8890976403542084
 51
236.9416860530332087
  0
LINE
  5
EF6D
  8
0
 10
4917.6952143662747403
 20
268.8788409229230183
 30
0.0
 11
4917.6795304415736609
 21
268.8718100118230154
 31
0.0
  0
LINE
  5
EF6E
  8
0
 10
4917.6795304415736609
 20
268.8718100118230154
 30
0.0
 11
4917.6952143663111201
 21
268.8647791007230126
 31
0.0
  0
LINE
  5
EF6F
  8
0
 10
4917.6952143663111201
 20
268.8647791007230126
 30
0.0
 11
4917.7265822154749912
 21
268.8647791007230126
 31
0.0
  0
LINE
  5
EF70
  8
0
 10
4917.7265822154749912
 20
268.8647791007230126
 30
0.0
 11
4917.7422661401751611
 21
268.8718100118230154
 31
0.0
  0
LINE
  5
EF71
  8
0
 10
4917.7422661401751611
 20
268.8718100118230154
 30
0.0
 11
4917.7265822154749912
 21
268.8788409229230183
 31
0.0
  0
LINE
  5
EF72
  8
0
 10
4917.7265822154749912
 20
268.8788409229230183
 30
0.0
 11
4917.6952143662747403
 21
268.8788409229230183
 31
0.0
  0
LINE
  5
EF73
  8
0
 10
4917.6974873987746832
 20
268.8696009309230135
 30
0.0
 11
4917.6860450106223652
 21
268.8747304132343743
 31
0.0
  0
LINE
  5
EF74
  8
0
 10
4917.6974873987746832
 20
268.8696009309230135
 30
0.0
 11
4917.7243091829750483
 21
268.8696009309230135
 31
0.0
  0
LINE
  5
EF75
  8
0
 10
4917.7243091829750483
 20
268.8696009309230135
 30
0.0
 11
4917.7357515711273663
 21
268.8747304132343743
 31
0.0
  0
ARC
  5
EF76
  8
0
 10
4917.6902259951903034
 20
268.8696666220578777
 30
0.0
 40
0.0072617007205678
 50
333.072698072278115
 51
359.4816811840731248
  0
ARC
  5
EF77
  8
0
 10
4917.693164739119311
 20
268.8681739509848967
 30
0.0
 40
0.003965599567496
 50
301.1213110104520183
 51
333.072698072275216
  0
ARC
  5
EF78
  8
0
 10
4917.731576476000555
 20
268.8696388781341966
 30
0.0
 40
0.007267392098845
 50
180.2991753985965033
 51
202.8890976403542084
  0
ARC
  5
EF79
  8
0
 10
4917.7290513620046113
 20
268.8685727943955044
 30
0.0
 40
0.0045264551738752
 50
202.8890976403542084
 51
236.9416860530332087
  0
LINE
  5
EF7A
  8
0
 10
4917.6952143662747403
 20
268.863963922622986
 30
0.0
 11
4917.6795304415736609
 21
268.8569330115229832
 31
0.0
  0
LINE
  5
EF7B
  8
0
 10
4917.6795304415736609
 20
268.8569330115229832
 30
0.0
 11
4917.6952143663111201
 21
268.8499021004229803
 31
0.0
  0
LINE
  5
EF7C
  8
0
 10
4917.6952143663111201
 20
268.8499021004229803
 30
0.0
 11
4917.7265822154749912
 21
268.8499021004229803
 31
0.0
  0
LINE
  5
EF7D
  8
0
 10
4917.7265822154749912
 20
268.8499021004229803
 30
0.0
 11
4917.7422661401751611
 21
268.8569330115229832
 31
0.0
  0
LINE
  5
EF7E
  8
0
 10
4917.7422661401751611
 20
268.8569330115229832
 30
0.0
 11
4917.7265822154749912
 21
268.863963922622986
 31
0.0
  0
LINE
  5
EF7F
  8
0
 10
4917.7265822154749912
 20
268.863963922622986
 30
0.0
 11
4917.6952143662747403
 21
268.863963922622986
 31
0.0
  0
LINE
  5
EF80
  8
0
 10
4917.6974873987746832
 20
268.8547239306229812
 30
0.0
 11
4917.6860450106223652
 21
268.8598534129343989
 31
0.0
  0
LINE
  5
EF81
  8
0
 10
4917.6974873987746832
 20
268.8547239306229812
 30
0.0
 11
4917.7243091829750483
 21
268.8547239306229812
 31
0.0
  0
LINE
  5
EF82
  8
0
 10
4917.7243091829750483
 20
268.8547239306229812
 30
0.0
 11
4917.7357515711273663
 21
268.8598534129343989
 31
0.0
  0
ARC
  5
EF83
  8
0
 10
4917.6902259951903034
 20
268.8547896217579023
 30
0.0
 40
0.0072617007205678
 50
333.072698072278115
 51
359.4816811840731248
  0
ARC
  5
EF84
  8
0
 10
4917.693164739119311
 20
268.8532969506849213
 30
0.0
 40
0.003965599567496
 50
301.1213110104520183
 51
333.072698072275216
  0
ARC
  5
EF85
  8
0
 10
4917.731576476000555
 20
268.8547618778342212
 30
0.0
 40
0.007267392098845
 50
180.2991753985965033
 51
202.8890976403542084
  0
ARC
  5
EF86
  8
0
 10
4917.7290513620046113
 20
268.8536957940954721
 30
0.0
 40
0.0045264551738752
 50
202.8890976403542084
 51
236.9416860530332087
  0
LINE
  5
EF87
  8
0
 10
4917.6952143662747403
 20
268.8490869224229982
 30
0.0
 11
4917.6795304415736609
 21
268.8420560113229953
 31
0.0
  0
LINE
  5
EF88
  8
0
 10
4917.6795304415736609
 20
268.8420560113229953
 30
0.0
 11
4917.6952143663111201
 21
268.8350251002229925
 31
0.0
  0
LINE
  5
EF89
  8
0
 10
4917.6952143663111201
 20
268.8350251002229925
 30
0.0
 11
4917.7265822154749912
 21
268.8350251002229925
 31
0.0
  0
LINE
  5
EF8A
  8
0
 10
4917.7265822154749912
 20
268.8350251002229925
 30
0.0
 11
4917.7422661401751611
 21
268.8420560113229953
 31
0.0
  0
LINE
  5
EF8B
  8
0
 10
4917.7422661401751611
 20
268.8420560113229953
 30
0.0
 11
4917.7265822154749912
 21
268.8490869224229982
 31
0.0
  0
LINE
  5
EF8C
  8
0
 10
4917.7265822154749912
 20
268.8490869224229982
 30
0.0
 11
4917.6952143662747403
 21
268.8490869224229982
 31
0.0
  0
LINE
  5
EF8D
  8
0
 10
4917.6974873987746832
 20
268.8398469304229934
 30
0.0
 11
4917.6860450106223652
 21
268.844976412734411
 31
0.0
  0
LINE
  5
EF8E
  8
0
 10
4917.6974873987746832
 20
268.8398469304229934
 30
0.0
 11
4917.7243091829750483
 21
268.8398469304229934
 31
0.0
  0
LINE
  5
EF8F
  8
0
 10
4917.7243091829750483
 20
268.8398469304229934
 30
0.0
 11
4917.7357515711273663
 21
268.844976412734411
 31
0.0
  0
ARC
  5
EF90
  8
0
 10
4917.6902259951903034
 20
268.8399126215579145
 30
0.0
 40
0.0072617007205678
 50
333.072698072278115
 51
359.4816811840731248
  0
ARC
  5
EF91
  8
0
 10
4917.693164739119311
 20
268.8384199504848766
 30
0.0
 40
0.003965599567496
 50
301.1213110104520183
 51
333.072698072275216
  0
ARC
  5
EF92
  8
0
 10
4917.731576476000555
 20
268.8398848776341765
 30
0.0
 40
0.007267392098845
 50
180.2991753985965033
 51
202.8890976403542084
  0
ARC
  5
EF93
  8
0
 10
4917.7290513620046113
 20
268.8388187938954843
 30
0.0
 40
0.0045264551738752
 50
202.8890976403542084
 51
236.9416860530332087
  0
LINE
  5
EF94
  8
0
 10
4917.6952143662747403
 20
268.8342099222230104
 30
0.0
 11
4917.6795304415736609
 21
268.8271790111230075
 31
0.0
  0
LINE
  5
EF95
  8
0
 10
4917.6795304415736609
 20
268.8271790111230075
 30
0.0
 11
4917.6952143663111201
 21
268.8201481000230046
 31
0.0
  0
LINE
  5
EF96
  8
0
 10
4917.6952143663111201
 20
268.8201481000230046
 30
0.0
 11
4917.7265822154749912
 21
268.8201481000230046
 31
0.0
  0
LINE
  5
EF97
  8
0
 10
4917.7265822154749912
 20
268.8201481000230046
 30
0.0
 11
4917.7422661401751611
 21
268.8271790111230075
 31
0.0
  0
LINE
  5
EF98
  8
0
 10
4917.7422661401751611
 20
268.8271790111230075
 30
0.0
 11
4917.7265822154749912
 21
268.8342099222230104
 31
0.0
  0
LINE
  5
EF99
  8
0
 10
4917.7265822154749912
 20
268.8342099222230104
 30
0.0
 11
4917.6952143662747403
 21
268.8342099222230104
 31
0.0
  0
LINE
  5
EF9A
  8
0
 10
4917.6974873987746832
 20
268.8249699302230056
 30
0.0
 11
4917.6860450106223652
 21
268.8300994125344232
 31
0.0
  0
LINE
  5
EF9B
  8
0
 10
4917.6974873987746832
 20
268.8249699302230056
 30
0.0
 11
4917.7243091829750483
 21
268.8249699302230056
 31
0.0
  0
LINE
  5
EF9C
  8
0
 10
4917.7243091829750483
 20
268.8249699302230056
 30
0.0
 11
4917.7357515711273663
 21
268.8300994125344232
 31
0.0
  0
ARC
  5
EF9D
  8
0
 10
4917.6902259951903034
 20
268.8250356213579266
 30
0.0
 40
0.0072617007205678
 50
333.072698072278115
 51
359.4816811840731248
  0
ARC
  5
EF9E
  8
0
 10
4917.693164739119311
 20
268.8235429502848888
 30
0.0
 40
0.003965599567496
 50
301.1213110104520183
 51
333.072698072275216
  0
ARC
  5
EF9F
  8
0
 10
4917.731576476000555
 20
268.8250078774343024
 30
0.0
 40
0.007267392098845
 50
180.2991753985965033
 51
202.8890976403542084
  0
ARC
  5
EFA0
  8
0
 10
4917.7290513620046113
 20
268.8239417936954965
 30
0.0
 40
0.0045264551738752
 50
202.8890976403542084
 51
236.9416860530332087
  0
LINE
  5
EFA1
  8
0
 10
4917.6943168742291164
 20
268.8193329219229781
 30
0.0
 11
4917.6786329495307655
 21
268.8123020108229753
 31
0.0
  0
LINE
  5
EFA2
  8
0
 10
4917.6786329495307655
 20
268.8123020108229753
 30
0.0
 11
4917.6943168742673151
 21
268.8052710997229724
 31
0.0
  0
LINE
  5
EFA3
  8
0
 10
4917.6943168742673151
 20
268.8052710997229724
 30
0.0
 11
4917.7256847234302768
 21
268.8052710997229724
 31
0.0
  0
LINE
  5
EFA4
  8
0
 10
4917.7256847234302768
 20
268.8052710997229724
 30
0.0
 11
4917.7413686481313562
 21
268.8123020108229753
 31
0.0
  0
LINE
  5
EFA5
  8
0
 10
4917.7413686481313562
 20
268.8123020108229753
 30
0.0
 11
4917.7256847234302768
 21
268.8193329219229781
 31
0.0
  0
LINE
  5
EFA6
  8
0
 10
4917.7256847234302768
 20
268.8193329219229781
 30
0.0
 11
4917.6943168742291164
 21
268.8193329219229781
 31
0.0
  0
LINE
  5
EFA7
  8
0
 10
4917.6965899067290593
 20
268.8100929299229733
 30
0.0
 11
4917.6851475185785603
 21
268.815222412234391
 31
0.0
  0
LINE
  5
EFA8
  8
0
 10
4917.6965899067290593
 20
268.8100929299229733
 30
0.0
 11
4917.7234116909303339
 21
268.8100929299229733
 31
0.0
  0
LINE
  5
EFA9
  8
0
 10
4917.7234116909303339
 20
268.8100929299229733
 30
0.0
 11
4917.7348540790826519
 21
268.815222412234391
 31
0.0
  0
ARC
  5
EFAA
  8
0
 10
4917.6893285031437699
 20
268.8101586210578944
 30
0.0
 40
0.0072617007205678
 50
333.072698072278115
 51
359.4816811840731248
  0
ARC
  5
EFAB
  8
0
 10
4917.6922672470727775
 20
268.8086659499849134
 30
0.0
 40
0.003965599567496
 50
301.1213110104520183
 51
333.072698072275216
  0
ARC
  5
EFAC
  8
0
 10
4917.73067898395675
 20
268.8101308771342133
 30
0.0
 40
0.007267392098845
 50
180.2991753985965033
 51
202.8890976403542084
  0
ARC
  5
EFAD
  8
0
 10
4917.7281538699617158
 20
268.8090647933955211
 30
0.0
 40
0.0045264551738752
 50
202.8890976403542084
 51
236.9416860530332087
  0
LINE
  5
EFAE
  8
0
 10
4917.6454349533250934
 20
268.826771422122988
 30
0.0
 11
4917.629751028624014
 21
268.8197405110229852
 31
0.0
  0
LINE
  5
EFAF
  8
0
 10
4917.629751028624014
 20
268.8197405110229852
 30
0.0
 11
4917.6454349533605637
 21
268.8127095999229823
 31
0.0
  0
LINE
  5
EFB0
  8
0
 10
4917.6454349533605637
 20
268.8127095999229823
 30
0.0
 11
4917.6768028025253443
 21
268.8127095999229823
 31
0.0
  0
LINE
  5
EFB1
  8
0
 10
4917.6768028025253443
 20
268.8127095999229823
 30
0.0
 11
4917.6924867272246047
 21
268.8197405110229852
 31
0.0
  0
LINE
  5
EFB2
  8
0
 10
4917.6924867272246047
 20
268.8197405110229852
 30
0.0
 11
4917.6768028025253443
 21
268.826771422122988
 31
0.0
  0
LINE
  5
EFB3
  8
0
 10
4917.6768028025253443
 20
268.826771422122988
 30
0.0
 11
4917.6454349533250934
 21
268.826771422122988
 31
0.0
  0
LINE
  5
EFB4
  8
0
 10
4917.6477079858250363
 20
268.8175314301229832
 30
0.0
 11
4917.6362655976727183
 21
268.8226609124344009
 31
0.0
  0
LINE
  5
EFB5
  8
0
 10
4917.6477079858250363
 20
268.8175314301229832
 30
0.0
 11
4917.6745297700254014
 21
268.8175314301229832
 31
0.0
  0
LINE
  5
EFB6
  8
0
 10
4917.6745297700254014
 20
268.8175314301229832
 30
0.0
 11
4917.6859721581768099
 21
268.8226609124344009
 31
0.0
  0
ARC
  5
EFB7
  8
0
 10
4917.6404465822397469
 20
268.8175971212579043
 30
0.0
 40
0.0072617007205678
 50
333.072698072278115
 51
359.4816811840731248
  0
ARC
  5
EFB8
  8
0
 10
4917.6433853261687545
 20
268.8161044501849233
 30
0.0
 40
0.003965599567496
 50
301.1213110104520183
 51
333.072698072275216
  0
ARC
  5
EFB9
  8
0
 10
4917.681797063050908
 20
268.8175693773342232
 30
0.0
 40
0.007267392098845
 50
180.2991753985965033
 51
202.8890976403542084
  0
ARC
  5
EFBA
  8
0
 10
4917.6792719490549644
 20
268.8165032935954741
 30
0.0
 40
0.0045264551738752
 50
202.8890976403542084
 51
236.9416860530332087
  0
LINE
  5
EFBB
  8
0
 10
4917.6454349533250934
 20
268.8416484223229759
 30
0.0
 11
4917.629751028624014
 21
268.834617511222973
 31
0.0
  0
LINE
  5
EFBC
  8
0
 10
4917.629751028624014
 20
268.834617511222973
 30
0.0
 11
4917.6454349533605637
 21
268.827586600123027
 31
0.0
  0
LINE
  5
EFBD
  8
0
 10
4917.6454349533605637
 20
268.827586600123027
 30
0.0
 11
4917.6768028025253443
 21
268.827586600123027
 31
0.0
  0
LINE
  5
EFBE
  8
0
 10
4917.6768028025253443
 20
268.827586600123027
 30
0.0
 11
4917.6924867272246047
 21
268.834617511222973
 31
0.0
  0
LINE
  5
EFBF
  8
0
 10
4917.6924867272246047
 20
268.834617511222973
 30
0.0
 11
4917.6768028025253443
 21
268.8416484223229759
 31
0.0
  0
LINE
  5
EFC0
  8
0
 10
4917.6768028025253443
 20
268.8416484223229759
 30
0.0
 11
4917.6454349533250934
 21
268.8416484223229759
 31
0.0
  0
LINE
  5
EFC1
  8
0
 10
4917.6477079858250363
 20
268.8324084303230279
 30
0.0
 11
4917.6362655976727183
 21
268.8375379126343887
 31
0.0
  0
LINE
  5
EFC2
  8
0
 10
4917.6477079858250363
 20
268.8324084303230279
 30
0.0
 11
4917.6745297700254014
 21
268.8324084303230279
 31
0.0
  0
LINE
  5
EFC3
  8
0
 10
4917.6745297700254014
 20
268.8324084303230279
 30
0.0
 11
4917.6859721581768099
 21
268.8375379126343887
 31
0.0
  0
ARC
  5
EFC4
  8
0
 10
4917.6404465822397469
 20
268.8324741214578921
 30
0.0
 40
0.0072617007205678
 50
333.072698072278115
 51
359.4816811840731248
  0
ARC
  5
EFC5
  8
0
 10
4917.6433853261687545
 20
268.8309814503849111
 30
0.0
 40
0.003965599567496
 50
301.1213110104520183
 51
333.072698072275216
  0
ARC
  5
EFC6
  8
0
 10
4917.681797063050908
 20
268.832446377534211
 30
0.0
 40
0.007267392098845
 50
180.2991753985965033
 51
202.8890976403542084
  0
ARC
  5
EFC7
  8
0
 10
4917.6792719490549644
 20
268.8313802937955188
 30
0.0
 40
0.0045264551738752
 50
202.8890976403542084
 51
236.9416860530332087
  0
LINE
  5
EFC8
  8
0
 10
4917.6454349533250934
 20
268.8565254225230206
 30
0.0
 11
4917.629751028624014
 21
268.8494945114230177
 31
0.0
  0
LINE
  5
EFC9
  8
0
 10
4917.629751028624014
 20
268.8494945114230177
 30
0.0
 11
4917.6454349533605637
 21
268.8424636003230148
 31
0.0
  0
LINE
  5
EFCA
  8
0
 10
4917.6454349533605637
 20
268.8424636003230148
 30
0.0
 11
4917.6768028025253443
 21
268.8424636003230148
 31
0.0
  0
LINE
  5
EFCB
  8
0
 10
4917.6768028025253443
 20
268.8424636003230148
 30
0.0
 11
4917.6924867272246047
 21
268.8494945114230177
 31
0.0
  0
LINE
  5
EFCC
  8
0
 10
4917.6924867272246047
 20
268.8494945114230177
 30
0.0
 11
4917.6768028025253443
 21
268.8565254225230206
 31
0.0
  0
LINE
  5
EFCD
  8
0
 10
4917.6768028025253443
 20
268.8565254225230206
 30
0.0
 11
4917.6454349533250934
 21
268.8565254225230206
 31
0.0
  0
LINE
  5
EFCE
  8
0
 10
4917.6477079858250363
 20
268.8472854305230157
 30
0.0
 11
4917.6362655976727183
 21
268.8524149128343765
 31
0.0
  0
LINE
  5
EFCF
  8
0
 10
4917.6477079858250363
 20
268.8472854305230157
 30
0.0
 11
4917.6745297700254014
 21
268.8472854305230157
 31
0.0
  0
LINE
  5
EFD0
  8
0
 10
4917.6745297700254014
 20
268.8472854305230157
 30
0.0
 11
4917.6859721581768099
 21
268.8524149128343765
 31
0.0
  0
ARC
  5
EFD1
  8
0
 10
4917.6404465822397469
 20
268.84735112165788
 30
0.0
 40
0.0072617007205678
 50
333.072698072278115
 51
359.4816811840731248
  0
ARC
  5
EFD2
  8
0
 10
4917.6433853261687545
 20
268.8458584505848989
 30
0.0
 40
0.003965599567496
 50
301.1213110104520183
 51
333.072698072275216
  0
ARC
  5
EFD3
  8
0
 10
4917.681797063050908
 20
268.8473233777341989
 30
0.0
 40
0.007267392098845
 50
180.2991753985965033
 51
202.8890976403542084
  0
ARC
  5
EFD4
  8
0
 10
4917.6792719490549644
 20
268.8462572939955066
 30
0.0
 40
0.0045264551738752
 50
202.8890976403542084
 51
236.9416860530332087
  0
LINE
  5
EFD5
  8
0
 10
4917.6454349533250934
 20
268.8714024227230084
 30
0.0
 11
4917.629751028624014
 21
268.8643715116230055
 31
0.0
  0
LINE
  5
EFD6
  8
0
 10
4917.629751028624014
 20
268.8643715116230055
 30
0.0
 11
4917.6454349533605637
 21
268.8573406005230026
 31
0.0
  0
LINE
  5
EFD7
  8
0
 10
4917.6454349533605637
 20
268.8573406005230026
 30
0.0
 11
4917.6768028025253443
 21
268.8573406005230026
 31
0.0
  0
LINE
  5
EFD8
  8
0
 10
4917.6768028025253443
 20
268.8573406005230026
 30
0.0
 11
4917.6924867272246047
 21
268.8643715116230055
 31
0.0
  0
LINE
  5
EFD9
  8
0
 10
4917.6924867272246047
 20
268.8643715116230055
 30
0.0
 11
4917.6768028025253443
 21
268.8714024227230084
 31
0.0
  0
LINE
  5
EFDA
  8
0
 10
4917.6768028025253443
 20
268.8714024227230084
 30
0.0
 11
4917.6454349533250934
 21
268.8714024227230084
 31
0.0
  0
LINE
  5
EFDB
  8
0
 10
4917.6477079858250363
 20
268.8621624307230036
 30
0.0
 11
4917.6362655976727183
 21
268.8672919130344212
 31
0.0
  0
LINE
  5
EFDC
  8
0
 10
4917.6477079858250363
 20
268.8621624307230036
 30
0.0
 11
4917.6745297700254014
 21
268.8621624307230036
 31
0.0
  0
LINE
  5
EFDD
  8
0
 10
4917.6745297700254014
 20
268.8621624307230036
 30
0.0
 11
4917.6859721581768099
 21
268.8672919130344212
 31
0.0
  0
ARC
  5
EFDE
  8
0
 10
4917.6404465822397469
 20
268.8622281218579246
 30
0.0
 40
0.0072617007205678
 50
333.072698072278115
 51
359.4816811840731248
  0
ARC
  5
EFDF
  8
0
 10
4917.6433853261687545
 20
268.8607354507848868
 30
0.0
 40
0.003965599567496
 50
301.1213110104520183
 51
333.072698072275216
  0
ARC
  5
EFE0
  8
0
 10
4917.681797063050908
 20
268.8622003779343004
 30
0.0
 40
0.007267392098845
 50
180.2991753985965033
 51
202.8890976403542084
  0
ARC
  5
EFE1
  8
0
 10
4917.6792719490549644
 20
268.8611342941954945
 30
0.0
 40
0.0045264551738752
 50
202.8890976403542084
 51
236.9416860530332087
  0
LINE
  5
EFE2
  8
0
 10
4917.6454349533250934
 20
268.8862794230229838
 30
0.0
 11
4917.629751028624014
 21
268.8792485119229809
 31
0.0
  0
LINE
  5
EFE3
  8
0
 10
4917.629751028624014
 20
268.8792485119229809
 30
0.0
 11
4917.6454349533605637
 21
268.8722176008229781
 31
0.0
  0
LINE
  5
EFE4
  8
0
 10
4917.6454349533605637
 20
268.8722176008229781
 30
0.0
 11
4917.6768028025253443
 21
268.8722176008229781
 31
0.0
  0
LINE
  5
EFE5
  8
0
 10
4917.6768028025253443
 20
268.8722176008229781
 30
0.0
 11
4917.6924867272246047
 21
268.8792485119229809
 31
0.0
  0
LINE
  5
EFE6
  8
0
 10
4917.6924867272246047
 20
268.8792485119229809
 30
0.0
 11
4917.6768028025253443
 21
268.8862794230229838
 31
0.0
  0
LINE
  5
EFE7
  8
0
 10
4917.6768028025253443
 20
268.8862794230229838
 30
0.0
 11
4917.6454349533250934
 21
268.8862794230229838
 31
0.0
  0
LINE
  5
EFE8
  8
0
 10
4917.6477079858250363
 20
268.877039431022979
 30
0.0
 11
4917.6362655976727183
 21
268.8821689133343966
 31
0.0
  0
LINE
  5
EFE9
  8
0
 10
4917.6477079858250363
 20
268.877039431022979
 30
0.0
 11
4917.6745297700254014
 21
268.877039431022979
 31
0.0
  0
LINE
  5
EFEA
  8
0
 10
4917.6745297700254014
 20
268.877039431022979
 30
0.0
 11
4917.6859721581768099
 21
268.8821689133343966
 31
0.0
  0
ARC
  5
EFEB
  8
0
 10
4917.6404465822397469
 20
268.8771051221579
 30
0.0
 40
0.0072617007205678
 50
333.072698072278115
 51
359.4816811840731248
  0
ARC
  5
EFEC
  8
0
 10
4917.6433853261687545
 20
268.875612451084919
 30
0.0
 40
0.003965599567496
 50
301.1213110104520183
 51
333.072698072275216
  0
ARC
  5
EFED
  8
0
 10
4917.681797063050908
 20
268.8770773782342189
 30
0.0
 40
0.007267392098845
 50
180.2991753985965033
 51
202.8890976403542084
  0
ARC
  5
EFEE
  8
0
 10
4917.6792719490549644
 20
268.8760112944955267
 30
0.0
 40
0.0045264551738752
 50
202.8890976403542084
 51
236.9416860530332087
  0
LINE
  5
EFEF
  8
0
 10
4917.6453144060260456
 20
268.9011023833479044
 30
0.0
 11
4917.629751028624014
 21
268.8941255121230256
 31
0.0
  0
LINE
  5
EFF0
  8
0
 10
4917.629751028624014
 20
268.8941255121230256
 30
0.0
 11
4917.6454349533605637
 21
268.8870946010230227
 31
0.0
  0
LINE
  5
EFF1
  8
0
 10
4917.6454349533605637
 20
268.8870946010230227
 30
0.0
 11
4917.6768028025253443
 21
268.8870946010230227
 31
0.0
  0
LINE
  5
EFF2
  8
0
 10
4917.6768028025253443
 20
268.8870946010230227
 30
0.0
 11
4917.6924867272246047
 21
268.8941255121230256
 31
0.0
  0
LINE
  5
EFF3
  8
0
 10
4917.6924867272246047
 20
268.8941255121230256
 30
0.0
 11
4917.6768028025253443
 21
268.9011564232229716
 31
0.0
  0
LINE
  5
EFF4
  8
0
 10
4917.6768028025253443
 20
268.9011564232229716
 30
0.0
 11
4917.6455355957614302
 21
268.9011564232229716
 31
0.0
  0
LINE
  5
EFF5
  8
0
 10
4917.6477079858250363
 20
268.8919164312230237
 30
0.0
 11
4917.6362655976727183
 21
268.8970459135343845
 31
0.0
  0
LINE
  5
EFF6
  8
0
 10
4917.6477079858250363
 20
268.8919164312230237
 30
0.0
 11
4917.6745297700254014
 21
268.8919164312230237
 31
0.0
  0
LINE
  5
EFF7
  8
0
 10
4917.6745297700254014
 20
268.8919164312230237
 30
0.0
 11
4917.6859721581768099
 21
268.8970459135343845
 31
0.0
  0
ARC
  5
EFF8
  8
0
 10
4917.6404465822397469
 20
268.8919821223578879
 30
0.0
 40
0.0072617007205678
 50
333.072698072278115
 51
359.4816811840731248
  0
ARC
  5
EFF9
  8
0
 10
4917.6433853261687545
 20
268.8904894512849069
 30
0.0
 40
0.003965599567496
 50
301.1213110104520183
 51
333.072698072275216
  0
ARC
  5
EFFA
  8
0
 10
4917.681797063050908
 20
268.8919543784342068
 30
0.0
 40
0.007267392098845
 50
180.2991753985965033
 51
202.8890976403542084
  0
ARC
  5
EFFB
  8
0
 10
4917.6792719490549644
 20
268.8908882946955146
 30
0.0
 40
0.0045264551738752
 50
202.8890976403542084
 51
236.9416860530332087
  0
LINE
  5
EFFC
  8
0
 10
4917.6489260980097242
 20
268.9019716012230106
 30
0.0
 11
4917.6785510382251232
 21
268.9019716012230106
 31
0.0
  0
LINE
  5
EFFD
  8
0
 10
4917.6785510382251232
 20
268.9019716012230106
 30
0.0
 11
4917.6942349629262026
 21
268.9090025123230134
 31
0.0
  0
LINE
  5
EFFE
  8
0
 10
4917.6942349629262026
 20
268.9090025123230134
 30
0.0
 11
4917.691451515256631
 21
268.910250297777111
 31
0.0
  0
LINE
  5
EFFF
  8
0
 10
4917.6715911687342668
 20
268.9067934314230115
 30
0.0
 11
4917.6762780057251803
 21
268.9067934314230115
 31
0.0
  0
LINE
  5
F000
  8
0
 10
4917.6762780057251803
 20
268.9067934314230115
 30
0.0
 11
4917.6794607028714381
 21
268.9082201955300206
 31
0.0
  0
ARC
  5
F001
  8
0
 10
4917.6835452987506869
 20
268.9068313786341946
 30
0.0
 40
0.007267392098845
 50
180.2991753985965033
 51
202.8890976403542084
  0
ARC
  5
F002
  8
0
 10
4917.6810201847556527
 20
268.9057652948955024
 30
0.0
 40
0.0045264551738752
 50
202.8890976403542084
 51
236.9416860530332087
  0
LINE
  5
F003
  8
0
 10
4917.5888906579348259
 20
268.8826887147675961
 30
0.0
 11
4917.5956555404109167
 21
268.8796561009230004
 31
0.0
  0
LINE
  5
F004
  8
0
 10
4917.5956555404109167
 20
268.8796561009230004
 30
0.0
 11
4917.6270233895747879
 21
268.8796561009230004
 31
0.0
  0
LINE
  5
F005
  8
0
 10
4917.6270233895747879
 20
268.8796561009230004
 30
0.0
 11
4917.6427073142749578
 21
268.8866870120230033
 31
0.0
  0
LINE
  5
F006
  8
0
 10
4917.6427073142749578
 20
268.8866870120230033
 30
0.0
 11
4917.6270233895747879
 21
268.8937179231230061
 31
0.0
  0
LINE
  5
F007
  8
0
 10
4917.6270233895747879
 20
268.8937179231230061
 30
0.0
 11
4917.6183650823932112
 21
268.8937179231230061
 31
0.0
  0
LINE
  5
F008
  8
0
 10
4917.5979285728762989
 20
268.8844779311230013
 30
0.0
 11
4917.5954402573042898
 21
268.8855934124836722
 31
0.0
  0
LINE
  5
F009
  8
0
 10
4917.5979285728762989
 20
268.8844779311230013
 30
0.0
 11
4917.6247503570748449
 21
268.8844779311230013
 31
0.0
  0
LINE
  5
F00A
  8
0
 10
4917.6247503570748449
 20
268.8844779311230013
 30
0.0
 11
4917.636192745227163
 21
268.889607413434419
 31
0.0
  0
ARC
  5
F00B
  8
0
 10
4917.5906671692891905
 20
268.8845436222579224
 30
0.0
 40
0.0072617007205678
 50
333.072698072278115
 51
359.4816811840731248
  0
ARC
  5
F00C
  8
0
 10
4917.5936059132181981
 20
268.8830509511848845
 30
0.0
 40
0.003965599567496
 50
301.1213110104520183
 51
333.072698072275216
  0
ARC
  5
F00D
  8
0
 10
4917.6320176501021706
 20
268.8845158783342981
 30
0.0
 40
0.007267392098845
 50
180.2991753985965033
 51
202.8890976403542084
  0
ARC
  5
F00E
  8
0
 10
4917.6294925361062269
 20
268.8834497945954922
 30
0.0
 40
0.0045264551738752
 50
202.8890976403542084
 51
236.9416860530332087
  0
LINE
  5
F00F
  8
0
 10
4917.5956555403736274
 20
268.8788409229230183
 30
0.0
 11
4917.5799716156752766
 21
268.8718100118230154
 31
0.0
  0
LINE
  5
F010
  8
0
 10
4917.5799716156752766
 20
268.8718100118230154
 30
0.0
 11
4917.5956555404109167
 21
268.8647791007230126
 31
0.0
  0
LINE
  5
F011
  8
0
 10
4917.5956555404109167
 20
268.8647791007230126
 30
0.0
 11
4917.6270233895747879
 21
268.8647791007230126
 31
0.0
  0
LINE
  5
F012
  8
0
 10
4917.6270233895747879
 20
268.8647791007230126
 30
0.0
 11
4917.6427073142749578
 21
268.8718100118230154
 31
0.0
  0
LINE
  5
F013
  8
0
 10
4917.6427073142749578
 20
268.8718100118230154
 30
0.0
 11
4917.6270233895747879
 21
268.8788409229230183
 31
0.0
  0
LINE
  5
F014
  8
0
 10
4917.6270233895747879
 20
268.8788409229230183
 30
0.0
 11
4917.5956555403736274
 21
268.8788409229230183
 31
0.0
  0
LINE
  5
F015
  8
0
 10
4917.5979285728762989
 20
268.8696009309230135
 30
0.0
 11
4917.5864861847230713
 21
268.8747304132343743
 31
0.0
  0
LINE
  5
F016
  8
0
 10
4917.5979285728762989
 20
268.8696009309230135
 30
0.0
 11
4917.6247503570748449
 21
268.8696009309230135
 31
0.0
  0
LINE
  5
F017
  8
0
 10
4917.6247503570748449
 20
268.8696009309230135
 30
0.0
 11
4917.636192745227163
 21
268.8747304132343743
 31
0.0
  0
ARC
  5
F018
  8
0
 10
4917.5906671692891905
 20
268.8696666220578777
 30
0.0
 40
0.0072617007205678
 50
333.072698072278115
 51
359.4816811840731248
  0
ARC
  5
F019
  8
0
 10
4917.5936059132181981
 20
268.8681739509848967
 30
0.0
 40
0.003965599567496
 50
301.1213110104520183
 51
333.072698072275216
  0
ARC
  5
F01A
  8
0
 10
4917.6320176501021706
 20
268.8696388781341966
 30
0.0
 40
0.007267392098845
 50
180.2991753985965033
 51
202.8890976403542084
  0
ARC
  5
F01B
  8
0
 10
4917.6294925361062269
 20
268.8685727943955044
 30
0.0
 40
0.0045264551738752
 50
202.8890976403542084
 51
236.9416860530332087
  0
LINE
  5
F01C
  8
0
 10
4917.5956555403736274
 20
268.863963922622986
 30
0.0
 11
4917.5799716156752766
 21
268.8569330115229832
 31
0.0
  0
LINE
  5
F01D
  8
0
 10
4917.5799716156752766
 20
268.8569330115229832
 30
0.0
 11
4917.5956555404109167
 21
268.8499021004229803
 31
0.0
  0
LINE
  5
F01E
  8
0
 10
4917.5956555404109167
 20
268.8499021004229803
 30
0.0
 11
4917.6270233895747879
 21
268.8499021004229803
 31
0.0
  0
LINE
  5
F01F
  8
0
 10
4917.6270233895747879
 20
268.8499021004229803
 30
0.0
 11
4917.6427073142749578
 21
268.8569330115229832
 31
0.0
  0
LINE
  5
F020
  8
0
 10
4917.6427073142749578
 20
268.8569330115229832
 30
0.0
 11
4917.6270233895747879
 21
268.863963922622986
 31
0.0
  0
LINE
  5
F021
  8
0
 10
4917.6270233895747879
 20
268.863963922622986
 30
0.0
 11
4917.5956555403736274
 21
268.863963922622986
 31
0.0
  0
LINE
  5
F022
  8
0
 10
4917.5979285728762989
 20
268.8547239306229812
 30
0.0
 11
4917.5864861847230713
 21
268.8598534129343989
 31
0.0
  0
LINE
  5
F023
  8
0
 10
4917.5979285728762989
 20
268.8547239306229812
 30
0.0
 11
4917.6247503570748449
 21
268.8547239306229812
 31
0.0
  0
LINE
  5
F024
  8
0
 10
4917.6247503570748449
 20
268.8547239306229812
 30
0.0
 11
4917.636192745227163
 21
268.8598534129343989
 31
0.0
  0
ARC
  5
F025
  8
0
 10
4917.5906671692891905
 20
268.8547896217579023
 30
0.0
 40
0.0072617007205678
 50
333.072698072278115
 51
359.4816811840731248
  0
ARC
  5
F026
  8
0
 10
4917.5936059132181981
 20
268.8532969506849213
 30
0.0
 40
0.003965599567496
 50
301.1213110104520183
 51
333.072698072275216
  0
ARC
  5
F027
  8
0
 10
4917.6320176501021706
 20
268.8547618778342212
 30
0.0
 40
0.007267392098845
 50
180.2991753985965033
 51
202.8890976403542084
  0
ARC
  5
F028
  8
0
 10
4917.6294925361062269
 20
268.8536957940954721
 30
0.0
 40
0.0045264551738752
 50
202.8890976403542084
 51
236.9416860530332087
  0
LINE
  5
F029
  8
0
 10
4917.5956555403736274
 20
268.8490869224229982
 30
0.0
 11
4917.5799716156752766
 21
268.8420560113229953
 31
0.0
  0
LINE
  5
F02A
  8
0
 10
4917.5799716156752766
 20
268.8420560113229953
 30
0.0
 11
4917.5956555404109167
 21
268.8350251002229925
 31
0.0
  0
LINE
  5
F02B
  8
0
 10
4917.5956555404109167
 20
268.8350251002229925
 30
0.0
 11
4917.6270233895747879
 21
268.8350251002229925
 31
0.0
  0
LINE
  5
F02C
  8
0
 10
4917.6270233895747879
 20
268.8350251002229925
 30
0.0
 11
4917.6427073142749578
 21
268.8420560113229953
 31
0.0
  0
LINE
  5
F02D
  8
0
 10
4917.6427073142749578
 20
268.8420560113229953
 30
0.0
 11
4917.6270233895747879
 21
268.8490869224229982
 31
0.0
  0
LINE
  5
F02E
  8
0
 10
4917.6270233895747879
 20
268.8490869224229982
 30
0.0
 11
4917.5956555403736274
 21
268.8490869224229982
 31
0.0
  0
LINE
  5
F02F
  8
0
 10
4917.5979285728762989
 20
268.8398469304229934
 30
0.0
 11
4917.5864861847230713
 21
268.844976412734411
 31
0.0
  0
LINE
  5
F030
  8
0
 10
4917.5979285728762989
 20
268.8398469304229934
 30
0.0
 11
4917.6247503570748449
 21
268.8398469304229934
 31
0.0
  0
LINE
  5
F031
  8
0
 10
4917.6247503570748449
 20
268.8398469304229934
 30
0.0
 11
4917.636192745227163
 21
268.844976412734411
 31
0.0
  0
ARC
  5
F032
  8
0
 10
4917.5906671692891905
 20
268.8399126215579145
 30
0.0
 40
0.0072617007205678
 50
333.072698072278115
 51
359.4816811840731248
  0
ARC
  5
F033
  8
0
 10
4917.5936059132181981
 20
268.8384199504848766
 30
0.0
 40
0.003965599567496
 50
301.1213110104520183
 51
333.072698072275216
  0
ARC
  5
F034
  8
0
 10
4917.6320176501021706
 20
268.8398848776341765
 30
0.0
 40
0.007267392098845
 50
180.2991753985965033
 51
202.8890976403542084
  0
ARC
  5
F035
  8
0
 10
4917.6294925361062269
 20
268.8388187938954843
 30
0.0
 40
0.0045264551738752
 50
202.8890976403542084
 51
236.9416860530332087
  0
LINE
  5
F036
  8
0
 10
4917.5921522185253707
 20
268.8342099222230104
 30
0.0
 11
4917.5764682938252008
 21
268.8271790111230075
 31
0.0
  0
LINE
  5
F037
  8
0
 10
4917.5764682938252008
 20
268.8271790111230075
 30
0.0
 11
4917.592152218560841
 21
268.8201481000230046
 31
0.0
  0
LINE
  5
F038
  8
0
 10
4917.592152218560841
 20
268.8201481000230046
 30
0.0
 11
4917.6235200677238026
 21
268.8201481000230046
 31
0.0
  0
LINE
  5
F039
  8
0
 10
4917.6235200677238026
 20
268.8201481000230046
 30
0.0
 11
4917.639203992424882
 21
268.8271790111230075
 31
0.0
  0
LINE
  5
F03A
  8
0
 10
4917.639203992424882
 20
268.8271790111230075
 30
0.0
 11
4917.6235200677238026
 21
268.8342099222230104
 31
0.0
  0
LINE
  5
F03B
  8
0
 10
4917.6235200677238026
 20
268.8342099222230104
 30
0.0
 11
4917.5921522185253707
 21
268.8342099222230104
 31
0.0
  0
LINE
  5
F03C
  8
0
 10
4917.5944252510253136
 20
268.8249699302230056
 30
0.0
 11
4917.5829828628729956
 21
268.8300994125344232
 31
0.0
  0
LINE
  5
F03D
  8
0
 10
4917.5944252510253136
 20
268.8249699302230056
 30
0.0
 11
4917.6212470352238597
 21
268.8249699302230056
 31
0.0
  0
LINE
  5
F03E
  8
0
 10
4917.6212470352238597
 20
268.8249699302230056
 30
0.0
 11
4917.6326894233779967
 21
268.8300994125344232
 31
0.0
  0
ARC
  5
F03F
  8
0
 10
4917.5871638474391148
 20
268.8250356213579266
 30
0.0
 40
0.0072617007205678
 50
333.072698072278115
 51
359.4816811840731248
  0
ARC
  5
F040
  8
0
 10
4917.5901025913681224
 20
268.8235429502848888
 30
0.0
 40
0.003965599567496
 50
301.1213110104520183
 51
333.072698072275216
  0
ARC
  5
F041
  8
0
 10
4917.6285143282511854
 20
268.8250078774343024
 30
0.0
 40
0.007267392098845
 50
180.2991753985965033
 51
202.8890976403542084
  0
ARC
  5
F042
  8
0
 10
4917.6259892142561512
 20
268.8239417936954965
 30
0.0
 40
0.0045264551738752
 50
202.8890976403542084
 51
236.9416860530332087
  0
LINE
  5
F043
  8
0
 10
4917.5693083576879872
 20
268.8722176007229905
 30
0.0
 11
4917.5772439765432864
 21
268.8722176007229905
 31
0.0
  0
LINE
  5
F044
  8
0
 10
4917.5772439765432864
 20
268.8722176007229905
 30
0.0
 11
4917.5929279012416373
 21
268.8792485118229934
 31
0.0
  0
LINE
  5
F045
  8
0
 10
4917.5929279012416373
 20
268.8792485118229934
 30
0.0
 11
4917.5871174187168435
 21
268.8818532798813976
 31
0.0
  0
ARC
  5
F046
  8
0
 10
4917.5822382370688501
 20
268.8770773781341745
 30
0.0
 40
0.007267392098845
 50
191.564623815134297
 51
202.8890976403542084
  0
ARC
  5
F047
  8
0
 10
4917.579713123073816
 20
268.8760112943954823
 30
0.0
 40
0.0045264551738752
 50
202.8890976403542084
 51
236.9416860530332087
  0
LINE
  5
F048
  8
0
 10
4917.5512972582082512
 20
268.8573406005230026
 30
0.0
 11
4917.5772439765432864
 21
268.8573406005230026
 31
0.0
  0
LINE
  5
F049
  8
0
 10
4917.5772439765432864
 20
268.8573406005230026
 30
0.0
 11
4917.5929279012416373
 21
268.8643715116230055
 31
0.0
  0
LINE
  5
F04A
  8
0
 10
4917.5929279012416373
 20
268.8643715116230055
 30
0.0
 11
4917.5772439765432864
 21
268.8714024227230084
 31
0.0
  0
LINE
  5
F04B
  8
0
 10
4917.5772439765432864
 20
268.8714024227230084
 30
0.0
 11
4917.5679805624167784
 21
268.8714024227230084
 31
0.0
  0
LINE
  5
F04C
  8
0
 10
4917.55542013764898
 20
268.8621624307230036
 30
0.0
 11
4917.5749709440433435
 21
268.8621624307230036
 31
0.0
  0
LINE
  5
F04D
  8
0
 10
4917.5749709440433435
 20
268.8621624307230036
 30
0.0
 11
4917.586413332194752
 21
268.8672919130344212
 31
0.0
  0
ARC
  5
F04E
  8
0
 10
4917.5822382370688501
 20
268.8622003779343004
 30
0.0
 40
0.007267392098845
 50
180.2991753985965033
 51
202.8890976403542084
  0
ARC
  5
F04F
  8
0
 10
4917.579713123073816
 20
268.8611342941954945
 30
0.0
 40
0.0045264551738752
 50
202.8890976403542084
 51
236.9416860530332087
  0
LINE
  5
F050
  8
0
 10
4917.550167552954008
 20
268.8424636003230148
 30
0.0
 11
4917.5772439765432864
 21
268.8424636003230148
 31
0.0
  0
LINE
  5
F051
  8
0
 10
4917.5772439765432864
 20
268.8424636003230148
 30
0.0
 11
4917.5929279012425468
 21
268.8494945114230177
 31
0.0
  0
LINE
  5
F052
  8
0
 10
4917.5929279012425468
 20
268.8494945114230177
 30
0.0
 11
4917.5772439765432864
 21
268.8565254225230206
 31
0.0
  0
LINE
  5
F053
  8
0
 10
4917.5772439765432864
 20
268.8565254225230206
 30
0.0
 11
4917.5507109913351087
 21
268.8565254225230206
 31
0.0
  0
LINE
  5
F054
  8
0
 10
4917.5481491598429784
 20
268.8472854305230157
 30
0.0
 11
4917.5463328425521468
 21
268.8480996632940787
 31
0.0
  0
LINE
  5
F055
  8
0
 10
4917.5481491598429784
 20
268.8472854305230157
 30
0.0
 11
4917.5749709440433435
 21
268.8472854305230157
 31
0.0
  0
LINE
  5
F056
  8
0
 10
4917.5749709440433435
 20
268.8472854305230157
 30
0.0
 11
4917.586413332194752
 21
268.8524149128343765
 31
0.0
  0
ARC
  5
F057
  8
0
 10
4917.5408877562567795
 20
268.84735112165788
 30
0.0
 40
0.0072617007205678
 50
340.832217168199179
 51
359.4816811840731248
  0
ARC
  5
F058
  8
0
 10
4917.5822382370688501
 20
268.8473233777341989
 30
0.0
 40
0.007267392098845
 50
180.2991753985965033
 51
202.8890976403542084
  0
ARC
  5
F059
  8
0
 10
4917.579713123073816
 20
268.8462572939955066
 30
0.0
 40
0.0045264551738752
 50
202.8890976403542084
 51
236.9416860530332087
  0
LINE
  5
F05A
  8
0
 10
4917.5705926859463943
 20
268.8280422689161924
 30
0.0
 11
4917.5762275113283977
 21
268.8280422689161924
 31
0.0
  0
LINE
  5
F05B
  8
0
 10
4917.5762275113283977
 20
268.8280422689161924
 30
0.0
 11
4917.5919114360267486
 21
268.8350731800161952
 31
0.0
  0
LINE
  5
F05C
  8
0
 10
4917.5919114360267486
 20
268.8350731800161952
 30
0.0
 11
4917.5762275113283977
 21
268.8421040911161981
 31
0.0
  0
LINE
  5
F05D
  8
0
 10
4917.5762275113283977
 20
268.8421040911161981
 30
0.0
 11
4917.5505339315659512
 21
268.8421040911161981
 31
0.0
  0
LINE
  5
F05E
  8
0
 10
4917.5620684617506413
 20
268.8328640991161933
 30
0.0
 11
4917.5739544788284547
 21
268.8328640991161933
 31
0.0
  0
LINE
  5
F05F
  8
0
 10
4917.5739544788284547
 20
268.8328640991161933
 30
0.0
 11
4917.5853968669798633
 21
268.8379935814276109
 31
0.0
  0
ARC
  5
F060
  8
0
 10
4917.5812217718539614
 20
268.8329020463274901
 30
0.0
 40
0.007267392098845
 50
180.2991753985965033
 51
202.8890976403542084
  0
ARC
  5
F061
  8
0
 10
4917.5786966578589272
 20
268.8318359625886842
 30
0.0
 40
0.0045264551738752
 50
202.8890976403542084
 51
236.9416860530332087
  0
LINE
  5
F062
  8
0
 10
4917.5956555403427046
 20
268.8193329219229781
 30
0.0
 11
4917.5928193663503407
 21
268.8180614999042177
 31
0.0
  0
LINE
  5
F063
  8
0
 10
4917.6289953259984031
 20
268.8061550946522971
 30
0.0
 11
4917.6427073142431254
 21
268.8123020108229753
 31
0.0
  0
LINE
  5
F064
  8
0
 10
4917.6427073142431254
 20
268.8123020108229753
 30
0.0
 11
4917.6270233895429556
 21
268.8193329219229781
 31
0.0
  0
LINE
  5
F065
  8
0
 10
4917.6270233895429556
 20
268.8193329219229781
 30
0.0
 11
4917.5956555403427046
 21
268.8193329219229781
 31
0.0
  0
LINE
  5
F066
  8
0
 10
4917.6152177623807802
 20
268.8100929299229733
 30
0.0
 11
4917.6247503570430126
 21
268.8100929299229733
 31
0.0
  0
LINE
  5
F067
  8
0
 10
4917.6247503570430126
 20
268.8100929299229733
 30
0.0
 11
4917.6361927451953306
 21
268.815222412234391
 31
0.0
  0
ARC
  5
F068
  8
0
 10
4917.6320176500703383
 20
268.8101308771342133
 30
0.0
 40
0.007267392098845
 50
180.2991753985965033
 51
202.8890976403542084
  0
ARC
  5
F069
  8
0
 10
4917.6294925360725756
 20
268.8090647933955211
 30
0.0
 40
0.0045264551738752
 50
202.8890976403542084
 51
205.5407038335908965
  0
LINE
  5
F06A
  8
0
 10
4917.6454349533432833
 20
268.8118944218230126
 30
0.0
 11
4917.6312952430553196
 21
268.8055557631062129
 31
0.0
  0
LINE
  5
F06B
  8
0
 10
4917.6648816327742679
 20
268.7978325996230069
 30
0.0
 11
4917.6768028025417152
 21
268.7978325996230069
 31
0.0
  0
LINE
  5
F06C
  8
0
 10
4917.6768028025417152
 20
268.7978325996230069
 30
0.0
 11
4917.6924867272427946
 21
268.8048635107230098
 31
0.0
  0
LINE
  5
F06D
  8
0
 10
4917.6924867272427946
 20
268.8048635107230098
 30
0.0
 11
4917.6768028025417152
 21
268.8118944218230126
 31
0.0
  0
LINE
  5
F06E
  8
0
 10
4917.6768028025417152
 20
268.8118944218230126
 30
0.0
 11
4917.6454349533432833
 21
268.8118944218230126
 31
0.0
  0
LINE
  5
F06F
  8
0
 10
4917.6477079858432262
 20
268.8026544298230078
 30
0.0
 11
4917.6362655976909082
 21
268.8077839121344255
 31
0.0
  0
LINE
  5
F070
  8
0
 10
4917.6477079858432262
 20
268.8026544298230078
 30
0.0
 11
4917.6745297700417723
 21
268.8026544298230078
 31
0.0
  0
LINE
  5
F071
  8
0
 10
4917.6745297700417723
 20
268.8026544298230078
 30
0.0
 11
4917.6859721581949998
 21
268.8077839121344255
 31
0.0
  0
ARC
  5
F072
  8
0
 10
4917.6404465822570273
 20
268.802720120957872
 30
0.0
 40
0.0072617007205678
 50
350.8392941792461102
 51
359.4816811840731248
  0
ARC
  5
F073
  8
0
 10
4917.6817970630690979
 20
268.8026923770343046
 30
0.0
 40
0.007267392098845
 50
180.2991753985965033
 51
202.8890976403542084
  0
ARC
  5
F074
  8
0
 10
4917.6792719490740637
 20
268.8016262932954987
 30
0.0
 40
0.0045264551738752
 50
202.8890976403542084
 51
236.9416860530332087
  0
LINE
  5
F075
  8
0
 10
4917.6952143662438175
 20
268.8044559217229903
 30
0.0
 11
4917.6795304415418286
 21
268.7974250106229874
 31
0.0
  0
LINE
  5
F076
  8
0
 10
4917.6795304415418286
 20
268.7974250106229874
 30
0.0
 11
4917.6880548695398829
 21
268.7936036141016984
 31
0.0
  0
LINE
  5
F077
  8
0
 10
4917.7098854951136673
 20
268.7903940995229846
 30
0.0
 11
4917.7265822154431589
 21
268.7903940995229846
 31
0.0
  0
LINE
  5
F078
  8
0
 10
4917.7265822154431589
 20
268.7903940995229846
 30
0.0
 11
4917.7422661401442383
 21
268.7974250106229874
 31
0.0
  0
LINE
  5
F079
  8
0
 10
4917.7422661401442383
 20
268.7974250106229874
 30
0.0
 11
4917.7265822154431589
 21
268.8044559217229903
 31
0.0
  0
LINE
  5
F07A
  8
0
 10
4917.7265822154431589
 20
268.8044559217229903
 30
0.0
 11
4917.6952143662438175
 21
268.8044559217229903
 31
0.0
  0
LINE
  5
F07B
  8
0
 10
4917.6974873987437604
 20
268.7952159297229855
 30
0.0
 11
4917.6860450105896234
 21
268.8003454120344031
 31
0.0
  0
LINE
  5
F07C
  8
0
 10
4917.6974873987437604
 20
268.7952159297229855
 30
0.0
 11
4917.724309182943216
 21
268.7952159297229855
 31
0.0
  0
LINE
  5
F07D
  8
0
 10
4917.724309182943216
 20
268.7952159297229855
 30
0.0
 11
4917.7357515710964435
 21
268.8003454120344031
 31
0.0
  0
ARC
  5
F07E
  8
0
 10
4917.6902259951575616
 20
268.7952816208579065
 30
0.0
 40
0.0072617007205678
 50
335.1837354438155785
 51
359.4816811840731248
  0
ARC
  5
F07F
  8
0
 10
4917.7315764759687227
 20
268.7952538769342254
 30
0.0
 40
0.007267392098845
 50
180.2991753985965033
 51
202.8890976403542084
  0
ARC
  5
F080
  8
0
 10
4917.729051361972779
 20
268.7941877931954764
 30
0.0
 40
0.0045264551738752
 50
202.8890976403542084
 51
236.9416860530332087
  0
LINE
  5
F081
  8
0
 10
4917.7449937792416677
 20
268.7970174216230248
 30
0.0
 11
4917.7293098545433168
 21
268.7899865105230219
 31
0.0
  0
LINE
  5
F082
  8
0
 10
4917.7293098545433168
 20
268.7899865105230219
 30
0.0
 11
4917.7353541472957659
 21
268.7872769282136005
 31
0.0
  0
LINE
  5
F083
  8
0
 10
4917.7774536790821003
 20
268.7834451523323764
 30
0.0
 11
4917.7920455531420885
 21
268.7899865105229082
 31
0.0
  0
LINE
  5
F084
  8
0
 10
4917.7920455531420885
 20
268.7899865105229082
 30
0.0
 11
4917.7763616284428281
 21
268.7970174216230248
 31
0.0
  0
LINE
  5
F085
  8
0
 10
4917.7763616284428281
 20
268.7970174216230248
 30
0.0
 11
4917.7449937792416677
 21
268.7970174216230248
 31
0.0
  0
LINE
  5
F086
  8
0
 10
4917.7472668117443391
 20
268.78777742962302
 30
0.0
 11
4917.7358244235911116
 21
268.7929069119343808
 31
0.0
  0
LINE
  5
F087
  8
0
 10
4917.7472668117443391
 20
268.78777742962302
 30
0.0
 11
4917.7740885959428851
 21
268.78777742962302
 31
0.0
  0
LINE
  5
F088
  8
0
 10
4917.7740885959428851
 20
268.78777742962302
 30
0.0
 11
4917.7855309840952032
 21
268.7929069119343808
 31
0.0
  0
ARC
  5
F089
  8
0
 10
4917.7400054081572307
 20
268.7878431207578842
 30
0.0
 40
0.0072617007205678
 50
345.6859930208639753
 51
359.4816811840731248
  0
ARC
  5
F08A
  8
0
 10
4917.7813558889693013
 20
268.7878153768342031
 30
0.0
 40
0.007267392098845
 50
180.2991753985965033
 51
202.8890976403542084
  0
ARC
  5
F08B
  8
0
 10
4917.7788307749742671
 20
268.7867492930955109
 30
0.0
 40
0.0045264551738752
 50
202.8890976403542084
 51
224.4680366447956033
  0
LINE
  5
F08C
  8
0
 10
4917.7972729051425631
 20
268.7884583308230049
 30
0.0
 11
4917.7849609614368092
 21
268.7829390374495802
 31
0.0
  0
LINE
  5
F08D
  8
0
 10
4917.8429744068453147
 20
268.7808221092557233
 30
0.0
 11
4917.8443246790429839
 21
268.781427419723002
 31
0.0
  0
LINE
  5
F08E
  8
0
 10
4917.8443246790429839
 20
268.781427419723002
 30
0.0
 11
4917.828640754342814
 21
268.7884583308230049
 31
0.0
  0
LINE
  5
F08F
  8
0
 10
4917.828640754342814
 20
268.7884583308230049
 30
0.0
 11
4917.7972729051425631
 21
268.7884583308230049
 31
0.0
  0
LINE
  5
F090
  8
0
 10
4917.7922228596307832
 20
268.7825011849063799
 30
0.0
 11
4917.7881035494910975
 21
268.7843478211344177
 31
0.0
  0
LINE
  5
F091
  8
0
 10
4917.8304162385793461
 20
268.781033239236308
 30
0.0
 11
4917.8378101099951891
 21
268.7843478211344177
 31
0.0
  0
LINE
  5
F092
  8
0
 10
4917.8445526052428249
 20
268.9010222728230133
 30
0.0
 11
4917.8288686805426551
 21
268.8939913617230104
 31
0.0
  0
LINE
  5
F093
  8
0
 10
4917.8288686805426551
 20
268.8939913617230104
 30
0.0
 11
4917.8445526052792047
 21
268.8869604506230075
 31
0.0
  0
LINE
  5
F094
  8
0
 10
4917.8445526052792047
 20
268.8869604506230075
 30
0.0
 11
4917.8759204272073475
 21
268.8869604506230075
 31
0.0
  0
LINE
  5
F095
  8
0
 10
4917.8759204272428178
 20
268.9010222728230133
 30
0.0
 11
4917.8445526052428249
 21
268.9010222728230133
 31
0.0
  0
LINE
  5
F096
  8
0
 10
4917.8468256377427679
 20
268.8917822808230085
 30
0.0
 11
4917.8353832495913593
 21
268.8969117631344261
 31
0.0
  0
LINE
  5
F097
  8
0
 10
4917.8468256377427679
 20
268.8917822808230085
 30
0.0
 11
4917.8736473947428749
 21
268.8917822808230085
 31
0.0
  0
ARC
  5
F098
  8
0
 10
4917.839564234156569
 20
268.8918479719578727
 30
0.0
 40
0.0072617007205678
 50
333.072698072278115
 51
359.4816811840731248
  0
ARC
  5
F099
  8
0
 10
4917.8425029780873956
 20
268.8903553008848917
 30
0.0
 40
0.003965599567496
 50
301.1213110104520183
 51
333.072698072275216
  0
LINE
  5
F09A
  8
0
 10
4917.8445525916431507
 20
268.8862794229229962
 30
0.0
 11
4917.8288686669429808
 21
268.8792485118229934
 31
0.0
  0
LINE
  5
F09B
  8
0
 10
4917.8288686669429808
 20
268.8792485118229934
 30
0.0
 11
4917.8445525916804399
 21
268.8722176007229905
 31
0.0
  0
LINE
  5
F09C
  8
0
 10
4917.8445525916804399
 20
268.8722176007229905
 30
0.0
 11
4917.8759204408070218
 21
268.8722176007229905
 31
0.0
  0
LINE
  5
F09D
  8
0
 10
4917.8759204408434016
 20
268.8862794229229962
 30
0.0
 11
4917.8445525916431507
 21
268.8862794229229962
 31
0.0
  0
LINE
  5
F09E
  8
0
 10
4917.8468256241430936
 20
268.8770394309229914
 30
0.0
 11
4917.8353832359907756
 21
268.882168913234409
 31
0.0
  0
LINE
  5
F09F
  8
0
 10
4917.8468256241430936
 20
268.8770394309229914
 30
0.0
 11
4917.8736474083425492
 21
268.8770394309229914
 31
0.0
  0
ARC
  5
F0A0
  8
0
 10
4917.8395642205578042
 20
268.8771051220579125
 30
0.0
 40
0.0072617007205678
 50
333.072698072278115
 51
359.4816811840731248
  0
ARC
  5
F0A1
  8
0
 10
4917.8425029644868118
 20
268.8756124509848746
 30
0.0
 40
0.003965599567496
 50
301.1213110104520183
 51
333.072698072275216
  0
LINE
  5
F0A2
  8
0
 10
4917.8445525916431507
 20
268.8563912722229929
 30
0.0
 11
4917.8288686669429808
 21
268.8493603611229901
 31
0.0
  0
LINE
  5
F0A3
  8
0
 10
4917.8288686669429808
 20
268.8493603611229901
 30
0.0
 11
4917.8445525916804399
 21
268.8423294500229872
 31
0.0
  0
LINE
  5
F0A4
  8
0
 10
4917.8445525916804399
 20
268.8423294500229872
 30
0.0
 11
4917.8759204408070218
 21
268.8423294500229872
 31
0.0
  0
LINE
  5
F0A5
  8
0
 10
4917.8759204408434016
 20
268.8563912722229929
 30
0.0
 11
4917.8445525916431507
 21
268.8563912722229929
 31
0.0
  0
LINE
  5
F0A6
  8
0
 10
4917.8468256241430936
 20
268.8471512802229881
 30
0.0
 11
4917.8353832359907756
 21
268.8522807625344058
 31
0.0
  0
LINE
  5
F0A7
  8
0
 10
4917.8468256241430936
 20
268.8471512802229881
 30
0.0
 11
4917.8736474083425492
 21
268.8471512802229881
 31
0.0
  0
ARC
  5
F0A8
  8
0
 10
4917.8395642205578042
 20
268.8472169713579092
 30
0.0
 40
0.0072617007205678
 50
333.072698072278115
 51
359.4816811840731248
  0
ARC
  5
F0A9
  8
0
 10
4917.8425029644868118
 20
268.8457243002849282
 30
0.0
 40
0.003965599567496
 50
301.1213110104520183
 51
333.072698072275216
  0
LINE
  5
F0AA
  8
0
 10
4917.8445526052428249
 20
268.8415142719230175
 30
0.0
 11
4917.8288686805426551
 21
268.8344833608230147
 31
0.0
  0
LINE
  5
F0AB
  8
0
 10
4917.8288686805426551
 20
268.8344833608230147
 30
0.0
 11
4917.8445526052792047
 21
268.8274524497230118
 31
0.0
  0
LINE
  5
F0AC
  8
0
 10
4917.8445526052792047
 20
268.8274524497230118
 30
0.0
 11
4917.8759204272073475
 21
268.8274524497230118
 31
0.0
  0
LINE
  5
F0AD
  8
0
 10
4917.8759204272428178
 20
268.8415142719230175
 30
0.0
 11
4917.8445526052428249
 21
268.8415142719230175
 31
0.0
  0
LINE
  5
F0AE
  8
0
 10
4917.8468256377427679
 20
268.8322742799230127
 30
0.0
 11
4917.8353832495913593
 21
268.8374037622343735
 31
0.0
  0
LINE
  5
F0AF
  8
0
 10
4917.8468256377427679
 20
268.8322742799230127
 30
0.0
 11
4917.8736473947428749
 21
268.8322742799230127
 31
0.0
  0
ARC
  5
F0B0
  8
0
 10
4917.839564234156569
 20
268.8323399710578769
 30
0.0
 40
0.0072617007205678
 50
333.072698072278115
 51
359.4816811840731248
  0
ARC
  5
F0B1
  8
0
 10
4917.8425029780873956
 20
268.8308472999848959
 30
0.0
 40
0.003965599567496
 50
301.1213110104520183
 51
333.072698072275216
  0
LINE
  5
F0B2
  8
0
 10
4917.8445526052428249
 20
268.8266372717229729
 30
0.0
 11
4917.8288686805426551
 21
268.8196063606230268
 31
0.0
  0
LINE
  5
F0B3
  8
0
 10
4917.8288686805426551
 20
268.8196063606230268
 30
0.0
 11
4917.8445526052792047
 21
268.812575449523024
 31
0.0
  0
LINE
  5
F0B4
  8
0
 10
4917.8445526052792047
 20
268.812575449523024
 30
0.0
 11
4917.8759204272073475
 21
268.812575449523024
 31
0.0
  0
LINE
  5
F0B5
  8
0
 10
4917.8759204272428178
 20
268.8266372717229729
 30
0.0
 11
4917.8445526052428249
 21
268.8266372717229729
 31
0.0
  0
LINE
  5
F0B6
  8
0
 10
4917.8468256377427679
 20
268.8173972797230249
 30
0.0
 11
4917.8353832495913593
 21
268.8225267620343857
 31
0.0
  0
LINE
  5
F0B7
  8
0
 10
4917.8468256377427679
 20
268.8173972797230249
 30
0.0
 11
4917.8736473947428749
 21
268.8173972797230249
 31
0.0
  0
ARC
  5
F0B8
  8
0
 10
4917.839564234156569
 20
268.8174629708578891
 30
0.0
 40
0.0072617007205678
 50
333.072698072278115
 51
359.4816811840731248
  0
ARC
  5
F0B9
  8
0
 10
4917.8425029780873956
 20
268.8159702997849081
 30
0.0
 40
0.003965599567496
 50
301.1213110104520183
 51
333.072698072275216
  0
LINE
  5
F0BA
  8
0
 10
4917.8445525916431507
 20
268.811760271522985
 30
0.0
 11
4917.8288686669429808
 21
268.8047293604229822
 31
0.0
  0
LINE
  5
F0BB
  8
0
 10
4917.8288686669429808
 20
268.8047293604229822
 30
0.0
 11
4917.8445525916804399
 21
268.7976984493229793
 31
0.0
  0
LINE
  5
F0BC
  8
0
 10
4917.8445525916804399
 20
268.7976984493229793
 30
0.0
 11
4917.8759204408070218
 21
268.7976984493229793
 31
0.0
  0
LINE
  5
F0BD
  8
0
 10
4917.8759204408434016
 20
268.811760271522985
 30
0.0
 11
4917.8445525916431507
 21
268.811760271522985
 31
0.0
  0
LINE
  5
F0BE
  8
0
 10
4917.8468256241430936
 20
268.8025202795229802
 30
0.0
 11
4917.8353832359907756
 21
268.8076497618343979
 31
0.0
  0
LINE
  5
F0BF
  8
0
 10
4917.8468256241430936
 20
268.8025202795229802
 30
0.0
 11
4917.8736474083425492
 21
268.8025202795229802
 31
0.0
  0
ARC
  5
F0C0
  8
0
 10
4917.8395642205578042
 20
268.8025859706579013
 30
0.0
 40
0.0072617007205678
 50
333.072698072278115
 51
359.4816811840731248
  0
ARC
  5
F0C1
  8
0
 10
4917.8425029644868118
 20
268.8010932995849203
 30
0.0
 40
0.003965599567496
 50
301.1213110104520183
 51
333.072698072275216
  0
LINE
  5
F0C2
  8
0
 10
4917.8445525916431507
 20
268.7968832712230096
 30
0.0
 11
4917.8288686669429808
 21
268.7898523601230067
 31
0.0
  0
LINE
  5
F0C3
  8
0
 10
4917.8288686669429808
 20
268.7898523601230067
 30
0.0
 11
4917.8445525916804399
 21
268.7828214490230039
 31
0.0
  0
LINE
  5
F0C4
  8
0
 10
4917.8445525916804399
 20
268.7828214490230039
 30
0.0
 11
4917.8759204408070218
 21
268.7828214490230039
 31
0.0
  0
LINE
  5
F0C5
  8
0
 10
4917.8759204408434016
 20
268.7968832712230096
 30
0.0
 11
4917.8445525916431507
 21
268.7968832712230096
 31
0.0
  0
LINE
  5
F0C6
  8
0
 10
4917.8468256241430936
 20
268.7876432792230048
 30
0.0
 11
4917.8353832359907756
 21
268.7927727615344224
 31
0.0
  0
LINE
  5
F0C7
  8
0
 10
4917.8468256241430936
 20
268.7876432792230048
 30
0.0
 11
4917.8736474083425492
 21
268.7876432792230048
 31
0.0
  0
ARC
  5
F0C8
  8
0
 10
4917.8395642205578042
 20
268.7877089703579259
 30
0.0
 40
0.0072617007205678
 50
333.072698072278115
 51
359.4816811840731248
  0
ARC
  5
F0C9
  8
0
 10
4917.8425029644868118
 20
268.786216299284888
 30
0.0
 40
0.003965599567496
 50
301.1213110104520183
 51
333.072698072275216
  0
ARC
  5
F0CA
  8
0
 10
4917.822394919549879
 20
270.2698281309704953
 30
0.0
 40
1.5184911723146739
 50
260.7783457877258115
 51
265.1506698161171016
  0
LINE
  5
F0CB
  8
0
 10
4917.7167591875158905
 20
268.7669625465803733
 30
0.0
 11
4917.6940281039442198
 21
268.756772480622999
 31
0.0
  0
LINE
  5
F0CC
  8
0
 10
4917.6940281039442198
 20
268.756772480622999
 30
0.0
 11
4917.6940281039442198
 21
268.711138189623
 31
0.0
  0
LINE
  5
F0CD
  8
0
 10
4917.6940281039442198
 20
268.711138189623
 30
0.0
 11
4917.7597563408417045
 21
268.7406033521230029
 31
0.0
  0
LINE
  5
F0CE
  8
0
 10
4917.7597559319847278
 20
268.7405972399470784
 30
0.0
 11
4917.7597559319847278
 21
268.7624613684155861
 31
0.0
  0
ARC
  5
F0CF
  8
0
 10
4917.8602365298429504
 20
270.6784648601063736
 30
0.0
 40
1.9743351967778049
 50
265.1708677881326253
 51
269.9999996053173277
  0
ARC
  5
F0D0
  8
0
 10
4917.8601906859112205
 20
270.2411691025208142
 30
0.0
 40
1.5039292052965441
 50
266.1708480740921914
 51
270.0017460160904079
  0
ARC
  5
F0D1
  8
0
 10
4917.0260612725833198
 20
265.5680978832278925
 30
0.0
 40
0.012282122073562
 50
180.5997316280275982
 51
256.4368968949067948
  0
LINE
  5
F0D2
  8
0
 10
4918.9035436028425465
 20
261.8514338728230086
 30
0.0
 11
4918.9035436028425465
 21
262.1860496208229847
 31
0.0
  0
LINE
  5
F0D3
  8
0
 10
4918.7066932091429408
 20
269.8367232702229899
 30
0.0
 11
4918.7066932091429408
 21
265.5679693250230002
 31
0.0
  0
LINE
  5
F0D4
  8
0
 10
4918.7066932091429408
 20
265.5561582822230093
 30
0.0
 11
4918.7066932091429408
 21
264.7339291317475727
 31
0.0
  0
LINE
  5
F0D5
  8
0
 10
4918.7066932091429408
 20
263.7854504832479847
 30
0.0
 11
4918.7066932091429408
 21
262.2766307232229792
 31
0.0
  0
ARC
  5
F0D6
  8
0
 10
4918.864143602842887
 20
262.1860496208229847
 30
0.0
 40
0.0394
 50
0.0
 51
90.0
  0
LINE
  5
F0D7
  8
0
 10
4918.4114176185430551
 20
262.245134660223016
 30
0.0
 11
4918.4114176185430551
 21
262.2766307232229792
 31
0.0
  0
ARC
  5
F0D8
  8
0
 10
4918.4311026579425743
 20
262.245134660223016
 30
0.0
 40
0.0196850393999999
 50
180.0
 51
270.0
  0
ARC
  5
F0D9
  8
0
 10
4918.6672932091432813
 20
269.8367232702229899
 30
0.0
 40
0.0394
 50
0.0000000000016284
 51
90.0
  0
LINE
  5
F0DA
  8
0
 10
4918.186669165677813
 20
269.8822882969229795
 30
0.0
 11
4918.0136381491693101
 21
269.8822882969229795
 31
0.0
  0
ARC
  5
F0DB
  8
0
 10
4918.2187833781799782
 20
269.9726520036094826
 30
0.0
 40
0.0965353892232544
 50
259.6291399501878914
 51
269.3271811041732917
  0
ARC
  5
F0DC
  8
0
 10
4918.2043579614601185
 20
269.8938283259203104
 30
0.0
 40
0.0164025943638538
 50
249.332610408491405
 51
259.6291399501878914
  0
ARC
  5
F0DD
  8
0
 10
4918.179046445644417
 20
269.8379605871211879
 30
0.0
 40
0.0449783472018919
 50
64.2758566302440357
 51
80.2426852130952142
  0
ARC
  5
F0DE
  8
0
 10
4918.0448843649137416
 20
269.8659003021547278
 30
0.0
 40
0.0115338064192194
 50
62.4178853181080484
 51
83.9804795232421668
  0
ARC
  5
F0DF
  8
0
 10
4918.034686669921939
 20
269.9220015077648895
 30
0.0
 40
0.0449464052096788
 50
218.2130909421580043
 51
263.2082294096812234
  0
ARC
  5
F0E0
  8
0
 10
4917.9844380392687526
 20
269.8812140041529233
 30
0.0
 40
0.0197888872057388
 50
41.005837864226109
 51
86.1092140555385157
  0
ARC
  5
F0E1
  8
0
 10
4918.6671991854236694
 20
269.2931892168231798
 30
0.0
 40
0.0396397820434252
 50
305.730781531368109
 51
355.0847480630737891
  0
ARC
  5
F0E2
  8
0
 10
4918.0080438353270438
 20
270.0888591013247719
 30
0.0
 40
1.072786847595643
 50
298.1146973206202233
 51
309.4949985733704807
  0
ARC
  5
F0E3
  8
0
 10
4918.6076983833509075
 20
269.0395799326304882
 30
0.0
 40
0.1395790307670756
 50
132.3988822960000107
 51
154.2779357216801941
  0
ARC
  5
F0E4
  8
0
 10
4918.7214287046672325
 20
268.9856597427151996
 30
0.0
 40
0.2654426512723267
 50
154.4468195231198138
 51
177.590302007340199
  0
ARC
  5
F0E5
  8
0
 10
4919.3127371600803599
 20
268.9607763130183002
 30
0.0
 40
0.8572744470697834
 50
177.590302007340199
 51
186.7238622344825956
  0
ARC
  5
F0E6
  8
0
 10
4917.8202773836183042
 20
267.5530098378739012
 30
0.0
 40
1.6489897026611859
 50
75.9661846309055733
 51
88.6114444632562339
  0
ARC
  5
F0E7
  8
0
 10
4918.3925866684348875
 20
269.8426593566480278
 30
0.0
 40
0.7111019981656649
 50
255.9661846309055875
 51
267.0135253346140871
  0
ARC
  5
F0E8
  8
0
 10
4918.3869393638324254
 20
269.7344134578793842
 30
0.0
 40
0.6027088865326647
 50
267.0135253346140871
 51
278.7381235617295943
  0
ARC
  5
F0E9
  8
0
 10
4918.2993562161173031
 20
269.5937782284876221
 30
0.0
 40
0.4890697538615758
 50
291.4875502150295006
 51
298.5388862396969216
  0
ARC
  5
F0EA
  8
0
 10
4917.8296185324516046
 20
270.3373317939949061
 30
0.0
 40
1.3679018617341641
 50
300.9448814962296979
 51
308.9936293169440091
  0
ARC
  5
F0EB
  8
0
 10
4918.6647517076116856
 20
269.3081067363900729
 30
0.0
 40
0.0425025088497627
 50
307.031241560925082
 51
350.6804815491186105
  0
ARC
  5
F0EC
  8
0
 10
4917.8626908757723868
 20
266.9751953540551881
 30
0.0
 40
2.0312947807339778
 50
84.1480291883173379
 51
90.0691830355354028
  0
ARC
  5
F0ED
  8
0
 10
4917.9093428107516957
 20
267.4303681512661228
 30
0.0
 40
1.573737485569533
 50
77.6864562714346931
 51
84.1480291883173379
  0
ARC
  5
F0EE
  8
0
 10
4918.0360177515440228
 20
268.0106927880437979
 30
0.0
 40
0.9797482393068285
 50
69.084182220422349
 51
77.6864562714346931
  0
ARC
  5
F0EF
  8
0
 10
4918.3222980463342537
 20
268.759766187350408
 30
0.0
 40
0.1778334279122533
 50
45.8556475092079197
 51
69.084182220422349
  0
ARC
  5
F0F0
  8
0
 10
4918.4096682747649538
 20
268.8497857278210859
 30
0.0
 40
0.0523859309958533
 50
359.2923127944047792
 51
45.8556475092079197
  0
ARC
  5
F0F1
  8
0
 10
4918.4045353259371041
 20
268.8521700677408148
 30
0.0
 40
0.0575947137816812
 50
329.5320896630601055
 51
356.9829728495751056
  0
ARC
  5
F0F2
  8
0
 10
4918.3548131710731468
 20
268.8869461162777839
 30
0.0
 40
0.1181802747998088
 50
302.2802113468716243
 51
327.2227497181987133
  0
ARC
  5
F0F3
  8
0
 10
4918.1964203382403866
 20
269.1494557179669869
 30
0.0
 40
0.4247558694149845
 50
284.72569260478258
 51
301.4326141098031826
  0
ARC
  5
F0F4
  8
0
 10
4917.9645902709244183
 20
269.9782040941100831
 30
0.0
 40
1.2852838082549449
 50
275.8355141847090977
 51
285.32993688056888
  0
ARC
  5
F0F5
  8
0
 10
4917.8630010285351091
 20
270.8371433810523854
 30
0.0
 40
2.150144695162945
 50
269.9263328971828741
 51
276.2014364209687187
  0
ARC
  5
F0F6
  8
0
 10
4917.8616266340668517
 20
266.8669308120906862
 30
0.0
 40
2.1251974343197282
 50
83.5726318604917253
 51
90.0409687602002862
  0
ARC
  5
F0F7
  8
0
 10
4917.9427190914266248
 20
267.5867821550359054
 30
0.0
 40
1.4007928908631631
 50
77.5509091756418627
 51
83.5726318604917253
  0
ARC
  5
F0F8
  8
0
 10
4918.0663057101928644
 20
268.146598874854817
 30
0.0
 40
0.8274967962256361
 50
69.5073182272437862
 51
77.5509091756418627
  0
ARC
  5
F0F9
  8
0
 10
4918.2600958857337901
 20
268.665116132741673
 30
0.0
 40
0.2739493467122176
 50
54.0728042677384408
 51
69.5073182272437862
  0
ARC
  5
F0FA
  8
0
 10
4918.3705998548957723
 20
268.8176189299684893
 30
0.0
 40
0.0856192366319044
 50
30.0934022286949983
 51
54.0728042677384408
  0
ARC
  5
F0FB
  8
0
 10
4918.4088863879969722
 20
268.8398069670359973
 30
0.0
 40
0.0413680490124992
 50
340.7372678558210168
 51
30.0934022286949983
  0
ARC
  5
F0FC
  8
0
 10
4918.3960705008521472
 20
268.8442856706581097
 30
0.0
 40
0.0549439743749638
 50
318.3319129416985902
 51
340.7372678558210168
  0
ARC
  5
F0FD
  8
0
 10
4918.313881223860335
 20
268.91743156791091
 30
0.0
 40
0.1649685149888175
 50
292.6233110313639827
 51
318.3319129416985902
  0
ARC
  5
F0FE
  8
0
 10
4917.8617948695573432
 20
266.9559947277415972
 30
0.0
 40
2.0247812107750431
 50
85.3207403263887159
 51
90.0440976510135016
  0
ARC
  5
F0FF
  8
0
 10
4917.895246490318641
 20
267.3646862233354113
 30
0.0
 40
1.6147229838093611
 50
81.0405073133572671
 51
85.3207403263887159
  0
ARC
  5
F100
  8
0
 10
4917.9755506890023753
 20
267.8740373616582247
 30
0.0
 40
1.099080329990993
 50
75.2166918232855153
 51
81.0405073133572671
  0
ARC
  5
F101
  8
0
 10
4918.1300070915831384
 20
268.4593217308877797
 30
0.0
 40
0.4937584543222162
 50
62.5477282972579118
 51
75.2166918232855153
  0
ARC
  5
F102
  8
0
 10
4918.3034181655948487
 20
268.7931199057780987
 30
0.0
 40
0.1176034036450839
 50
36.5227608383099991
 51
62.5477282972579118
  0
ARC
  5
F103
  8
0
 10
4918.366224842916381
 20
268.8396330248648951
 30
0.0
 40
0.0394487559051373
 50
322.9612577665437243
 51
36.5227608383099991
  0
ARC
  5
F104
  8
0
 10
4918.3021248882423606
 20
268.8880037951458917
 30
0.0
 40
0.1197515304948906
 50
298.3779035635320724
 51
322.9612577665437243
  0
ARC
  5
F105
  8
0
 10
4918.1434630838266457
 20
269.1817133424581243
 30
0.0
 40
0.4535761346847851
 50
282.9143719575113209
 51
298.3779035635320724
  0
ARC
  5
F106
  8
0
 10
4917.871717439477834
 20
270.3668509866079148
 30
0.0
 40
1.6694696048554101
 50
277.37267183976968
 51
282.9143719575113209
  0
ARC
  5
F107
  8
0
 10
4917.8635392927280918
 20
270.6590938188984978
 30
0.0
 40
1.960566065979469
 50
269.9034787672025004
 51
276.5137193087418268
  0
ARC
  5
F108
  8
0
 10
4917.8616116779166987
 20
267.0334535088708776
 30
0.0
 40
1.941723189412679
 50
85.1302895983159402
 51
90.0405782586577033
  0
LINE
  5
F109
  8
0
 10
4918.026444928543242
 20
268.9740703728958806
 30
0.0
 11
4918.026444928543242
 21
268.9681676851229781
 31
0.0
  0
LINE
  5
F10A
  8
0
 10
4918.026444928543242
 20
268.9681676851229781
 30
0.0
 11
4917.9607166916430288
 21
268.9387025225229877
 31
0.0
  0
ARC
  5
F10B
  8
0
 10
4917.8603346277232049
 20
267.4424377143413949
 30
0.0
 40
1.499628265590963
 50
86.1618672378505437
 51
90.0037485114351057
  0
ARC
  5
F10C
  8
0
 10
4917.9061791055110007
 20
268.1312974013782195
 30
0.0
 40
0.8115767149811114
 50
75.2340632133112734
 51
85.8278130681957379
  0
ARC
  5
F10D
  8
0
 10
4918.0465874894580338
 20
268.6640039495649148
 30
0.0
 40
0.2606767415163349
 50
59.8458522865240923
 51
75.2340632133112734
  0
ARC
  5
F10E
  8
0
 10
4918.1470553682556783
 20
268.8369432432834856
 30
0.0
 40
0.0606722566114636
 50
31.7665801573491784
 51
59.8458522865240923
  0
ARC
  5
F10F
  8
0
 10
4918.1790646501222
 20
268.8567640000824213
 30
0.0
 40
0.0230231327744781
 50
339.4941054837327101
 51
31.7665801573505711
  0
ARC
  5
F110
  8
0
 10
4918.1647669579479043
 20
268.8621113647516836
 30
0.0
 40
0.0382880700628285
 50
315.8305042509592795
 51
339.4941054837327101
  0
ARC
  5
F111
  8
0
 10
4918.1046300903490192
 20
268.9205296510451717
 30
0.0
 40
0.1221280308102135
 50
305.8386052812571734
 51
315.8305042509592795
  0
ARC
  5
F112
  8
0
 10
4917.9334431971574304
 20
268.276902989145924
 30
0.0
 40
0.6826085702444609
 50
72.2608752145058588
 51
84.4150442353261781
  0
ARC
  5
F113
  8
0
 10
4917.9578195525782576
 20
268.2487083633578777
 30
0.0
 40
0.732024926747083
 50
75.4742231319890493
 51
78.3400275520270242
  0
LINE
  5
F114
  8
0
 10
4918.1467172217417101
 20
268.9597074726229948
 30
0.0
 11
4918.1414227797431522
 21
268.9573340391229976
 31
0.0
  0
LINE
  5
F115
  8
0
 10
4918.1414227797431522
 20
268.9573340391229976
 30
0.0
 11
4918.1414227797431522
 21
268.9116997481229987
 31
0.0
  0
LINE
  5
F116
  8
0
 10
4918.2071510167434099
 20
268.948438990455827
 30
0.0
 11
4918.2071510167434099
 21
268.9411649107229891
 31
0.0
  0
LINE
  5
F117
  8
0
 10
4918.2071510167434099
 20
268.9411649107229891
 30
0.0
 11
4918.1414227797431522
 21
268.9116997481229987
 31
0.0
  0
LINE
  5
F118
  8
0
 10
4918.37335944264305
 20
268.8876650183635775
 30
0.0
 11
4918.37335944264305
 21
268.8666557117230127
 31
0.0
  0
LINE
  5
F119
  8
0
 10
4918.37335944264305
 20
268.8666557117230127
 30
0.0
 11
4918.2419029687416696
 21
268.8666557117230127
 31
0.0
  0
ARC
  5
F11A
  8
0
 10
4918.2851289687569079
 20
268.7936003911949001
 30
0.0
 40
0.1145499732850514
 50
39.6249446734861479
 51
63.4567095516209534
  0
ARC
  5
F11B
  8
0
 10
4918.0957670272837277
 20
268.4145166399936784
 30
0.0
 40
0.5382980532847174
 50
63.4567095516209534
 51
78.0581528696091596
  0
ARC
  5
F11C
  8
0
 10
4918.031602346121872
 20
268.4849052872427819
 30
0.0
 40
0.4406972197311191
 50
67.7294894737027136
 51
75.5699989702747672
  0
ARC
  5
F11D
  8
0
 10
4918.1299689503603076
 20
268.7250999092116217
 30
0.0
 40
0.181140972932925
 50
56.983317960542621
 51
67.7294894737027136
  0
ARC
  5
F11E
  8
0
 10
4918.1758418943336437
 20
268.7956930423698054
 30
0.0
 40
0.0969523903463653
 50
47.0487033629357612
 51
56.983317960542621
  0
ARC
  5
F11F
  8
0
 10
4918.2010381473382949
 20
268.9018570638614847
 30
0.0
 40
0.0597369731846593
 50
313.1632351693925216
 51
323.894604451992393
  0
LINE
  5
F120
  8
0
 10
4918.37335944264305
 20
268.8582844539229768
 30
0.0
 11
4918.2419029687416696
 21
268.8582844539229768
 31
0.0
  0
LINE
  5
F121
  8
0
 10
4918.2419029687416696
 20
268.8582844539229768
 30
0.0
 11
4918.2419029687416696
 21
268.8126501629229779
 31
0.0
  0
LINE
  5
F122
  8
0
 10
4918.2419029687416696
 20
268.8126501629229779
 30
0.0
 11
4918.37335944264305
 21
268.8126501629229779
 31
0.0
  0
LINE
  5
F123
  8
0
 10
4918.37335944264305
 20
268.8126501629229779
 30
0.0
 11
4918.37335944264305
 21
268.8582844539229768
 31
0.0
  0
ARC
  5
F124
  8
0
 10
4918.3369551473488173
 20
268.8884626069392993
 30
0.0
 40
0.0472862943705734
 50
320.3422085163721817
 51
348.9193530197014184
  0
ARC
  5
F125
  8
0
 10
4918.0888549372193665
 20
269.0194628528989824
 30
0.0
 40
0.2572842565888218
 50
281.7895869338597095
 51
306.5026299230415816
  0
ARC
  5
F126
  8
0
 10
4918.259287776561905
 20
268.9169068853394151
 30
0.0
 40
0.1545374037941233
 50
293.135400167304681
 51
317.5739963577822209
  0
ARC
  5
F127
  8
0
 10
4918.059863347531973
 20
269.383651608999287
 30
0.0
 40
0.6621009367222169
 50
282.8532684713654817
 51
293.135400167304681
  0
LINE
  5
F128
  8
0
 10
4918.2071510167434099
 20
268.7381409639230014
 30
0.0
 11
4918.1414227797431522
 21
268.7676061265229919
 31
0.0
  0
LINE
  5
F129
  8
0
 10
4918.1414227797431522
 20
268.7676061265229919
 30
0.0
 11
4918.1414227797431522
 21
268.8001378164562993
 31
0.0
  0
ARC
  5
F12A
  8
0
 10
4918.1797890146908685
 20
268.8721019746841989
 30
0.0
 40
0.0298839948354985
 50
2.4383699182389749
 51
38.8162058889741104
  0
ARC
  5
F12B
  8
0
 10
4918.1564508331930483
 20
268.8748239314762145
 30
0.0
 40
0.0532148917230373
 50
312.2493148835490047
 51
358.4380182154233125
  0
LINE
  5
F12C
  8
0
 10
4918.2096459514432354
 20
268.8877763597919284
 30
0.0
 11
4918.2096459514432354
 21
268.8733733814208904
 31
0.0
  0
ARC
  5
F12D
  8
0
 10
4918.0693780792253165
 20
268.9559452088261082
 30
0.0
 40
0.1716577478292406
 50
286.6519547709667108
 51
308.4569387486524192
  0
ARC
  5
F12E
  8
0
 10
4917.9326321845428538
 20
269.3810802367117958
 30
0.0
 40
0.6182177122838831
 50
276.6023770516555942
 51
287.5033053528035794
  0
ARC
  5
F12F
  8
0
 10
4917.8627672010889
 20
269.9057214055288796
 30
0.0
 40
1.147448340996146
 50
269.8736337106624887
 51
277.0557381813461006
  0
ARC
  5
F130
  8
0
 10
4917.8604244445032236
 20
267.6864787496920144
 30
0.0
 40
1.2430146055371569
 50
86.171526129485045
 51
90.0086624052174358
  0
ARC
  5
F131
  8
0
 10
4917.8741811378777129
 20
267.8920507567526101
 30
0.0
 40
1.036982819883782
 50
81.7225471080047328
 51
86.171526129485045
  0
ARC
  5
F132
  8
0
 10
4917.9280795655686234
 20
268.2625316276485137
 30
0.0
 40
0.6626018425258261
 50
74.1491557627721818
 51
81.7225471080047328
  0
ARC
  5
F133
  8
0
 10
4918.0407424047625682
 20
268.6593293245746281
 30
0.0
 40
0.2501199306544631
 50
61.9559678370081386
 51
74.1491557627721818
  0
ARC
  5
F134
  8
0
 10
4918.1187888734648368
 20
268.8058416429614113
 30
0.0
 40
0.0841165851583558
 50
41.7498616926895423
 51
61.9559678370081386
  0
ARC
  5
F135
  8
0
 10
4918.161296197212323
 20
268.8437806955930114
 30
0.0
 40
0.0271407632099421
 50
1.6277641588925169
 51
41.7498616926895423
  0
ARC
  5
F136
  8
0
 10
4918.1622249057018053
 20
268.8438070871570744
 30
0.0
 40
0.0262116798050431
 50
309.3307321479691154
 51
1.6277641588925169
  0
ARC
  5
F137
  8
0
 10
4917.861177688533644
 20
267.9255185601056155
 30
0.0
 40
0.997553795005928
 50
88.4051280811535349
 51
90.0540574436457746
  0
ARC
  5
F138
  8
0
 10
4917.8412357366723882
 20
267.2092889093175927
 30
0.0
 40
1.714061013470497
 50
87.0459498744274782
 51
88.4051280811535349
  0
ARC
  5
F139
  8
0
 10
4917.884971583593142
 20
268.0568231593792916
 30
0.0
 40
0.8653990493566746
 50
82.7881747198256761
 51
87.0459498744274782
  0
ARC
  5
F13A
  8
0
 10
4917.8680234526973436
 20
267.9228872043410092
 30
0.0
 40
1.0004030463080931
 50
79.874335832596671
 51
82.7881747198256761
  0
ARC
  5
F13B
  8
0
 10
4917.9549041659292925
 20
268.4093705013586941
 30
0.0
 40
0.5062226575745576
 50
72.4422520629107538
 51
79.874335832596671
  0
ARC
  5
F13C
  8
0
 10
4918.0474067730347087
 20
268.7017235136888189
 30
0.0
 40
0.199584407938449
 50
55.5057218241217782
 51
72.4422520629107538
  0
ARC
  5
F13D
  8
0
 10
4918.133903466207812
 20
268.8313547449693033
 30
0.0
 40
0.0438109621610144
 50
26.4233971831288095
 51
52.7266307739572682
  0
ARC
  5
F13E
  8
0
 10
4918.1518877243051975
 20
268.8415472881812889
 30
0.0
 40
0.0231971085736695
 50
331.1127172136742729
 51
23.6443061329284809
  0
ARC
  5
F13F
  8
0
 10
4918.1336726910867583
 20
268.8515972523842947
 30
0.0
 40
0.0440006951775913
 50
302.6630372243109264
 51
331.1127172136742729
  0
ARC
  5
F140
  8
0
 10
4918.0430380643956596
 20
268.992975731415072
 30
0.0
 40
0.2119367243327667
 50
288.7427354242660158
 51
302.6630372243109264
  0
ARC
  5
F141
  8
0
 10
4917.9759778930319953
 20
269.1906109478878193
 30
0.0
 40
0.4206392527643493
 50
280.5144320313150956
 51
288.7427354242660158
  0
ARC
  5
F142
  8
0
 10
4917.8572476903336792
 20
269.8303224841870929
 30
0.0
 40
1.0712756417767799
 50
276.9381261749979899
 51
280.5144320313150956
  0
ARC
  5
F143
  8
0
 10
4917.8878408537302676
 20
269.5789169892801738
 30
0.0
 40
0.818015568895289
 50
272.3617487644265793
 51
276.9381261749979899
  0
ARC
  5
F144
  8
0
 10
4917.8415218659756647
 20
270.7019743176725228
 30
0.0
 40
1.9420276735819431
 50
270.5521481937594217
 51
272.3617487644265793
  0
ARC
  5
F145
  8
0
 10
4918.1427020237733814
 20
268.8548921615089853
 30
0.0
 40
0.0330955484789761
 50
311.0194624866909976
 51
344.6893984929408248
  0
ARC
  5
F146
  8
0
 10
4918.0836054429591968
 20
268.9228283799487826
 30
0.0
 40
0.1231385140007968
 50
302.4613726702020244
 51
311.0194624866909976
  0
ARC
  5
F147
  8
0
 10
4918.0410709789102839
 20
269.0103046314599737
 30
0.0
 40
0.2200547130713062
 50
286.6048660485947153
 51
299.5797810333253892
  0
ARC
  5
F148
  8
0
 10
4917.9169475346279796
 20
269.4392334130910172
 30
0.0
 40
0.666577035961763
 50
275.2664960654224728
 51
286.2930545056731262
  0
ARC
  5
F149
  8
0
 10
4917.8617289747908217
 20
269.9154318666317067
 30
0.0
 40
1.145889137952788
 50
269.9253746488543015
 51
275.8303182830691185
  0
ARC
  5
F14A
  8
0
 10
4918.1167765556720042
 20
268.896648896291083
 30
0.0
 40
0.0761668693643254
 50
296.7654635249941748
 51
319.226273224220904
  0
ARC
  5
F14B
  8
0
 10
4918.0159845187517931
 20
269.0964824294503046
 30
0.0
 40
0.2999803535012817
 50
284.8342753926418141
 51
296.7654635249941748
  0
ARC
  5
F14C
  8
0
 10
4917.9295814376291673
 20
269.4227146339982824
 30
0.0
 40
0.637460639905901
 50
278.1223965124436859
 51
284.8342753926418141
  0
ARC
  5
F14D
  8
0
 10
4917.8642136598245997
 20
269.8807290660283229
 30
0.0
 40
1.1001161989591011
 50
274.9220918712280195
 51
278.1223965124436859
  0
ARC
  5
F14E
  8
0
 10
4917.8690943466308454
 20
269.8240550936453133
 30
0.0
 40
1.043232455680664
 50
271.171261612287708
 51
274.9220918712280195
  0
ARC
  5
F14F
  8
0
 10
4917.8530340616198373
 20
270.6095827303699934
 30
0.0
 40
1.828924253278712
 50
270.2256356646747122
 51
271.171261612287708
  0
LINE
  5
F150
  8
0
 10
4917.8759204272073475
 20
268.916848601522986
 30
0.0
 11
4917.8889417769441934
 21
268.9226859128229989
 31
0.0
  0
LINE
  5
F151
  8
0
 10
4917.8759204272428178
 20
268.9160334234230163
 30
0.0
 11
4917.8916043519429877
 21
268.9090025123230134
 31
0.0
  0
LINE
  5
F152
  8
0
 10
4917.8916043519429877
 20
268.9090025123230134
 30
0.0
 11
4917.8759204272073475
 21
268.9019716012230106
 31
0.0
  0
LINE
  5
F153
  8
0
 10
4917.8736473947428749
 20
268.9067934314230115
 30
0.0
 11
4917.8850897828951929
 21
268.9119229137343723
 31
0.0
  0
ARC
  5
F154
  8
0
 10
4917.8809087983281643
 20
268.9068591225578757
 30
0.0
 40
0.0072617007205678
 50
180.5183188159269037
 51
206.9273019277219134
  0
ARC
  5
F155
  8
0
 10
4917.8779700543991567
 20
268.9053664514848947
 30
0.0
 40
0.003965599567496
 50
206.9273019277248125
 51
238.8786889895480101
  0
LINE
  5
F156
  8
0
 10
4917.8736473947428749
 20
268.9216704317229869
 30
0.0
 11
4917.8765117630837267
 21
268.9229544929295912
 31
0.0
  0
ARC
  5
F157
  8
0
 10
4917.8809087983281643
 20
268.921736122857908
 30
0.0
 40
0.0072617007205678
 50
180.5183188159269037
 51
206.9273019277219134
  0
ARC
  5
F158
  8
0
 10
4917.8779700543991567
 20
268.9202434517849269
 30
0.0
 40
0.003965599567496
 50
206.9273019277248125
 51
238.8786889895480101
  0
LINE
  5
F159
  8
0
 10
4917.9312498314002369
 20
268.9209839305366927
 30
0.0
 11
4917.9413837649108245
 21
268.9164410124229789
 31
0.0
  0
LINE
  5
F15A
  8
0
 10
4917.9413837649108245
 20
268.9164410124229789
 30
0.0
 11
4917.9256998401751844
 21
268.9094101013229761
 31
0.0
  0
LINE
  5
F15B
  8
0
 10
4917.9256998401751844
 20
268.9094101013229761
 30
0.0
 11
4917.8943319910113132
 21
268.9094101013229761
 31
0.0
  0
LINE
  5
F15C
  8
0
 10
4917.8943319910113132
 20
268.9094101013229761
 30
0.0
 11
4917.8786480663111433
 21
268.9164410124229789
 31
0.0
  0
LINE
  5
F15D
  8
0
 10
4917.8786480663111433
 20
268.9164410124229789
 30
0.0
 11
4917.8923587926574328
 21
268.9225873628994918
 31
0.0
  0
LINE
  5
F15E
  8
0
 10
4917.9234268077098022
 20
268.914231931522977
 30
0.0
 11
4917.9348691958630297
 21
268.9193614138343946
 31
0.0
  0
LINE
  5
F15F
  8
0
 10
4917.9234268077098022
 20
268.914231931522977
 30
0.0
 11
4917.8966050235112561
 21
268.914231931522977
 31
0.0
  0
LINE
  5
F160
  8
0
 10
4917.8966050235112561
 20
268.914231931522977
 30
0.0
 11
4917.8851626353589381
 21
268.9193614138343946
 31
0.0
  0
ARC
  5
F161
  8
0
 10
4917.9306882112960011
 20
268.914297622657898
 30
0.0
 40
0.0072617007205678
 50
180.5183188159269037
 51
206.9273019277219134
  0
ARC
  5
F162
  8
0
 10
4917.9277494673669935
 20
268.912804951584917
 30
0.0
 40
0.003965599567496
 50
206.9273019277248125
 51
238.8786889895480101
  0
ARC
  5
F163
  8
0
 10
4917.88933773048484
 20
268.9142698787342169
 30
0.0
 40
0.007267392098845
 50
337.1109023596458201
 51
359.7008246014034967
  0
ARC
  5
F164
  8
0
 10
4917.8918628444798742
 20
268.9132037949955247
 30
0.0
 40
0.0045264551738752
 50
303.0583139469659955
 51
337.1109023596458201
  0
LINE
  5
F165
  8
0
 10
4917.9766120983249493
 20
268.9173564421099059
 30
0.0
 11
4917.975479253175763
 21
268.916848601522986
 31
0.0
  0
LINE
  5
F166
  8
0
 10
4917.975479253175763
 20
268.916848601522986
 30
0.0
 11
4917.9441114040109824
 21
268.916848601522986
 31
0.0
  0
LINE
  5
F167
  8
0
 10
4917.9441114040109824
 20
268.916848601522986
 30
0.0
 11
4917.9354054799332516
 21
268.9207513605206827
 31
0.0
  0
ARC
  5
F168
  8
0
 10
4917.9775288803666626
 20
268.9202434517849269
 30
0.0
 40
0.003965599567496
 50
222.4248529948824
 51
238.8786889895480101
  0
ARC
  5
F169
  8
0
 10
4917.9391171434835996
 20
268.9217083789342269
 30
0.0
 40
0.007267392098845
 50
337.1109023596458201
 51
346.8410355028336767
  0
ARC
  5
F16A
  8
0
 10
4917.9416422574804528
 20
268.9206422951954778
 30
0.0
 40
0.0045264551738752
 50
303.0583139469659955
 51
337.1109023596458201
  0
LINE
  5
F16B
  8
0
 10
4918.0276349992782343
 20
268.9104753823082206
 30
0.0
 11
4918.0252586661736132
 21
268.9094101013229761
 31
0.0
  0
LINE
  5
F16C
  8
0
 10
4918.0252586661736132
 20
268.9094101013229761
 30
0.0
 11
4917.9938908170106515
 21
268.9094101013229761
 31
0.0
  0
LINE
  5
F16D
  8
0
 10
4917.9938908170106515
 20
268.9094101013229761
 30
0.0
 11
4917.9782068923113911
 21
268.9164410124229789
 31
0.0
  0
LINE
  5
F16E
  8
0
 10
4917.9782068923113911
 20
268.9164410124229789
 30
0.0
 11
4917.9795417455052302
 21
268.9170394107391076
 31
0.0
  0
LINE
  5
F16F
  8
0
 10
4918.0023435440871253
 20
268.914231931522977
 30
0.0
 11
4917.9961638495124134
 21
268.914231931522977
 31
0.0
  0
LINE
  5
F170
  8
0
 10
4917.9961638495124134
 20
268.914231931522977
 30
0.0
 11
4917.9936120438205762
 21
268.9153758747257825
 31
0.0
  0
ARC
  5
F171
  8
0
 10
4918.0302470372971584
 20
268.914297622657898
 30
0.0
 40
0.0072617007205678
 50
206.1350197965481925
 51
206.9273019277219134
  0
ARC
  5
F172
  8
0
 10
4918.0273082933681508
 20
268.912804951584917
 30
0.0
 40
0.003965599567496
 50
206.9273019277248125
 51
238.8786889895480101
  0
ARC
  5
F173
  8
0
 10
4917.9888965564850878
 20
268.9142698787342169
 30
0.0
 40
0.007267392098845
 50
337.1109023596458201
 51
359.7008246014034967
  0
ARC
  5
F174
  8
0
 10
4917.991421670480122
 20
268.9132037949955247
 30
0.0
 40
0.0045264551738752
 50
303.0583139469659955
 51
337.1109023596458201
  0
LINE
  5
F175
  8
0
 10
4917.9754792532112333
 20
268.9011564232229716
 30
0.0
 11
4917.9911631779114032
 21
268.8941255121230256
 31
0.0
  0
LINE
  5
F176
  8
0
 10
4917.9911631779114032
 20
268.8941255121230256
 30
0.0
 11
4917.975479253175763
 21
268.8870946010230227
 31
0.0
  0
LINE
  5
F177
  8
0
 10
4917.975479253175763
 20
268.8870946010230227
 30
0.0
 11
4917.9441114040109824
 21
268.8870946010230227
 31
0.0
  0
LINE
  5
F178
  8
0
 10
4917.9441114040109824
 20
268.8870946010230227
 30
0.0
 11
4917.9284274793108125
 21
268.8941255121230256
 31
0.0
  0
LINE
  5
F179
  8
0
 10
4917.9284274793108125
 20
268.8941255121230256
 30
0.0
 11
4917.9441114040109824
 21
268.9011564232229716
 31
0.0
  0
LINE
  5
F17A
  8
0
 10
4917.9441114040109824
 20
268.9011564232229716
 30
0.0
 11
4917.9754792532112333
 21
268.9011564232229716
 31
0.0
  0
LINE
  5
F17B
  8
0
 10
4917.9732062207112904
 20
268.8919164312230237
 30
0.0
 11
4917.9846486088636084
 21
268.8970459135343845
 31
0.0
  0
LINE
  5
F17C
  8
0
 10
4917.9732062207112904
 20
268.8919164312230237
 30
0.0
 11
4917.9463844365109253
 21
268.8919164312230237
 31
0.0
  0
LINE
  5
F17D
  8
0
 10
4917.9463844365109253
 20
268.8919164312230237
 30
0.0
 11
4917.9349420483586073
 21
268.8970459135343845
 31
0.0
  0
ARC
  5
F17E
  8
0
 10
4917.9804676242956702
 20
268.8919821223578879
 30
0.0
 40
0.0072617007205678
 50
180.5183188159269037
 51
206.9273019277219134
  0
ARC
  5
F17F
  8
0
 10
4917.9775288803666626
 20
268.8904894512849069
 30
0.0
 40
0.003965599567496
 50
206.9273019277248125
 51
238.8786889895480101
  0
ARC
  5
F180
  8
0
 10
4917.9391171434835996
 20
268.8919543784342068
 30
0.0
 40
0.007267392098845
 50
337.1109023596458201
 51
359.7008246014034967
  0
ARC
  5
F181
  8
0
 10
4917.9416422574804528
 20
268.8908882946955146
 30
0.0
 40
0.0045264551738752
 50
303.0583139469659955
 51
337.1109023596458201
  0
LINE
  5
F182
  8
0
 10
4917.9754792532112333
 20
268.8862794230229838
 30
0.0
 11
4917.9911631779114032
 21
268.8792485119229809
 31
0.0
  0
LINE
  5
F183
  8
0
 10
4917.9911631779114032
 20
268.8792485119229809
 30
0.0
 11
4917.975479253175763
 21
268.8722176008229781
 31
0.0
  0
LINE
  5
F184
  8
0
 10
4917.975479253175763
 20
268.8722176008229781
 30
0.0
 11
4917.9441114040109824
 21
268.8722176008229781
 31
0.0
  0
LINE
  5
F185
  8
0
 10
4917.9441114040109824
 20
268.8722176008229781
 30
0.0
 11
4917.9284274793108125
 21
268.8792485119229809
 31
0.0
  0
LINE
  5
F186
  8
0
 10
4917.9284274793108125
 20
268.8792485119229809
 30
0.0
 11
4917.9441114040109824
 21
268.8862794230229838
 31
0.0
  0
LINE
  5
F187
  8
0
 10
4917.9441114040109824
 20
268.8862794230229838
 30
0.0
 11
4917.9754792532112333
 21
268.8862794230229838
 31
0.0
  0
LINE
  5
F188
  8
0
 10
4917.9732062207112904
 20
268.877039431022979
 30
0.0
 11
4917.9846486088636084
 21
268.8821689133343966
 31
0.0
  0
LINE
  5
F189
  8
0
 10
4917.9732062207112904
 20
268.877039431022979
 30
0.0
 11
4917.9463844365109253
 21
268.877039431022979
 31
0.0
  0
LINE
  5
F18A
  8
0
 10
4917.9463844365109253
 20
268.877039431022979
 30
0.0
 11
4917.9349420483586073
 21
268.8821689133343966
 31
0.0
  0
ARC
  5
F18B
  8
0
 10
4917.9804676242956702
 20
268.8771051221579
 30
0.0
 40
0.0072617007205678
 50
180.5183188159269037
 51
206.9273019277219134
  0
ARC
  5
F18C
  8
0
 10
4917.9775288803666626
 20
268.875612451084919
 30
0.0
 40
0.003965599567496
 50
206.9273019277248125
 51
238.8786889895480101
  0
ARC
  5
F18D
  8
0
 10
4917.9391171434835996
 20
268.8770773782342189
 30
0.0
 40
0.007267392098845
 50
337.1109023596458201
 51
359.7008246014034967
  0
ARC
  5
F18E
  8
0
 10
4917.9416422574804528
 20
268.8760112944955267
 30
0.0
 40
0.0045264551738752
 50
303.0583139469659955
 51
337.1109023596458201
  0
LINE
  5
F18F
  8
0
 10
4917.9754792532112333
 20
268.8714024227230084
 30
0.0
 11
4917.9911631779114032
 21
268.8643715116230055
 31
0.0
  0
LINE
  5
F190
  8
0
 10
4917.9911631779114032
 20
268.8643715116230055
 30
0.0
 11
4917.975479253175763
 21
268.8573406005230026
 31
0.0
  0
LINE
  5
F191
  8
0
 10
4917.975479253175763
 20
268.8573406005230026
 30
0.0
 11
4917.9441114040109824
 21
268.8573406005230026
 31
0.0
  0
LINE
  5
F192
  8
0
 10
4917.9441114040109824
 20
268.8573406005230026
 30
0.0
 11
4917.9284274793108125
 21
268.8643715116230055
 31
0.0
  0
LINE
  5
F193
  8
0
 10
4917.9284274793108125
 20
268.8643715116230055
 30
0.0
 11
4917.9441114040109824
 21
268.8714024227230084
 31
0.0
  0
LINE
  5
F194
  8
0
 10
4917.9441114040109824
 20
268.8714024227230084
 30
0.0
 11
4917.9754792532112333
 21
268.8714024227230084
 31
0.0
  0
LINE
  5
F195
  8
0
 10
4917.9732062207112904
 20
268.8621624307230036
 30
0.0
 11
4917.9846486088636084
 21
268.8672919130344212
 31
0.0
  0
LINE
  5
F196
  8
0
 10
4917.9732062207112904
 20
268.8621624307230036
 30
0.0
 11
4917.9463844365109253
 21
268.8621624307230036
 31
0.0
  0
LINE
  5
F197
  8
0
 10
4917.9463844365109253
 20
268.8621624307230036
 30
0.0
 11
4917.9349420483586073
 21
268.8672919130344212
 31
0.0
  0
ARC
  5
F198
  8
0
 10
4917.9804676242956702
 20
268.8622281218579246
 30
0.0
 40
0.0072617007205678
 50
180.5183188159269037
 51
206.9273019277219134
  0
ARC
  5
F199
  8
0
 10
4917.9775288803666626
 20
268.8607354507848868
 30
0.0
 40
0.003965599567496
 50
206.9273019277248125
 51
238.8786889895480101
  0
ARC
  5
F19A
  8
0
 10
4917.9391171434835996
 20
268.8622003779343004
 30
0.0
 40
0.007267392098845
 50
337.1109023596458201
 51
359.7008246014034967
  0
ARC
  5
F19B
  8
0
 10
4917.9416422574804528
 20
268.8611342941954945
 30
0.0
 40
0.0045264551738752
 50
303.0583139469659955
 51
337.1109023596458201
  0
LINE
  5
F19C
  8
0
 10
4917.9754792532112333
 20
268.8565254225230206
 30
0.0
 11
4917.9911631779114032
 21
268.8494945114230177
 31
0.0
  0
LINE
  5
F19D
  8
0
 10
4917.9911631779114032
 20
268.8494945114230177
 30
0.0
 11
4917.975479253175763
 21
268.8424636003230148
 31
0.0
  0
LINE
  5
F19E
  8
0
 10
4917.975479253175763
 20
268.8424636003230148
 30
0.0
 11
4917.9441114040109824
 21
268.8424636003230148
 31
0.0
  0
LINE
  5
F19F
  8
0
 10
4917.9441114040109824
 20
268.8424636003230148
 30
0.0
 11
4917.9284274793108125
 21
268.8494945114230177
 31
0.0
  0
LINE
  5
F1A0
  8
0
 10
4917.9284274793108125
 20
268.8494945114230177
 30
0.0
 11
4917.9441114040109824
 21
268.8565254225230206
 31
0.0
  0
LINE
  5
F1A1
  8
0
 10
4917.9441114040109824
 20
268.8565254225230206
 30
0.0
 11
4917.9754792532112333
 21
268.8565254225230206
 31
0.0
  0
LINE
  5
F1A2
  8
0
 10
4917.9732062207112904
 20
268.8472854305230157
 30
0.0
 11
4917.9846486088636084
 21
268.8524149128343765
 31
0.0
  0
LINE
  5
F1A3
  8
0
 10
4917.9732062207112904
 20
268.8472854305230157
 30
0.0
 11
4917.9463844365109253
 21
268.8472854305230157
 31
0.0
  0
LINE
  5
F1A4
  8
0
 10
4917.9463844365109253
 20
268.8472854305230157
 30
0.0
 11
4917.9349420483586073
 21
268.8524149128343765
 31
0.0
  0
ARC
  5
F1A5
  8
0
 10
4917.9804676242956702
 20
268.84735112165788
 30
0.0
 40
0.0072617007205678
 50
180.5183188159269037
 51
206.9273019277219134
  0
ARC
  5
F1A6
  8
0
 10
4917.9775288803666626
 20
268.8458584505848989
 30
0.0
 40
0.003965599567496
 50
206.9273019277248125
 51
238.8786889895480101
  0
ARC
  5
F1A7
  8
0
 10
4917.9391171434835996
 20
268.8473233777341989
 30
0.0
 40
0.007267392098845
 50
337.1109023596458201
 51
359.7008246014034967
  0
ARC
  5
F1A8
  8
0
 10
4917.9416422574804528
 20
268.8462572939955066
 30
0.0
 40
0.0045264551738752
 50
303.0583139469659955
 51
337.1109023596458201
  0
LINE
  5
F1A9
  8
0
 10
4917.9754792532112333
 20
268.8416484223229759
 30
0.0
 11
4917.9911631779114032
 21
268.834617511222973
 31
0.0
  0
LINE
  5
F1AA
  8
0
 10
4917.9911631779114032
 20
268.834617511222973
 30
0.0
 11
4917.975479253175763
 21
268.827586600123027
 31
0.0
  0
LINE
  5
F1AB
  8
0
 10
4917.975479253175763
 20
268.827586600123027
 30
0.0
 11
4917.9441114040109824
 21
268.827586600123027
 31
0.0
  0
LINE
  5
F1AC
  8
0
 10
4917.9441114040109824
 20
268.827586600123027
 30
0.0
 11
4917.9284274793108125
 21
268.834617511222973
 31
0.0
  0
LINE
  5
F1AD
  8
0
 10
4917.9284274793108125
 20
268.834617511222973
 30
0.0
 11
4917.9441114040109824
 21
268.8416484223229759
 31
0.0
  0
LINE
  5
F1AE
  8
0
 10
4917.9441114040109824
 20
268.8416484223229759
 30
0.0
 11
4917.9754792532112333
 21
268.8416484223229759
 31
0.0
  0
LINE
  5
F1AF
  8
0
 10
4917.9732062207112904
 20
268.8324084303230279
 30
0.0
 11
4917.9846486088636084
 21
268.8375379126343887
 31
0.0
  0
LINE
  5
F1B0
  8
0
 10
4917.9732062207112904
 20
268.8324084303230279
 30
0.0
 11
4917.9463844365109253
 21
268.8324084303230279
 31
0.0
  0
LINE
  5
F1B1
  8
0
 10
4917.9463844365109253
 20
268.8324084303230279
 30
0.0
 11
4917.9349420483586073
 21
268.8375379126343887
 31
0.0
  0
ARC
  5
F1B2
  8
0
 10
4917.9804676242956702
 20
268.8324741214578921
 30
0.0
 40
0.0072617007205678
 50
180.5183188159269037
 51
206.9273019277219134
  0
ARC
  5
F1B3
  8
0
 10
4917.9775288803666626
 20
268.8309814503849111
 30
0.0
 40
0.003965599567496
 50
206.9273019277248125
 51
238.8786889895480101
  0
ARC
  5
F1B4
  8
0
 10
4917.9391171434835996
 20
268.832446377534211
 30
0.0
 40
0.007267392098845
 50
337.1109023596458201
 51
359.7008246014034967
  0
ARC
  5
F1B5
  8
0
 10
4917.9416422574804528
 20
268.8313802937955188
 30
0.0
 40
0.0045264551738752
 50
303.0583139469659955
 51
337.1109023596458201
  0
LINE
  5
F1B6
  8
0
 10
4917.9754792532612555
 20
268.8273462348229828
 30
0.0
 11
4917.9911631779623349
 21
268.8203153237229799
 31
0.0
  0
LINE
  5
F1B7
  8
0
 10
4917.9911631779623349
 20
268.8203153237229799
 30
0.0
 11
4917.9754792532248757
 21
268.813284412622977
 31
0.0
  0
LINE
  5
F1B8
  8
0
 10
4917.9754792532248757
 20
268.813284412622977
 30
0.0
 11
4917.9441114040610046
 21
268.813284412622977
 31
0.0
  0
LINE
  5
F1B9
  8
0
 10
4917.9441114040610046
 20
268.813284412622977
 30
0.0
 11
4917.9284274793608347
 21
268.8203153237229799
 31
0.0
  0
LINE
  5
F1BA
  8
0
 10
4917.9284274793608347
 20
268.8203153237229799
 30
0.0
 11
4917.9441114040610046
 21
268.8273462348229828
 31
0.0
  0
LINE
  5
F1BB
  8
0
 10
4917.9441114040610046
 20
268.8273462348229828
 30
0.0
 11
4917.9754792532612555
 21
268.8273462348229828
 31
0.0
  0
LINE
  5
F1BC
  8
0
 10
4917.9732062207613126
 20
268.8181062428229779
 30
0.0
 11
4917.9846486089136306
 21
268.8232357251343956
 31
0.0
  0
LINE
  5
F1BD
  8
0
 10
4917.9732062207613126
 20
268.8181062428229779
 30
0.0
 11
4917.9463844365609475
 21
268.8181062428229779
 31
0.0
  0
LINE
  5
F1BE
  8
0
 10
4917.9463844365609475
 20
268.8181062428229779
 30
0.0
 11
4917.93494204840772
 21
268.8232357251343956
 31
0.0
  0
ARC
  5
F1BF
  8
0
 10
4917.9804676243456925
 20
268.818171933957899
 30
0.0
 40
0.0072617007205678
 50
180.5183188159269037
 51
206.9273019277219134
  0
ARC
  5
F1C0
  8
0
 10
4917.9775288804175943
 20
268.816679262884918
 30
0.0
 40
0.003965599567496
 50
206.9273019277248125
 51
238.8786889895480101
  0
ARC
  5
F1C1
  8
0
 10
4917.9391171435354408
 20
268.8181441900342179
 30
0.0
 40
0.007267392098845
 50
337.1109023596458201
 51
359.7008246014034967
  0
ARC
  5
F1C2
  8
0
 10
4917.9416422575313845
 20
268.8170781062955257
 30
0.0
 40
0.0045264551738752
 50
303.0583139469659955
 51
337.1109023596458201
  0
LINE
  5
F1C3
  8
0
 10
4917.9754792532112333
 20
268.8118944218230126
 30
0.0
 11
4917.9911631779114032
 21
268.8048635107230098
 31
0.0
  0
LINE
  5
F1C4
  8
0
 10
4917.9911631779114032
 20
268.8048635107230098
 30
0.0
 11
4917.975479253175763
 21
268.7978325996230069
 31
0.0
  0
LINE
  5
F1C5
  8
0
 10
4917.975479253175763
 20
268.7978325996230069
 30
0.0
 11
4917.9441114040109824
 21
268.7978325996230069
 31
0.0
  0
LINE
  5
F1C6
  8
0
 10
4917.9441114040109824
 20
268.7978325996230069
 30
0.0
 11
4917.9284274793108125
 21
268.8048635107230098
 31
0.0
  0
LINE
  5
F1C7
  8
0
 10
4917.9284274793108125
 20
268.8048635107230098
 30
0.0
 11
4917.9441114040109824
 21
268.8118944218230126
 31
0.0
  0
LINE
  5
F1C8
  8
0
 10
4917.9441114040109824
 20
268.8118944218230126
 30
0.0
 11
4917.9754792532112333
 21
268.8118944218230126
 31
0.0
  0
LINE
  5
F1C9
  8
0
 10
4917.9732062207112904
 20
268.8026544298230078
 30
0.0
 11
4917.9846486088636084
 21
268.8077839121344255
 31
0.0
  0
LINE
  5
F1CA
  8
0
 10
4917.9732062207112904
 20
268.8026544298230078
 30
0.0
 11
4917.9463844365109253
 21
268.8026544298230078
 31
0.0
  0
LINE
  5
F1CB
  8
0
 10
4917.9463844365109253
 20
268.8026544298230078
 30
0.0
 11
4917.9349420483586073
 21
268.8077839121344255
 31
0.0
  0
ARC
  5
F1CC
  8
0
 10
4917.9804676242956702
 20
268.802720120957872
 30
0.0
 40
0.0072617007205678
 50
180.5183188159269037
 51
206.9273019277219134
  0
ARC
  5
F1CD
  8
0
 10
4917.9775288803666626
 20
268.801227449884891
 30
0.0
 40
0.003965599567496
 50
206.9273019277248125
 51
238.8786889895480101
  0
ARC
  5
F1CE
  8
0
 10
4917.9391171434835996
 20
268.8026923770343046
 30
0.0
 40
0.007267392098845
 50
337.1109023596458201
 51
359.7008246014034967
  0
ARC
  5
F1CF
  8
0
 10
4917.9416422574804528
 20
268.8016262932954987
 30
0.0
 40
0.0045264551738752
 50
303.0583139469659955
 51
337.1109023596458201
  0
LINE
  5
F1D0
  8
0
 10
4917.9256998402097452
 20
268.8044559217229903
 30
0.0
 11
4917.9413837649108245
 21
268.7974250106229874
 31
0.0
  0
LINE
  5
F1D1
  8
0
 10
4917.9413837649108245
 20
268.7974250106229874
 30
0.0
 11
4917.9256998401751844
 21
268.7903940995229846
 31
0.0
  0
LINE
  5
F1D2
  8
0
 10
4917.9256998401751844
 20
268.7903940995229846
 30
0.0
 11
4917.8943319910113132
 21
268.7903940995229846
 31
0.0
  0
LINE
  5
F1D3
  8
0
 10
4917.8943319910113132
 20
268.7903940995229846
 30
0.0
 11
4917.8786480663111433
 21
268.7974250106229874
 31
0.0
  0
LINE
  5
F1D4
  8
0
 10
4917.8786480663111433
 20
268.7974250106229874
 30
0.0
 11
4917.8943319910113132
 21
268.8044559217229903
 31
0.0
  0
LINE
  5
F1D5
  8
0
 10
4917.8943319910113132
 20
268.8044559217229903
 30
0.0
 11
4917.9256998402097452
 21
268.8044559217229903
 31
0.0
  0
LINE
  5
F1D6
  8
0
 10
4917.9234268077098022
 20
268.7952159297229855
 30
0.0
 11
4917.9348691958630297
 21
268.8003454120344031
 31
0.0
  0
LINE
  5
F1D7
  8
0
 10
4917.9234268077098022
 20
268.7952159297229855
 30
0.0
 11
4917.8966050235112561
 21
268.7952159297229855
 31
0.0
  0
LINE
  5
F1D8
  8
0
 10
4917.8966050235112561
 20
268.7952159297229855
 30
0.0
 11
4917.8851626353589381
 21
268.8003454120344031
 31
0.0
  0
ARC
  5
F1D9
  8
0
 10
4917.9306882112960011
 20
268.7952816208579065
 30
0.0
 40
0.0072617007205678
 50
180.5183188159269037
 51
206.9273019277219134
  0
ARC
  5
F1DA
  8
0
 10
4917.9277494673669935
 20
268.7937889497849255
 30
0.0
 40
0.003965599567496
 50
206.9273019277248125
 51
238.8786889895480101
  0
ARC
  5
F1DB
  8
0
 10
4917.88933773048484
 20
268.7952538769342254
 30
0.0
 40
0.007267392098845
 50
337.1109023596458201
 51
359.7008246014034967
  0
ARC
  5
F1DC
  8
0
 10
4917.8918628444798742
 20
268.7941877931954764
 30
0.0
 40
0.0045264551738752
 50
303.0583139469659955
 51
337.1109023596458201
  0
LINE
  5
F1DD
  8
0
 10
4917.9256998402097452
 20
268.8193329219229781
 30
0.0
 11
4917.9413837649108245
 21
268.8123020108229753
 31
0.0
  0
LINE
  5
F1DE
  8
0
 10
4917.9413837649108245
 20
268.8123020108229753
 30
0.0
 11
4917.9256998401751844
 21
268.8052710997229724
 31
0.0
  0
LINE
  5
F1DF
  8
0
 10
4917.9256998401751844
 20
268.8052710997229724
 30
0.0
 11
4917.8943319910113132
 21
268.8052710997229724
 31
0.0
  0
LINE
  5
F1E0
  8
0
 10
4917.8943319910113132
 20
268.8052710997229724
 30
0.0
 11
4917.8786480663111433
 21
268.8123020108229753
 31
0.0
  0
LINE
  5
F1E1
  8
0
 10
4917.8786480663111433
 20
268.8123020108229753
 30
0.0
 11
4917.8943319910113132
 21
268.8193329219229781
 31
0.0
  0
LINE
  5
F1E2
  8
0
 10
4917.8943319910113132
 20
268.8193329219229781
 30
0.0
 11
4917.9256998402097452
 21
268.8193329219229781
 31
0.0
  0
LINE
  5
F1E3
  8
0
 10
4917.9234268077098022
 20
268.8100929299229733
 30
0.0
 11
4917.9348691958630297
 21
268.815222412234391
 31
0.0
  0
LINE
  5
F1E4
  8
0
 10
4917.9234268077098022
 20
268.8100929299229733
 30
0.0
 11
4917.8966050235112561
 21
268.8100929299229733
 31
0.0
  0
LINE
  5
F1E5
  8
0
 10
4917.8966050235112561
 20
268.8100929299229733
 30
0.0
 11
4917.8851626353589381
 21
268.815222412234391
 31
0.0
  0
ARC
  5
F1E6
  8
0
 10
4917.9306882112960011
 20
268.8101586210578944
 30
0.0
 40
0.0072617007205678
 50
180.5183188159269037
 51
206.9273019277219134
  0
ARC
  5
F1E7
  8
0
 10
4917.9277494673669935
 20
268.8086659499849134
 30
0.0
 40
0.003965599567496
 50
206.9273019277248125
 51
238.8786889895480101
  0
ARC
  5
F1E8
  8
0
 10
4917.88933773048484
 20
268.8101308771342133
 30
0.0
 40
0.007267392098845
 50
337.1109023596458201
 51
359.7008246014034967
  0
ARC
  5
F1E9
  8
0
 10
4917.8918628444798742
 20
268.8090647933955211
 30
0.0
 40
0.0045264551738752
 50
303.0583139469659955
 51
337.1109023596458201
  0
LINE
  5
F1EA
  8
0
 10
4917.9256998402097452
 20
268.8342099222230104
 30
0.0
 11
4917.9413837649108245
 21
268.8271790111230075
 31
0.0
  0
LINE
  5
F1EB
  8
0
 10
4917.9413837649108245
 20
268.8271790111230075
 30
0.0
 11
4917.9256998401751844
 21
268.8201481000230046
 31
0.0
  0
LINE
  5
F1EC
  8
0
 10
4917.9256998401751844
 20
268.8201481000230046
 30
0.0
 11
4917.8943319910113132
 21
268.8201481000230046
 31
0.0
  0
LINE
  5
F1ED
  8
0
 10
4917.8943319910113132
 20
268.8201481000230046
 30
0.0
 11
4917.8786480663111433
 21
268.8271790111230075
 31
0.0
  0
LINE
  5
F1EE
  8
0
 10
4917.8786480663111433
 20
268.8271790111230075
 30
0.0
 11
4917.8943319910113132
 21
268.8342099222230104
 31
0.0
  0
LINE
  5
F1EF
  8
0
 10
4917.8943319910113132
 20
268.8342099222230104
 30
0.0
 11
4917.9256998402097452
 21
268.8342099222230104
 31
0.0
  0
LINE
  5
F1F0
  8
0
 10
4917.9234268077098022
 20
268.8249699302230056
 30
0.0
 11
4917.9348691958630297
 21
268.8300994125344232
 31
0.0
  0
LINE
  5
F1F1
  8
0
 10
4917.9234268077098022
 20
268.8249699302230056
 30
0.0
 11
4917.8966050235112561
 21
268.8249699302230056
 31
0.0
  0
LINE
  5
F1F2
  8
0
 10
4917.8966050235112561
 20
268.8249699302230056
 30
0.0
 11
4917.8851626353589381
 21
268.8300994125344232
 31
0.0
  0
ARC
  5
F1F3
  8
0
 10
4917.9306882112960011
 20
268.8250356213579266
 30
0.0
 40
0.0072617007205678
 50
180.5183188159269037
 51
206.9273019277219134
  0
ARC
  5
F1F4
  8
0
 10
4917.9277494673669935
 20
268.8235429502848888
 30
0.0
 40
0.003965599567496
 50
206.9273019277248125
 51
238.8786889895480101
  0
ARC
  5
F1F5
  8
0
 10
4917.88933773048484
 20
268.8250078774343024
 30
0.0
 40
0.007267392098845
 50
337.1109023596458201
 51
359.7008246014034967
  0
ARC
  5
F1F6
  8
0
 10
4917.8918628444798742
 20
268.8239417936954965
 30
0.0
 40
0.0045264551738752
 50
303.0583139469659955
 51
337.1109023596458201
  0
LINE
  5
F1F7
  8
0
 10
4917.9256998402097452
 20
268.8490869224229982
 30
0.0
 11
4917.9413837649108245
 21
268.8420560113229953
 31
0.0
  0
LINE
  5
F1F8
  8
0
 10
4917.9413837649108245
 20
268.8420560113229953
 30
0.0
 11
4917.9256998401751844
 21
268.8350251002229925
 31
0.0
  0
LINE
  5
F1F9
  8
0
 10
4917.9256998401751844
 20
268.8350251002229925
 30
0.0
 11
4917.8943319910113132
 21
268.8350251002229925
 31
0.0
  0
LINE
  5
F1FA
  8
0
 10
4917.8943319910113132
 20
268.8350251002229925
 30
0.0
 11
4917.8786480663111433
 21
268.8420560113229953
 31
0.0
  0
LINE
  5
F1FB
  8
0
 10
4917.8786480663111433
 20
268.8420560113229953
 30
0.0
 11
4917.8943319910113132
 21
268.8490869224229982
 31
0.0
  0
LINE
  5
F1FC
  8
0
 10
4917.8943319910113132
 20
268.8490869224229982
 30
0.0
 11
4917.9256998402097452
 21
268.8490869224229982
 31
0.0
  0
LINE
  5
F1FD
  8
0
 10
4917.9234268077098022
 20
268.8398469304229934
 30
0.0
 11
4917.9348691958630297
 21
268.844976412734411
 31
0.0
  0
LINE
  5
F1FE
  8
0
 10
4917.9234268077098022
 20
268.8398469304229934
 30
0.0
 11
4917.8966050235112561
 21
268.8398469304229934
 31
0.0
  0
LINE
  5
F1FF
  8
0
 10
4917.8966050235112561
 20
268.8398469304229934
 30
0.0
 11
4917.8851626353589381
 21
268.844976412734411
 31
0.0
  0
ARC
  5
F200
  8
0
 10
4917.9306882112960011
 20
268.8399126215579145
 30
0.0
 40
0.0072617007205678
 50
180.5183188159269037
 51
206.9273019277219134
  0
ARC
  5
F201
  8
0
 10
4917.9277494673669935
 20
268.8384199504848766
 30
0.0
 40
0.003965599567496
 50
206.9273019277248125
 51
238.8786889895480101
  0
ARC
  5
F202
  8
0
 10
4917.88933773048484
 20
268.8398848776341765
 30
0.0
 40
0.007267392098845
 50
337.1109023596458201
 51
359.7008246014034967
  0
ARC
  5
F203
  8
0
 10
4917.8918628444798742
 20
268.8388187938954843
 30
0.0
 40
0.0045264551738752
 50
303.0583139469659955
 51
337.1109023596458201
  0
LINE
  5
F204
  8
0
 10
4917.9256998402097452
 20
268.863963922622986
 30
0.0
 11
4917.9413837649108245
 21
268.8569330115229832
 31
0.0
  0
LINE
  5
F205
  8
0
 10
4917.9413837649108245
 20
268.8569330115229832
 30
0.0
 11
4917.9256998401751844
 21
268.8499021004229803
 31
0.0
  0
LINE
  5
F206
  8
0
 10
4917.9256998401751844
 20
268.8499021004229803
 30
0.0
 11
4917.8943319910113132
 21
268.8499021004229803
 31
0.0
  0
LINE
  5
F207
  8
0
 10
4917.8943319910113132
 20
268.8499021004229803
 30
0.0
 11
4917.8786480663111433
 21
268.8569330115229832
 31
0.0
  0
LINE
  5
F208
  8
0
 10
4917.8786480663111433
 20
268.8569330115229832
 30
0.0
 11
4917.8943319910113132
 21
268.863963922622986
 31
0.0
  0
LINE
  5
F209
  8
0
 10
4917.8943319910113132
 20
268.863963922622986
 30
0.0
 11
4917.9256998402097452
 21
268.863963922622986
 31
0.0
  0
LINE
  5
F20A
  8
0
 10
4917.9234268077098022
 20
268.8547239306229812
 30
0.0
 11
4917.9348691958630297
 21
268.8598534129343989
 31
0.0
  0
LINE
  5
F20B
  8
0
 10
4917.9234268077098022
 20
268.8547239306229812
 30
0.0
 11
4917.8966050235112561
 21
268.8547239306229812
 31
0.0
  0
LINE
  5
F20C
  8
0
 10
4917.8966050235112561
 20
268.8547239306229812
 30
0.0
 11
4917.8851626353589381
 21
268.8598534129343989
 31
0.0
  0
ARC
  5
F20D
  8
0
 10
4917.9306882112960011
 20
268.8547896217579023
 30
0.0
 40
0.0072617007205678
 50
180.5183188159269037
 51
206.9273019277219134
  0
ARC
  5
F20E
  8
0
 10
4917.9277494673669935
 20
268.8532969506849213
 30
0.0
 40
0.003965599567496
 50
206.9273019277248125
 51
238.8786889895480101
  0
ARC
  5
F20F
  8
0
 10
4917.88933773048484
 20
268.8547618778342212
 30
0.0
 40
0.007267392098845
 50
337.1109023596458201
 51
359.7008246014034967
  0
ARC
  5
F210
  8
0
 10
4917.8918628444798742
 20
268.8536957940954721
 30
0.0
 40
0.0045264551738752
 50
303.0583139469659955
 51
337.1109023596458201
  0
LINE
  5
F211
  8
0
 10
4917.9256998402097452
 20
268.8788409229230183
 30
0.0
 11
4917.9413837649108245
 21
268.8718100118230154
 31
0.0
  0
LINE
  5
F212
  8
0
 10
4917.9413837649108245
 20
268.8718100118230154
 30
0.0
 11
4917.9256998401751844
 21
268.8647791007230126
 31
0.0
  0
LINE
  5
F213
  8
0
 10
4917.9256998401751844
 20
268.8647791007230126
 30
0.0
 11
4917.8943319910113132
 21
268.8647791007230126
 31
0.0
  0
LINE
  5
F214
  8
0
 10
4917.8943319910113132
 20
268.8647791007230126
 30
0.0
 11
4917.8786480663111433
 21
268.8718100118230154
 31
0.0
  0
LINE
  5
F215
  8
0
 10
4917.8786480663111433
 20
268.8718100118230154
 30
0.0
 11
4917.8943319910113132
 21
268.8788409229230183
 31
0.0
  0
LINE
  5
F216
  8
0
 10
4917.8943319910113132
 20
268.8788409229230183
 30
0.0
 11
4917.9256998402097452
 21
268.8788409229230183
 31
0.0
  0
LINE
  5
F217
  8
0
 10
4917.9234268077098022
 20
268.8696009309230135
 30
0.0
 11
4917.9348691958630297
 21
268.8747304132343743
 31
0.0
  0
LINE
  5
F218
  8
0
 10
4917.9234268077098022
 20
268.8696009309230135
 30
0.0
 11
4917.8966050235112561
 21
268.8696009309230135
 31
0.0
  0
LINE
  5
F219
  8
0
 10
4917.8966050235112561
 20
268.8696009309230135
 30
0.0
 11
4917.8851626353589381
 21
268.8747304132343743
 31
0.0
  0
ARC
  5
F21A
  8
0
 10
4917.9306882112960011
 20
268.8696666220578777
 30
0.0
 40
0.0072617007205678
 50
180.5183188159269037
 51
206.9273019277219134
  0
ARC
  5
F21B
  8
0
 10
4917.9277494673669935
 20
268.8681739509848967
 30
0.0
 40
0.003965599567496
 50
206.9273019277248125
 51
238.8786889895480101
  0
ARC
  5
F21C
  8
0
 10
4917.88933773048484
 20
268.8696388781341966
 30
0.0
 40
0.007267392098845
 50
337.1109023596458201
 51
359.7008246014034967
  0
ARC
  5
F21D
  8
0
 10
4917.8918628444798742
 20
268.8685727943955044
 30
0.0
 40
0.0045264551738752
 50
303.0583139469659955
 51
337.1109023596458201
  0
LINE
  5
F21E
  8
0
 10
4917.9256998402097452
 20
268.8937179231230061
 30
0.0
 11
4917.9413837649108245
 21
268.8866870120230033
 31
0.0
  0
LINE
  5
F21F
  8
0
 10
4917.9413837649108245
 20
268.8866870120230033
 30
0.0
 11
4917.9256998401751844
 21
268.8796561009230004
 31
0.0
  0
LINE
  5
F220
  8
0
 10
4917.9256998401751844
 20
268.8796561009230004
 30
0.0
 11
4917.8943319910113132
 21
268.8796561009230004
 31
0.0
  0
LINE
  5
F221
  8
0
 10
4917.8943319910113132
 20
268.8796561009230004
 30
0.0
 11
4917.8786480663111433
 21
268.8866870120230033
 31
0.0
  0
LINE
  5
F222
  8
0
 10
4917.8786480663111433
 20
268.8866870120230033
 30
0.0
 11
4917.8943319910113132
 21
268.8937179231230061
 31
0.0
  0
LINE
  5
F223
  8
0
 10
4917.8943319910113132
 20
268.8937179231230061
 30
0.0
 11
4917.9256998402097452
 21
268.8937179231230061
 31
0.0
  0
LINE
  5
F224
  8
0
 10
4917.9234268077098022
 20
268.8844779311230013
 30
0.0
 11
4917.9348691958630297
 21
268.889607413434419
 31
0.0
  0
LINE
  5
F225
  8
0
 10
4917.9234268077098022
 20
268.8844779311230013
 30
0.0
 11
4917.8966050235112561
 21
268.8844779311230013
 31
0.0
  0
LINE
  5
F226
  8
0
 10
4917.8966050235112561
 20
268.8844779311230013
 30
0.0
 11
4917.8851626353589381
 21
268.889607413434419
 31
0.0
  0
ARC
  5
F227
  8
0
 10
4917.9306882112960011
 20
268.8845436222579224
 30
0.0
 40
0.0072617007205678
 50
180.5183188159269037
 51
206.9273019277219134
  0
ARC
  5
F228
  8
0
 10
4917.9277494673669935
 20
268.8830509511848845
 30
0.0
 40
0.003965599567496
 50
206.9273019277248125
 51
238.8786889895480101
  0
ARC
  5
F229
  8
0
 10
4917.88933773048484
 20
268.8845158783342981
 30
0.0
 40
0.007267392098845
 50
337.1109023596458201
 51
359.7008246014034967
  0
ARC
  5
F22A
  8
0
 10
4917.8918628444798742
 20
268.8834497945954922
 30
0.0
 40
0.0045264551738752
 50
303.0583139469659955
 51
337.1109023596458201
  0
LINE
  5
F22B
  8
0
 10
4917.9256998402097452
 20
268.908594923322994
 30
0.0
 11
4917.9413837649108245
 21
268.9015640122229911
 31
0.0
  0
LINE
  5
F22C
  8
0
 10
4917.9413837649108245
 20
268.9015640122229911
 30
0.0
 11
4917.9256998401751844
 21
268.8945331011229882
 31
0.0
  0
LINE
  5
F22D
  8
0
 10
4917.9256998401751844
 20
268.8945331011229882
 30
0.0
 11
4917.8943319910113132
 21
268.8945331011229882
 31
0.0
  0
LINE
  5
F22E
  8
0
 10
4917.8943319910113132
 20
268.8945331011229882
 30
0.0
 11
4917.8786480663111433
 21
268.9015640122229911
 31
0.0
  0
LINE
  5
F22F
  8
0
 10
4917.8786480663111433
 20
268.9015640122229911
 30
0.0
 11
4917.8943319910113132
 21
268.908594923322994
 31
0.0
  0
LINE
  5
F230
  8
0
 10
4917.8943319910113132
 20
268.908594923322994
 30
0.0
 11
4917.9256998402097452
 21
268.908594923322994
 31
0.0
  0
LINE
  5
F231
  8
0
 10
4917.9234268077098022
 20
268.8993549313229892
 30
0.0
 11
4917.9348691958630297
 21
268.9044844136344068
 31
0.0
  0
LINE
  5
F232
  8
0
 10
4917.9234268077098022
 20
268.8993549313229892
 30
0.0
 11
4917.8966050235112561
 21
268.8993549313229892
 31
0.0
  0
LINE
  5
F233
  8
0
 10
4917.8966050235112561
 20
268.8993549313229892
 30
0.0
 11
4917.8851626353589381
 21
268.9044844136344068
 31
0.0
  0
ARC
  5
F234
  8
0
 10
4917.9306882112960011
 20
268.8994206224579102
 30
0.0
 40
0.0072617007205678
 50
180.5183188159269037
 51
206.9273019277219134
  0
ARC
  5
F235
  8
0
 10
4917.9277494673669935
 20
268.8979279513848724
 30
0.0
 40
0.003965599567496
 50
206.9273019277248125
 51
238.8786889895480101
  0
ARC
  5
F236
  8
0
 10
4917.88933773048484
 20
268.8993928785341723
 30
0.0
 40
0.007267392098845
 50
337.1109023596458201
 51
359.7008246014034967
  0
ARC
  5
F237
  8
0
 10
4917.8918628444798742
 20
268.8983267947954801
 30
0.0
 40
0.0045264551738752
 50
303.0583139469659955
 51
337.1109023596458201
  0
LINE
  5
F238
  8
0
 10
4917.9754792532612555
 20
268.9166082362229986
 30
0.0
 11
4917.9911631779623349
 21
268.9095773251229957
 31
0.0
  0
LINE
  5
F239
  8
0
 10
4917.9911631779623349
 20
268.9095773251229957
 30
0.0
 11
4917.9754792532248757
 21
268.9025464140229928
 31
0.0
  0
LINE
  5
F23A
  8
0
 10
4917.9754792532248757
 20
268.9025464140229928
 30
0.0
 11
4917.9441114040610046
 21
268.9025464140229928
 31
0.0
  0
LINE
  5
F23B
  8
0
 10
4917.9441114040610046
 20
268.9025464140229928
 30
0.0
 11
4917.9284274793608347
 21
268.9095773251229957
 31
0.0
  0
LINE
  5
F23C
  8
0
 10
4917.9284274793608347
 20
268.9095773251229957
 30
0.0
 11
4917.9441114040610046
 21
268.9166082362229986
 31
0.0
  0
LINE
  5
F23D
  8
0
 10
4917.9441114040610046
 20
268.9166082362229986
 30
0.0
 11
4917.9754792532612555
 21
268.9166082362229986
 31
0.0
  0
LINE
  5
F23E
  8
0
 10
4917.9732062207613126
 20
268.9073682442229938
 30
0.0
 11
4917.9846486089136306
 21
268.9124977265344114
 31
0.0
  0
LINE
  5
F23F
  8
0
 10
4917.9732062207613126
 20
268.9073682442229938
 30
0.0
 11
4917.9463844365609475
 21
268.9073682442229938
 31
0.0
  0
LINE
  5
F240
  8
0
 10
4917.9463844365609475
 20
268.9073682442229938
 30
0.0
 11
4917.93494204840772
 21
268.9124977265344114
 31
0.0
  0
ARC
  5
F241
  8
0
 10
4917.9804676243456925
 20
268.9074339353579148
 30
0.0
 40
0.0072617007205678
 50
180.5183188159269037
 51
206.9273019277219134
  0
ARC
  5
F242
  8
0
 10
4917.9775288804175943
 20
268.905941264284877
 30
0.0
 40
0.003965599567496
 50
206.9273019277248125
 51
238.8786889895480101
  0
ARC
  5
F243
  8
0
 10
4917.9391171435354408
 20
268.9074061914341769
 30
0.0
 40
0.007267392098845
 50
337.1109023596458201
 51
359.7008246014034967
  0
ARC
  5
F244
  8
0
 10
4917.9416422575313845
 20
268.9063401076955984
 30
0.0
 40
0.0045264551738752
 50
303.0583139469659955
 51
337.1109023596458201
  0
LINE
  5
F245
  8
0
 10
4918.0244234547290034
 20
268.908594923322994
 30
0.0
 11
4918.0401073794291733
 21
268.9015640122229911
 31
0.0
  0
LINE
  5
F246
  8
0
 10
4918.0401073794291733
 20
268.9015640122229911
 30
0.0
 11
4918.0244234546917141
 21
268.8945331011229882
 31
0.0
  0
LINE
  5
F247
  8
0
 10
4918.0244234546917141
 20
268.8945331011229882
 30
0.0
 11
4917.9930556055287525
 21
268.8945331011229882
 31
0.0
  0
LINE
  5
F248
  8
0
 10
4917.9930556055287525
 20
268.8945331011229882
 30
0.0
 11
4917.9773716808304016
 21
268.9015640122229911
 31
0.0
  0
LINE
  5
F249
  8
0
 10
4917.9773716808304016
 20
268.9015640122229911
 30
0.0
 11
4917.9930556055287525
 21
268.908594923322994
 31
0.0
  0
LINE
  5
F24A
  8
0
 10
4917.9930556055287525
 20
268.908594923322994
 30
0.0
 11
4918.0244234547290034
 21
268.908594923322994
 31
0.0
  0
LINE
  5
F24B
  8
0
 10
4918.0221504222290605
 20
268.8993549313229892
 30
0.0
 11
4918.0335928103813785
 21
268.9044844136344068
 31
0.0
  0
LINE
  5
F24C
  8
0
 10
4918.0221504222290605
 20
268.8993549313229892
 30
0.0
 11
4917.9953286380286954
 21
268.8993549313229892
 31
0.0
  0
LINE
  5
F24D
  8
0
 10
4917.9953286380286954
 20
268.8993549313229892
 30
0.0
 11
4917.9838862498781964
 21
268.9044844136344068
 31
0.0
  0
ARC
  5
F24E
  8
0
 10
4918.0294118258143499
 20
268.8994206224579102
 30
0.0
 40
0.0072617007205678
 50
180.5183188159269037
 51
206.9273019277219134
  0
ARC
  5
F24F
  8
0
 10
4918.0264730818853423
 20
268.8979279513848724
 30
0.0
 40
0.003965599567496
 50
206.9273019277248125
 51
238.8786889895480101
  0
ARC
  5
F250
  8
0
 10
4917.9880613450031888
 20
268.8993928785341723
 30
0.0
 40
0.007267392098845
 50
337.1109023596458201
 51
359.7008246014034967
  0
ARC
  5
F251
  8
0
 10
4917.990586458998223
 20
268.8983267947954801
 30
0.0
 40
0.0045264551738752
 50
303.0583139469659955
 51
337.1109023596458201
  0
LINE
  5
F252
  8
0
 10
4918.0252586662109024
 20
268.8937179231230061
 30
0.0
 11
4918.0409425909110723
 21
268.8866870120230033
 31
0.0
  0
LINE
  5
F253
  8
0
 10
4918.0409425909110723
 20
268.8866870120230033
 30
0.0
 11
4918.0252586661736132
 21
268.8796561009230004
 31
0.0
  0
LINE
  5
F254
  8
0
 10
4918.0252586661736132
 20
268.8796561009230004
 30
0.0
 11
4917.9938908170106515
 21
268.8796561009230004
 31
0.0
  0
LINE
  5
F255
  8
0
 10
4917.9938908170106515
 20
268.8796561009230004
 30
0.0
 11
4917.9782068923113911
 21
268.8866870120230033
 31
0.0
  0
LINE
  5
F256
  8
0
 10
4917.9782068923113911
 20
268.8866870120230033
 30
0.0
 11
4917.9938908170106515
 21
268.8937179231230061
 31
0.0
  0
LINE
  5
F257
  8
0
 10
4917.9938908170106515
 20
268.8937179231230061
 30
0.0
 11
4918.0252586662109024
 21
268.8937179231230061
 31
0.0
  0
LINE
  5
F258
  8
0
 10
4918.022985633711869
 20
268.8844779311230013
 30
0.0
 11
4918.0344280218632775
 21
268.889607413434419
 31
0.0
  0
LINE
  5
F259
  8
0
 10
4918.022985633711869
 20
268.8844779311230013
 30
0.0
 11
4917.9961638495124134
 21
268.8844779311230013
 31
0.0
  0
LINE
  5
F25A
  8
0
 10
4917.9961638495124134
 20
268.8844779311230013
 30
0.0
 11
4917.9847214613591859
 21
268.889607413434419
 31
0.0
  0
ARC
  5
F25B
  8
0
 10
4918.0302470372971584
 20
268.8845436222579224
 30
0.0
 40
0.0072617007205678
 50
180.5183188159269037
 51
206.9273019277219134
  0
ARC
  5
F25C
  8
0
 10
4918.0273082933681508
 20
268.8830509511848845
 30
0.0
 40
0.003965599567496
 50
206.9273019277248125
 51
238.8786889895480101
  0
ARC
  5
F25D
  8
0
 10
4917.9888965564850878
 20
268.8845158783342981
 30
0.0
 40
0.007267392098845
 50
337.1109023596458201
 51
359.7008246014034967
  0
ARC
  5
F25E
  8
0
 10
4917.991421670480122
 20
268.8834497945954922
 30
0.0
 40
0.0045264551738752
 50
303.0583139469659955
 51
337.1109023596458201
  0
LINE
  5
F25F
  8
0
 10
4918.0252586662109024
 20
268.8788409229230183
 30
0.0
 11
4918.0409425909110723
 21
268.8718100118230154
 31
0.0
  0
LINE
  5
F260
  8
0
 10
4918.0409425909110723
 20
268.8718100118230154
 30
0.0
 11
4918.0252586661736132
 21
268.8647791007230126
 31
0.0
  0
LINE
  5
F261
  8
0
 10
4918.0252586661736132
 20
268.8647791007230126
 30
0.0
 11
4917.9938908170106515
 21
268.8647791007230126
 31
0.0
  0
LINE
  5
F262
  8
0
 10
4917.9938908170106515
 20
268.8647791007230126
 30
0.0
 11
4917.9782068923113911
 21
268.8718100118230154
 31
0.0
  0
LINE
  5
F263
  8
0
 10
4917.9782068923113911
 20
268.8718100118230154
 30
0.0
 11
4917.9938908170106515
 21
268.8788409229230183
 31
0.0
  0
LINE
  5
F264
  8
0
 10
4917.9938908170106515
 20
268.8788409229230183
 30
0.0
 11
4918.0252586662109024
 21
268.8788409229230183
 31
0.0
  0
LINE
  5
F265
  8
0
 10
4918.022985633711869
 20
268.8696009309230135
 30
0.0
 11
4918.0344280218632775
 21
268.8747304132343743
 31
0.0
  0
LINE
  5
F266
  8
0
 10
4918.022985633711869
 20
268.8696009309230135
 30
0.0
 11
4917.9961638495124134
 21
268.8696009309230135
 31
0.0
  0
LINE
  5
F267
  8
0
 10
4917.9961638495124134
 20
268.8696009309230135
 30
0.0
 11
4917.9847214613591859
 21
268.8747304132343743
 31
0.0
  0
ARC
  5
F268
  8
0
 10
4918.0302470372971584
 20
268.8696666220578777
 30
0.0
 40
0.0072617007205678
 50
180.5183188159269037
 51
206.9273019277219134
  0
ARC
  5
F269
  8
0
 10
4918.0273082933681508
 20
268.8681739509848967
 30
0.0
 40
0.003965599567496
 50
206.9273019277248125
 51
238.8786889895480101
  0
ARC
  5
F26A
  8
0
 10
4917.9888965564850878
 20
268.8696388781341966
 30
0.0
 40
0.007267392098845
 50
337.1109023596458201
 51
359.7008246014034967
  0
ARC
  5
F26B
  8
0
 10
4917.991421670480122
 20
268.8685727943955044
 30
0.0
 40
0.0045264551738752
 50
303.0583139469659955
 51
337.1109023596458201
  0
LINE
  5
F26C
  8
0
 10
4918.0252586662109024
 20
268.863963922622986
 30
0.0
 11
4918.0409425909110723
 21
268.8569330115229832
 31
0.0
  0
LINE
  5
F26D
  8
0
 10
4918.0409425909110723
 20
268.8569330115229832
 30
0.0
 11
4918.0252586661736132
 21
268.8499021004229803
 31
0.0
  0
LINE
  5
F26E
  8
0
 10
4918.0252586661736132
 20
268.8499021004229803
 30
0.0
 11
4917.9938908170106515
 21
268.8499021004229803
 31
0.0
  0
LINE
  5
F26F
  8
0
 10
4917.9938908170106515
 20
268.8499021004229803
 30
0.0
 11
4917.9782068923113911
 21
268.8569330115229832
 31
0.0
  0
LINE
  5
F270
  8
0
 10
4917.9782068923113911
 20
268.8569330115229832
 30
0.0
 11
4917.9938908170106515
 21
268.863963922622986
 31
0.0
  0
LINE
  5
F271
  8
0
 10
4917.9938908170106515
 20
268.863963922622986
 30
0.0
 11
4918.0252586662109024
 21
268.863963922622986
 31
0.0
  0
LINE
  5
F272
  8
0
 10
4918.022985633711869
 20
268.8547239306229812
 30
0.0
 11
4918.0344280218632775
 21
268.8598534129343989
 31
0.0
  0
LINE
  5
F273
  8
0
 10
4918.022985633711869
 20
268.8547239306229812
 30
0.0
 11
4917.9961638495124134
 21
268.8547239306229812
 31
0.0
  0
LINE
  5
F274
  8
0
 10
4917.9961638495124134
 20
268.8547239306229812
 30
0.0
 11
4917.9847214613591859
 21
268.8598534129343989
 31
0.0
  0
ARC
  5
F275
  8
0
 10
4918.0302470372971584
 20
268.8547896217579023
 30
0.0
 40
0.0072617007205678
 50
180.5183188159269037
 51
206.9273019277219134
  0
ARC
  5
F276
  8
0
 10
4918.0273082933681508
 20
268.8532969506849213
 30
0.0
 40
0.003965599567496
 50
206.9273019277248125
 51
238.8786889895480101
  0
ARC
  5
F277
  8
0
 10
4917.9888965564850878
 20
268.8547618778342212
 30
0.0
 40
0.007267392098845
 50
337.1109023596458201
 51
359.7008246014034967
  0
ARC
  5
F278
  8
0
 10
4917.991421670480122
 20
268.8536957940954721
 30
0.0
 40
0.0045264551738752
 50
303.0583139469659955
 51
337.1109023596458201
  0
LINE
  5
F279
  8
0
 10
4918.0252586662109024
 20
268.8490869224229982
 30
0.0
 11
4918.0409425909110723
 21
268.8420560113229953
 31
0.0
  0
LINE
  5
F27A
  8
0
 10
4918.0409425909110723
 20
268.8420560113229953
 30
0.0
 11
4918.0252586661736132
 21
268.8350251002229925
 31
0.0
  0
LINE
  5
F27B
  8
0
 10
4918.0252586661736132
 20
268.8350251002229925
 30
0.0
 11
4917.9938908170106515
 21
268.8350251002229925
 31
0.0
  0
LINE
  5
F27C
  8
0
 10
4917.9938908170106515
 20
268.8350251002229925
 30
0.0
 11
4917.9782068923113911
 21
268.8420560113229953
 31
0.0
  0
LINE
  5
F27D
  8
0
 10
4917.9782068923113911
 20
268.8420560113229953
 30
0.0
 11
4917.9938908170106515
 21
268.8490869224229982
 31
0.0
  0
LINE
  5
F27E
  8
0
 10
4917.9938908170106515
 20
268.8490869224229982
 30
0.0
 11
4918.0252586662109024
 21
268.8490869224229982
 31
0.0
  0
LINE
  5
F27F
  8
0
 10
4918.022985633711869
 20
268.8398469304229934
 30
0.0
 11
4918.0344280218632775
 21
268.844976412734411
 31
0.0
  0
LINE
  5
F280
  8
0
 10
4918.022985633711869
 20
268.8398469304229934
 30
0.0
 11
4917.9961638495124134
 21
268.8398469304229934
 31
0.0
  0
LINE
  5
F281
  8
0
 10
4917.9961638495124134
 20
268.8398469304229934
 30
0.0
 11
4917.9847214613591859
 21
268.844976412734411
 31
0.0
  0
ARC
  5
F282
  8
0
 10
4918.0302470372971584
 20
268.8399126215579145
 30
0.0
 40
0.0072617007205678
 50
180.5183188159269037
 51
206.9273019277219134
  0
ARC
  5
F283
  8
0
 10
4918.0273082933681508
 20
268.8384199504848766
 30
0.0
 40
0.003965599567496
 50
206.9273019277248125
 51
238.8786889895480101
  0
ARC
  5
F284
  8
0
 10
4917.9888965564850878
 20
268.8398848776341765
 30
0.0
 40
0.007267392098845
 50
337.1109023596458201
 51
359.7008246014034967
  0
ARC
  5
F285
  8
0
 10
4917.991421670480122
 20
268.8388187938954843
 30
0.0
 40
0.0045264551738752
 50
303.0583139469659955
 51
337.1109023596458201
  0
LINE
  5
F286
  8
0
 10
4918.0252586662109024
 20
268.8342099222230104
 30
0.0
 11
4918.0409425909110723
 21
268.8271790111230075
 31
0.0
  0
LINE
  5
F287
  8
0
 10
4918.0409425909110723
 20
268.8271790111230075
 30
0.0
 11
4918.0252586661736132
 21
268.8201481000230046
 31
0.0
  0
LINE
  5
F288
  8
0
 10
4918.0252586661736132
 20
268.8201481000230046
 30
0.0
 11
4917.9938908170106515
 21
268.8201481000230046
 31
0.0
  0
LINE
  5
F289
  8
0
 10
4917.9938908170106515
 20
268.8201481000230046
 30
0.0
 11
4917.9782068923113911
 21
268.8271790111230075
 31
0.0
  0
LINE
  5
F28A
  8
0
 10
4917.9782068923113911
 20
268.8271790111230075
 30
0.0
 11
4917.9938908170106515
 21
268.8342099222230104
 31
0.0
  0
LINE
  5
F28B
  8
0
 10
4917.9938908170106515
 20
268.8342099222230104
 30
0.0
 11
4918.0252586662109024
 21
268.8342099222230104
 31
0.0
  0
LINE
  5
F28C
  8
0
 10
4918.022985633711869
 20
268.8249699302230056
 30
0.0
 11
4918.0344280218632775
 21
268.8300994125344232
 31
0.0
  0
LINE
  5
F28D
  8
0
 10
4918.022985633711869
 20
268.8249699302230056
 30
0.0
 11
4917.9961638495124134
 21
268.8249699302230056
 31
0.0
  0
LINE
  5
F28E
  8
0
 10
4917.9961638495124134
 20
268.8249699302230056
 30
0.0
 11
4917.9847214613591859
 21
268.8300994125344232
 31
0.0
  0
ARC
  5
F28F
  8
0
 10
4918.0302470372971584
 20
268.8250356213579266
 30
0.0
 40
0.0072617007205678
 50
180.5183188159269037
 51
206.9273019277219134
  0
ARC
  5
F290
  8
0
 10
4918.0273082933681508
 20
268.8235429502848888
 30
0.0
 40
0.003965599567496
 50
206.9273019277248125
 51
238.8786889895480101
  0
ARC
  5
F291
  8
0
 10
4917.9888965564850878
 20
268.8250078774343024
 30
0.0
 40
0.007267392098845
 50
337.1109023596458201
 51
359.7008246014034967
  0
ARC
  5
F292
  8
0
 10
4917.991421670480122
 20
268.8239417936954965
 30
0.0
 40
0.0045264551738752
 50
303.0583139469659955
 51
337.1109023596458201
  0
LINE
  5
F293
  8
0
 10
4918.0261561582547074
 20
268.8193329219229781
 30
0.0
 11
4918.0418400829557868
 21
268.8123020108229753
 31
0.0
  0
LINE
  5
F294
  8
0
 10
4918.0418400829557868
 20
268.8123020108229753
 30
0.0
 11
4918.0261561582192371
 21
268.8052710997229724
 31
0.0
  0
LINE
  5
F295
  8
0
 10
4918.0261561582192371
 20
268.8052710997229724
 30
0.0
 11
4917.994788309055366
 21
268.8052710997229724
 31
0.0
  0
LINE
  5
F296
  8
0
 10
4917.994788309055366
 20
268.8052710997229724
 30
0.0
 11
4917.9791043843551961
 21
268.8123020108229753
 31
0.0
  0
LINE
  5
F297
  8
0
 10
4917.9791043843551961
 20
268.8123020108229753
 30
0.0
 11
4917.994788309055366
 21
268.8193329219229781
 31
0.0
  0
LINE
  5
F298
  8
0
 10
4917.994788309055366
 20
268.8193329219229781
 30
0.0
 11
4918.0261561582547074
 21
268.8193329219229781
 31
0.0
  0
LINE
  5
F299
  8
0
 10
4918.0238831257547645
 20
268.8100929299229733
 30
0.0
 11
4918.035325513907992
 21
268.815222412234391
 31
0.0
  0
LINE
  5
F29A
  8
0
 10
4918.0238831257547645
 20
268.8100929299229733
 30
0.0
 11
4917.9970613415553089
 21
268.8100929299229733
 31
0.0
  0
LINE
  5
F29B
  8
0
 10
4917.9970613415553089
 20
268.8100929299229733
 30
0.0
 11
4917.9856189534039004
 21
268.815222412234391
 31
0.0
  0
ARC
  5
F29C
  8
0
 10
4918.0311445293409633
 20
268.8101586210578944
 30
0.0
 40
0.0072617007205678
 50
180.5183188159269037
 51
206.9273019277219134
  0
ARC
  5
F29D
  8
0
 10
4918.0282057854119557
 20
268.8086659499849134
 30
0.0
 40
0.003965599567496
 50
206.9273019277248125
 51
238.8786889895480101
  0
ARC
  5
F29E
  8
0
 10
4917.9897940485298022
 20
268.8101308771342133
 30
0.0
 40
0.007267392098845
 50
337.1109023596458201
 51
359.7008246014034967
  0
ARC
  5
F29F
  8
0
 10
4917.9923191625248364
 20
268.8090647933955211
 30
0.0
 40
0.0045264551738752
 50
303.0583139469659955
 51
337.1109023596458201
  0
LINE
  5
F2A0
  8
0
 10
4918.0750380791623684
 20
268.826771422122988
 30
0.0
 11
4918.0907220038598098
 21
268.8197405110229852
 31
0.0
  0
LINE
  5
F2A1
  8
0
 10
4918.0907220038598098
 20
268.8197405110229852
 30
0.0
 11
4918.0750380791250791
 21
268.8127095999229823
 31
0.0
  0
LINE
  5
F2A2
  8
0
 10
4918.0750380791250791
 20
268.8127095999229823
 30
0.0
 11
4918.0436702299621174
 21
268.8127095999229823
 31
0.0
  0
LINE
  5
F2A3
  8
0
 10
4918.0436702299621174
 20
268.8127095999229823
 30
0.0
 11
4918.0279863052610381
 21
268.8197405110229852
 31
0.0
  0
LINE
  5
F2A4
  8
0
 10
4918.0279863052610381
 20
268.8197405110229852
 30
0.0
 11
4918.0436702299621174
 21
268.826771422122988
 31
0.0
  0
LINE
  5
F2A5
  8
0
 10
4918.0436702299621174
 20
268.826771422122988
 30
0.0
 11
4918.0750380791623684
 21
268.826771422122988
 31
0.0
  0
LINE
  5
F2A6
  8
0
 10
4918.0727650466606065
 20
268.8175314301229832
 30
0.0
 11
4918.084207434812015
 21
268.8226609124344009
 31
0.0
  0
LINE
  5
F2A7
  8
0
 10
4918.0727650466606065
 20
268.8175314301229832
 30
0.0
 11
4918.0459432624620604
 21
268.8175314301229832
 31
0.0
  0
LINE
  5
F2A8
  8
0
 10
4918.0459432624620604
 20
268.8175314301229832
 30
0.0
 11
4918.0345008743088329
 21
268.8226609124344009
 31
0.0
  0
ARC
  5
F2A9
  8
0
 10
4918.0800264502468053
 20
268.8175971212579043
 30
0.0
 40
0.0072617007205678
 50
180.5183188159269037
 51
206.9273019277219134
  0
ARC
  5
F2AA
  8
0
 10
4918.0770877063177977
 20
268.8161044501849233
 30
0.0
 40
0.003965599567496
 50
206.9273019277248125
 51
238.8786889895480101
  0
ARC
  5
F2AB
  8
0
 10
4918.0386759694347347
 20
268.8175693773342232
 30
0.0
 40
0.007267392098845
 50
337.1109023596458201
 51
359.7008246014034967
  0
ARC
  5
F2AC
  8
0
 10
4918.0412010834288594
 20
268.8165032935954741
 30
0.0
 40
0.0045264551738752
 50
303.0583139469659955
 51
337.1109023596458201
  0
LINE
  5
F2AD
  8
0
 10
4918.0750380791623684
 20
268.8416484223229759
 30
0.0
 11
4918.0907220038598098
 21
268.834617511222973
 31
0.0
  0
LINE
  5
F2AE
  8
0
 10
4918.0907220038598098
 20
268.834617511222973
 30
0.0
 11
4918.0750380791250791
 21
268.827586600123027
 31
0.0
  0
LINE
  5
F2AF
  8
0
 10
4918.0750380791250791
 20
268.827586600123027
 30
0.0
 11
4918.0436702299621174
 21
268.827586600123027
 31
0.0
  0
LINE
  5
F2B0
  8
0
 10
4918.0436702299621174
 20
268.827586600123027
 30
0.0
 11
4918.0279863052610381
 21
268.834617511222973
 31
0.0
  0
LINE
  5
F2B1
  8
0
 10
4918.0279863052610381
 20
268.834617511222973
 30
0.0
 11
4918.0436702299621174
 21
268.8416484223229759
 31
0.0
  0
LINE
  5
F2B2
  8
0
 10
4918.0436702299621174
 20
268.8416484223229759
 30
0.0
 11
4918.0750380791623684
 21
268.8416484223229759
 31
0.0
  0
LINE
  5
F2B3
  8
0
 10
4918.0727650466606065
 20
268.8324084303230279
 30
0.0
 11
4918.084207434812015
 21
268.8375379126343887
 31
0.0
  0
LINE
  5
F2B4
  8
0
 10
4918.0727650466606065
 20
268.8324084303230279
 30
0.0
 11
4918.0459432624620604
 21
268.8324084303230279
 31
0.0
  0
LINE
  5
F2B5
  8
0
 10
4918.0459432624620604
 20
268.8324084303230279
 30
0.0
 11
4918.0345008743088329
 21
268.8375379126343887
 31
0.0
  0
ARC
  5
F2B6
  8
0
 10
4918.0800264502468053
 20
268.8324741214578921
 30
0.0
 40
0.0072617007205678
 50
180.5183188159269037
 51
206.9273019277219134
  0
ARC
  5
F2B7
  8
0
 10
4918.0770877063177977
 20
268.8309814503849111
 30
0.0
 40
0.003965599567496
 50
206.9273019277248125
 51
238.8786889895480101
  0
ARC
  5
F2B8
  8
0
 10
4918.0386759694347347
 20
268.832446377534211
 30
0.0
 40
0.007267392098845
 50
337.1109023596458201
 51
359.7008246014034967
  0
ARC
  5
F2B9
  8
0
 10
4918.0412010834288594
 20
268.8313802937955188
 30
0.0
 40
0.0045264551738752
 50
303.0583139469659955
 51
337.1109023596458201
  0
LINE
  5
F2BA
  8
0
 10
4918.0750380791623684
 20
268.8565254225230206
 30
0.0
 11
4918.0907220038598098
 21
268.8494945114230177
 31
0.0
  0
LINE
  5
F2BB
  8
0
 10
4918.0907220038598098
 20
268.8494945114230177
 30
0.0
 11
4918.0750380791250791
 21
268.8424636003230148
 31
0.0
  0
LINE
  5
F2BC
  8
0
 10
4918.0750380791250791
 20
268.8424636003230148
 30
0.0
 11
4918.0436702299621174
 21
268.8424636003230148
 31
0.0
  0
LINE
  5
F2BD
  8
0
 10
4918.0436702299621174
 20
268.8424636003230148
 30
0.0
 11
4918.0279863052610381
 21
268.8494945114230177
 31
0.0
  0
LINE
  5
F2BE
  8
0
 10
4918.0279863052610381
 20
268.8494945114230177
 30
0.0
 11
4918.0436702299621174
 21
268.8565254225230206
 31
0.0
  0
LINE
  5
F2BF
  8
0
 10
4918.0436702299621174
 20
268.8565254225230206
 30
0.0
 11
4918.0750380791623684
 21
268.8565254225230206
 31
0.0
  0
LINE
  5
F2C0
  8
0
 10
4918.0727650466606065
 20
268.8472854305230157
 30
0.0
 11
4918.084207434812015
 21
268.8524149128343765
 31
0.0
  0
LINE
  5
F2C1
  8
0
 10
4918.0727650466606065
 20
268.8472854305230157
 30
0.0
 11
4918.0459432624620604
 21
268.8472854305230157
 31
0.0
  0
LINE
  5
F2C2
  8
0
 10
4918.0459432624620604
 20
268.8472854305230157
 30
0.0
 11
4918.0345008743088329
 21
268.8524149128343765
 31
0.0
  0
ARC
  5
F2C3
  8
0
 10
4918.0800264502468053
 20
268.84735112165788
 30
0.0
 40
0.0072617007205678
 50
180.5183188159269037
 51
206.9273019277219134
  0
ARC
  5
F2C4
  8
0
 10
4918.0770877063177977
 20
268.8458584505848989
 30
0.0
 40
0.003965599567496
 50
206.9273019277248125
 51
238.8786889895480101
  0
ARC
  5
F2C5
  8
0
 10
4918.0386759694347347
 20
268.8473233777341989
 30
0.0
 40
0.007267392098845
 50
337.1109023596458201
 51
359.7008246014034967
  0
ARC
  5
F2C6
  8
0
 10
4918.0412010834288594
 20
268.8462572939955066
 30
0.0
 40
0.0045264551738752
 50
303.0583139469659955
 51
337.1109023596458201
  0
LINE
  5
F2C7
  8
0
 10
4918.0750380791623684
 20
268.8714024227230084
 30
0.0
 11
4918.0907220038598098
 21
268.8643715116230055
 31
0.0
  0
LINE
  5
F2C8
  8
0
 10
4918.0907220038598098
 20
268.8643715116230055
 30
0.0
 11
4918.0750380791250791
 21
268.8573406005230026
 31
0.0
  0
LINE
  5
F2C9
  8
0
 10
4918.0750380791250791
 20
268.8573406005230026
 30
0.0
 11
4918.0436702299621174
 21
268.8573406005230026
 31
0.0
  0
LINE
  5
F2CA
  8
0
 10
4918.0436702299621174
 20
268.8573406005230026
 30
0.0
 11
4918.0279863052610381
 21
268.8643715116230055
 31
0.0
  0
LINE
  5
F2CB
  8
0
 10
4918.0279863052610381
 20
268.8643715116230055
 30
0.0
 11
4918.0436702299621174
 21
268.8714024227230084
 31
0.0
  0
LINE
  5
F2CC
  8
0
 10
4918.0436702299621174
 20
268.8714024227230084
 30
0.0
 11
4918.0750380791623684
 21
268.8714024227230084
 31
0.0
  0
LINE
  5
F2CD
  8
0
 10
4918.0727650466606065
 20
268.8621624307230036
 30
0.0
 11
4918.084207434812015
 21
268.8672919130344212
 31
0.0
  0
LINE
  5
F2CE
  8
0
 10
4918.0727650466606065
 20
268.8621624307230036
 30
0.0
 11
4918.0459432624620604
 21
268.8621624307230036
 31
0.0
  0
LINE
  5
F2CF
  8
0
 10
4918.0459432624620604
 20
268.8621624307230036
 30
0.0
 11
4918.0345008743088329
 21
268.8672919130344212
 31
0.0
  0
ARC
  5
F2D0
  8
0
 10
4918.0800264502468053
 20
268.8622281218579246
 30
0.0
 40
0.0072617007205678
 50
180.5183188159269037
 51
206.9273019277219134
  0
ARC
  5
F2D1
  8
0
 10
4918.0770877063177977
 20
268.8607354507848868
 30
0.0
 40
0.003965599567496
 50
206.9273019277248125
 51
238.8786889895480101
  0
ARC
  5
F2D2
  8
0
 10
4918.0386759694347347
 20
268.8622003779343004
 30
0.0
 40
0.007267392098845
 50
337.1109023596458201
 51
359.7008246014034967
  0
ARC
  5
F2D3
  8
0
 10
4918.0412010834288594
 20
268.8611342941954945
 30
0.0
 40
0.0045264551738752
 50
303.0583139469659955
 51
337.1109023596458201
  0
LINE
  5
F2D4
  8
0
 10
4918.0750380791623684
 20
268.8862794230229838
 30
0.0
 11
4918.0907220038598098
 21
268.8792485119229809
 31
0.0
  0
LINE
  5
F2D5
  8
0
 10
4918.0907220038598098
 20
268.8792485119229809
 30
0.0
 11
4918.0750380791250791
 21
268.8722176008229781
 31
0.0
  0
LINE
  5
F2D6
  8
0
 10
4918.0750380791250791
 20
268.8722176008229781
 30
0.0
 11
4918.0436702299621174
 21
268.8722176008229781
 31
0.0
  0
LINE
  5
F2D7
  8
0
 10
4918.0436702299621174
 20
268.8722176008229781
 30
0.0
 11
4918.0279863052610381
 21
268.8792485119229809
 31
0.0
  0
LINE
  5
F2D8
  8
0
 10
4918.0279863052610381
 20
268.8792485119229809
 30
0.0
 11
4918.0436702299621174
 21
268.8862794230229838
 31
0.0
  0
LINE
  5
F2D9
  8
0
 10
4918.0436702299621174
 20
268.8862794230229838
 30
0.0
 11
4918.0750380791623684
 21
268.8862794230229838
 31
0.0
  0
LINE
  5
F2DA
  8
0
 10
4918.0727650466606065
 20
268.877039431022979
 30
0.0
 11
4918.084207434812015
 21
268.8821689133343966
 31
0.0
  0
LINE
  5
F2DB
  8
0
 10
4918.0727650466606065
 20
268.877039431022979
 30
0.0
 11
4918.0459432624620604
 21
268.877039431022979
 31
0.0
  0
LINE
  5
F2DC
  8
0
 10
4918.0459432624620604
 20
268.877039431022979
 30
0.0
 11
4918.0345008743088329
 21
268.8821689133343966
 31
0.0
  0
ARC
  5
F2DD
  8
0
 10
4918.0800264502468053
 20
268.8771051221579
 30
0.0
 40
0.0072617007205678
 50
180.5183188159269037
 51
206.9273019277219134
  0
ARC
  5
F2DE
  8
0
 10
4918.0770877063177977
 20
268.875612451084919
 30
0.0
 40
0.003965599567496
 50
206.9273019277248125
 51
238.8786889895480101
  0
ARC
  5
F2DF
  8
0
 10
4918.0386759694347347
 20
268.8770773782342189
 30
0.0
 40
0.007267392098845
 50
337.1109023596458201
 51
359.7008246014034967
  0
ARC
  5
F2E0
  8
0
 10
4918.0412010834288594
 20
268.8760112944955267
 30
0.0
 40
0.0045264551738752
 50
303.0583139469659955
 51
337.1109023596458201
  0
LINE
  5
F2E1
  8
0
 10
4918.0751586264586876
 20
268.9011023833479044
 30
0.0
 11
4918.0907220038598098
 21
268.8941255121230256
 31
0.0
  0
LINE
  5
F2E2
  8
0
 10
4918.0907220038598098
 20
268.8941255121230256
 30
0.0
 11
4918.0750380791250791
 21
268.8870946010230227
 31
0.0
  0
LINE
  5
F2E3
  8
0
 10
4918.0750380791250791
 20
268.8870946010230227
 30
0.0
 11
4918.0436702299621174
 21
268.8870946010230227
 31
0.0
  0
LINE
  5
F2E4
  8
0
 10
4918.0436702299621174
 20
268.8870946010230227
 30
0.0
 11
4918.0279863052610381
 21
268.8941255121230256
 31
0.0
  0
LINE
  5
F2E5
  8
0
 10
4918.0279863052610381
 20
268.8941255121230256
 30
0.0
 11
4918.0436702299621174
 21
268.9011564232229716
 31
0.0
  0
LINE
  5
F2E6
  8
0
 10
4918.0436702299621174
 20
268.9011564232229716
 30
0.0
 11
4918.0749374367251221
 21
268.9011564232229716
 31
0.0
  0
LINE
  5
F2E7
  8
0
 10
4918.0727650466606065
 20
268.8919164312230237
 30
0.0
 11
4918.084207434812015
 21
268.8970459135343845
 31
0.0
  0
LINE
  5
F2E8
  8
0
 10
4918.0727650466606065
 20
268.8919164312230237
 30
0.0
 11
4918.0459432624620604
 21
268.8919164312230237
 31
0.0
  0
LINE
  5
F2E9
  8
0
 10
4918.0459432624620604
 20
268.8919164312230237
 30
0.0
 11
4918.0345008743088329
 21
268.8970459135343845
 31
0.0
  0
ARC
  5
F2EA
  8
0
 10
4918.0800264502468053
 20
268.8919821223578879
 30
0.0
 40
0.0072617007205678
 50
180.5183188159269037
 51
206.9273019277219134
  0
ARC
  5
F2EB
  8
0
 10
4918.0770877063177977
 20
268.8904894512849069
 30
0.0
 40
0.003965599567496
 50
206.9273019277248125
 51
238.8786889895480101
  0
ARC
  5
F2EC
  8
0
 10
4918.0386759694347347
 20
268.8919543784342068
 30
0.0
 40
0.007267392098845
 50
337.1109023596458201
 51
359.7008246014034967
  0
ARC
  5
F2ED
  8
0
 10
4918.0412010834288594
 20
268.8908882946955146
 30
0.0
 40
0.0045264551738752
 50
303.0583139469659955
 51
337.1109023596458201
  0
LINE
  5
F2EE
  8
0
 10
4918.0715469344759185
 20
268.9019716012230106
 30
0.0
 11
4918.0419219942614291
 21
268.9019716012230106
 31
0.0
  0
LINE
  5
F2EF
  8
0
 10
4918.0419219942614291
 20
268.9019716012230106
 30
0.0
 11
4918.0262380695612592
 21
268.9090025123230134
 31
0.0
  0
LINE
  5
F2F0
  8
0
 10
4918.0262380695612592
 20
268.9090025123230134
 30
0.0
 11
4918.0290215172290118
 21
268.910250297777111
 31
0.0
  0
LINE
  5
F2F1
  8
0
 10
4918.0488818637522854
 20
268.9067934314230115
 30
0.0
 11
4918.044195026761372
 21
268.9067934314230115
 31
0.0
  0
LINE
  5
F2F2
  8
0
 10
4918.044195026761372
 20
268.9067934314230115
 30
0.0
 11
4918.0410123296160236
 21
268.9082201955300206
 31
0.0
  0
ARC
  5
F2F3
  8
0
 10
4918.0369277337349558
 20
268.9068313786341946
 30
0.0
 40
0.007267392098845
 50
337.1109023596458201
 51
359.7008246014034967
  0
ARC
  5
F2F4
  8
0
 10
4918.03945284772999
 20
268.9057652948955024
 30
0.0
 40
0.0045264551738752
 50
303.0583139469659955
 51
337.1109023596458201
  0
LINE
  5
F2F5
  8
0
 10
4918.1315823745517264
 20
268.8826887147675961
 30
0.0
 11
4918.1248174920738165
 21
268.8796561009230004
 31
0.0
  0
LINE
  5
F2F6
  8
0
 10
4918.1248174920738165
 20
268.8796561009230004
 30
0.0
 11
4918.0934496429108549
 21
268.8796561009230004
 31
0.0
  0
LINE
  5
F2F7
  8
0
 10
4918.0934496429108549
 20
268.8796561009230004
 30
0.0
 11
4918.0777657182097755
 21
268.8866870120230033
 31
0.0
  0
LINE
  5
F2F8
  8
0
 10
4918.0777657182097755
 20
268.8866870120230033
 30
0.0
 11
4918.0934496429108549
 21
268.8937179231230061
 31
0.0
  0
LINE
  5
F2F9
  8
0
 10
4918.0934496429108549
 20
268.8937179231230061
 30
0.0
 11
4918.1021079500924316
 21
268.8937179231230061
 31
0.0
  0
LINE
  5
F2FA
  8
0
 10
4918.1225444596111629
 20
268.8844779311230013
 30
0.0
 11
4918.1250327751831719
 21
268.8855934124836722
 31
0.0
  0
LINE
  5
F2FB
  8
0
 10
4918.1225444596111629
 20
268.8844779311230013
 30
0.0
 11
4918.0957226754107978
 21
268.8844779311230013
 31
0.0
  0
LINE
  5
F2FC
  8
0
 10
4918.0957226754107978
 20
268.8844779311230013
 30
0.0
 11
4918.0842802872575703
 21
268.889607413434419
 31
0.0
  0
ARC
  5
F2FD
  8
0
 10
4918.1298058631973618
 20
268.8845436222579224
 30
0.0
 40
0.0072617007205678
 50
180.5183188159269037
 51
206.9273019277219134
  0
ARC
  5
F2FE
  8
0
 10
4918.1268671192674447
 20
268.8830509511848845
 30
0.0
 40
0.003965599567496
 50
206.9273019277248125
 51
238.8786889895480101
  0
ARC
  5
F2FF
  8
0
 10
4918.0884553823852912
 20
268.8845158783342981
 30
0.0
 40
0.007267392098845
 50
337.1109023596458201
 51
359.7008246014034967
  0
ARC
  5
F300
  8
0
 10
4918.0909804963803253
 20
268.8834497945954922
 30
0.0
 40
0.0045264551738752
 50
303.0583139469659955
 51
337.1109023596458201
  0
LINE
  5
F301
  8
0
 10
4918.1248174921111058
 20
268.8788409229230183
 30
0.0
 11
4918.1405014168112757
 21
268.8718100118230154
 31
0.0
  0
LINE
  5
F302
  8
0
 10
4918.1405014168112757
 20
268.8718100118230154
 30
0.0
 11
4918.1248174920738165
 21
268.8647791007230126
 31
0.0
  0
LINE
  5
F303
  8
0
 10
4918.1248174920738165
 20
268.8647791007230126
 30
0.0
 11
4918.0934496429108549
 21
268.8647791007230126
 31
0.0
  0
LINE
  5
F304
  8
0
 10
4918.0934496429108549
 20
268.8647791007230126
 30
0.0
 11
4918.0777657182097755
 21
268.8718100118230154
 31
0.0
  0
LINE
  5
F305
  8
0
 10
4918.0777657182097755
 20
268.8718100118230154
 30
0.0
 11
4918.0934496429108549
 21
268.8788409229230183
 31
0.0
  0
LINE
  5
F306
  8
0
 10
4918.0934496429108549
 20
268.8788409229230183
 30
0.0
 11
4918.1248174921111058
 21
268.8788409229230183
 31
0.0
  0
LINE
  5
F307
  8
0
 10
4918.1225444596111629
 20
268.8696009309230135
 30
0.0
 11
4918.1339868477625714
 21
268.8747304132343743
 31
0.0
  0
LINE
  5
F308
  8
0
 10
4918.1225444596111629
 20
268.8696009309230135
 30
0.0
 11
4918.0957226754107978
 21
268.8696009309230135
 31
0.0
  0
LINE
  5
F309
  8
0
 10
4918.0957226754107978
 20
268.8696009309230135
 30
0.0
 11
4918.0842802872575703
 21
268.8747304132343743
 31
0.0
  0
ARC
  5
F30A
  8
0
 10
4918.1298058631973618
 20
268.8696666220578777
 30
0.0
 40
0.0072617007205678
 50
180.5183188159269037
 51
206.9273019277219134
  0
ARC
  5
F30B
  8
0
 10
4918.1268671192674447
 20
268.8681739509848967
 30
0.0
 40
0.003965599567496
 50
206.9273019277248125
 51
238.8786889895480101
  0
ARC
  5
F30C
  8
0
 10
4918.0884553823852912
 20
268.8696388781341966
 30
0.0
 40
0.007267392098845
 50
337.1109023596458201
 51
359.7008246014034967
  0
ARC
  5
F30D
  8
0
 10
4918.0909804963803253
 20
268.8685727943955044
 30
0.0
 40
0.0045264551738752
 50
303.0583139469659955
 51
337.1109023596458201
  0
LINE
  5
F30E
  8
0
 10
4918.1248174921111058
 20
268.863963922622986
 30
0.0
 11
4918.1405014168112757
 21
268.8569330115229832
 31
0.0
  0
LINE
  5
F30F
  8
0
 10
4918.1405014168112757
 20
268.8569330115229832
 30
0.0
 11
4918.1248174920738165
 21
268.8499021004229803
 31
0.0
  0
LINE
  5
F310
  8
0
 10
4918.1248174920738165
 20
268.8499021004229803
 30
0.0
 11
4918.0934496429108549
 21
268.8499021004229803
 31
0.0
  0
LINE
  5
F311
  8
0
 10
4918.0934496429108549
 20
268.8499021004229803
 30
0.0
 11
4918.0777657182097755
 21
268.8569330115229832
 31
0.0
  0
LINE
  5
F312
  8
0
 10
4918.0777657182097755
 20
268.8569330115229832
 30
0.0
 11
4918.0934496429108549
 21
268.863963922622986
 31
0.0
  0
LINE
  5
F313
  8
0
 10
4918.0934496429108549
 20
268.863963922622986
 30
0.0
 11
4918.1248174921111058
 21
268.863963922622986
 31
0.0
  0
LINE
  5
F314
  8
0
 10
4918.1225444596111629
 20
268.8547239306229812
 30
0.0
 11
4918.1339868477625714
 21
268.8598534129343989
 31
0.0
  0
LINE
  5
F315
  8
0
 10
4918.1225444596111629
 20
268.8547239306229812
 30
0.0
 11
4918.0957226754107978
 21
268.8547239306229812
 31
0.0
  0
LINE
  5
F316
  8
0
 10
4918.0957226754107978
 20
268.8547239306229812
 30
0.0
 11
4918.0842802872575703
 21
268.8598534129343989
 31
0.0
  0
ARC
  5
F317
  8
0
 10
4918.1298058631973618
 20
268.8547896217579023
 30
0.0
 40
0.0072617007205678
 50
180.5183188159269037
 51
206.9273019277219134
  0
ARC
  5
F318
  8
0
 10
4918.1268671192674447
 20
268.8532969506849213
 30
0.0
 40
0.003965599567496
 50
206.9273019277248125
 51
238.8786889895480101
  0
ARC
  5
F319
  8
0
 10
4918.0884553823852912
 20
268.8547618778342212
 30
0.0
 40
0.007267392098845
 50
337.1109023596458201
 51
359.7008246014034967
  0
ARC
  5
F31A
  8
0
 10
4918.0909804963803253
 20
268.8536957940954721
 30
0.0
 40
0.0045264551738752
 50
303.0583139469659955
 51
337.1109023596458201
  0
LINE
  5
F31B
  8
0
 10
4918.1248174921111058
 20
268.8490869224229982
 30
0.0
 11
4918.1405014168112757
 21
268.8420560113229953
 31
0.0
  0
LINE
  5
F31C
  8
0
 10
4918.1405014168112757
 20
268.8420560113229953
 30
0.0
 11
4918.1248174920738165
 21
268.8350251002229925
 31
0.0
  0
LINE
  5
F31D
  8
0
 10
4918.1248174920738165
 20
268.8350251002229925
 30
0.0
 11
4918.0934496429108549
 21
268.8350251002229925
 31
0.0
  0
LINE
  5
F31E
  8
0
 10
4918.0934496429108549
 20
268.8350251002229925
 30
0.0
 11
4918.0777657182097755
 21
268.8420560113229953
 31
0.0
  0
LINE
  5
F31F
  8
0
 10
4918.0777657182097755
 20
268.8420560113229953
 30
0.0
 11
4918.0934496429108549
 21
268.8490869224229982
 31
0.0
  0
LINE
  5
F320
  8
0
 10
4918.0934496429108549
 20
268.8490869224229982
 30
0.0
 11
4918.1248174921111058
 21
268.8490869224229982
 31
0.0
  0
LINE
  5
F321
  8
0
 10
4918.1225444596111629
 20
268.8398469304229934
 30
0.0
 11
4918.1339868477625714
 21
268.844976412734411
 31
0.0
  0
LINE
  5
F322
  8
0
 10
4918.1225444596111629
 20
268.8398469304229934
 30
0.0
 11
4918.0957226754107978
 21
268.8398469304229934
 31
0.0
  0
LINE
  5
F323
  8
0
 10
4918.0957226754107978
 20
268.8398469304229934
 30
0.0
 11
4918.0842802872575703
 21
268.844976412734411
 31
0.0
  0
ARC
  5
F324
  8
0
 10
4918.1298058631973618
 20
268.8399126215579145
 30
0.0
 40
0.0072617007205678
 50
180.5183188159269037
 51
206.9273019277219134
  0
ARC
  5
F325
  8
0
 10
4918.1268671192674447
 20
268.8384199504848766
 30
0.0
 40
0.003965599567496
 50
206.9273019277248125
 51
238.8786889895480101
  0
ARC
  5
F326
  8
0
 10
4918.0884553823852912
 20
268.8398848776341765
 30
0.0
 40
0.007267392098845
 50
337.1109023596458201
 51
359.7008246014034967
  0
ARC
  5
F327
  8
0
 10
4918.0909804963803253
 20
268.8388187938954843
 30
0.0
 40
0.0045264551738752
 50
303.0583139469659955
 51
337.1109023596458201
  0
LINE
  5
F328
  8
0
 10
4918.1283208139611816
 20
268.8342099222230104
 30
0.0
 11
4918.1440047386613514
 21
268.8271790111230075
 31
0.0
  0
LINE
  5
F329
  8
0
 10
4918.1440047386613514
 20
268.8271790111230075
 30
0.0
 11
4918.1283208139248018
 21
268.8201481000230046
 31
0.0
  0
LINE
  5
F32A
  8
0
 10
4918.1283208139248018
 20
268.8201481000230046
 30
0.0
 11
4918.0969529647609306
 21
268.8201481000230046
 31
0.0
  0
LINE
  5
F32B
  8
0
 10
4918.0969529647609306
 20
268.8201481000230046
 30
0.0
 11
4918.0812690400607607
 21
268.8271790111230075
 31
0.0
  0
LINE
  5
F32C
  8
0
 10
4918.0812690400607607
 20
268.8271790111230075
 30
0.0
 11
4918.0969529647609306
 21
268.8342099222230104
 31
0.0
  0
LINE
  5
F32D
  8
0
 10
4918.0969529647609306
 20
268.8342099222230104
 30
0.0
 11
4918.1283208139611816
 21
268.8342099222230104
 31
0.0
  0
LINE
  5
F32E
  8
0
 10
4918.1260477814612386
 20
268.8249699302230056
 30
0.0
 11
4918.1374901696126472
 21
268.8300994125344232
 31
0.0
  0
LINE
  5
F32F
  8
0
 10
4918.1260477814612386
 20
268.8249699302230056
 30
0.0
 11
4918.0992259972608736
 21
268.8249699302230056
 31
0.0
  0
LINE
  5
F330
  8
0
 10
4918.0992259972608736
 20
268.8249699302230056
 30
0.0
 11
4918.0877836091085555
 21
268.8300994125344232
 31
0.0
  0
ARC
  5
F331
  8
0
 10
4918.1333091850474375
 20
268.8250356213579266
 30
0.0
 40
0.0072617007205678
 50
180.5183188159269037
 51
206.9273019277219134
  0
ARC
  5
F332
  8
0
 10
4918.1303704411184299
 20
268.8235429502848888
 30
0.0
 40
0.003965599567496
 50
206.9273019277248125
 51
238.8786889895480101
  0
ARC
  5
F333
  8
0
 10
4918.0919587042353669
 20
268.8250078774343024
 30
0.0
 40
0.007267392098845
 50
337.1109023596458201
 51
359.7008246014034967
  0
ARC
  5
F334
  8
0
 10
4918.0944838182304011
 20
268.8239417936954965
 30
0.0
 40
0.0045264551738752
 50
303.0583139469659955
 51
337.1109023596458201
  0
LINE
  5
F335
  8
0
 10
4918.1511646747985651
 20
268.8722176007229905
 30
0.0
 11
4918.1432290559432658
 21
268.8722176007229905
 31
0.0
  0
LINE
  5
F336
  8
0
 10
4918.1432290559432658
 20
268.8722176007229905
 30
0.0
 11
4918.127545131243096
 21
268.8792485118229934
 31
0.0
  0
LINE
  5
F337
  8
0
 10
4918.127545131243096
 20
268.8792485118229934
 30
0.0
 11
4918.1333556137678897
 21
268.8818532798813976
 31
0.0
  0
ARC
  5
F338
  8
0
 10
4918.1382347954167926
 20
268.8770773781341745
 30
0.0
 40
0.007267392098845
 50
337.1109023596458201
 51
348.4353761848640829
  0
ARC
  5
F339
  8
0
 10
4918.1407599094118268
 20
268.8760112943954823
 30
0.0
 40
0.0045264551738752
 50
303.0583139469659955
 51
337.1109023596458201
  0
LINE
  5
F33A
  8
0
 10
4918.1691757742783011
 20
268.8573406005230026
 30
0.0
 11
4918.1432290559432658
 21
268.8573406005230026
 31
0.0
  0
LINE
  5
F33B
  8
0
 10
4918.1432290559432658
 20
268.8573406005230026
 30
0.0
 11
4918.127545131243096
 21
268.8643715116230055
 31
0.0
  0
LINE
  5
F33C
  8
0
 10
4918.127545131243096
 20
268.8643715116230055
 30
0.0
 11
4918.1432290559432658
 21
268.8714024227230084
 31
0.0
  0
LINE
  5
F33D
  8
0
 10
4918.1432290559432658
 20
268.8714024227230084
 30
0.0
 11
4918.1524924700688643
 21
268.8714024227230084
 31
0.0
  0
LINE
  5
F33E
  8
0
 10
4918.1650528948366627
 20
268.8621624307230036
 30
0.0
 11
4918.1455020884432088
 21
268.8621624307230036
 31
0.0
  0
LINE
  5
F33F
  8
0
 10
4918.1455020884432088
 20
268.8621624307230036
 30
0.0
 11
4918.1340597002908908
 21
268.8672919130344212
 31
0.0
  0
ARC
  5
F340
  8
0
 10
4918.1382347954167926
 20
268.8622003779343004
 30
0.0
 40
0.007267392098845
 50
337.1109023596458201
 51
359.7008246014034967
  0
ARC
  5
F341
  8
0
 10
4918.1407599094118268
 20
268.8611342941954945
 30
0.0
 40
0.0045264551738752
 50
303.0583139469659955
 51
337.1109023596458201
  0
LINE
  5
F342
  8
0
 10
4918.1703054795334538
 20
268.8424636003230148
 30
0.0
 11
4918.1432290559432658
 21
268.8424636003230148
 31
0.0
  0
LINE
  5
F343
  8
0
 10
4918.1432290559432658
 20
268.8424636003230148
 30
0.0
 11
4918.127545131243096
 21
268.8494945114230177
 31
0.0
  0
LINE
  5
F344
  8
0
 10
4918.127545131243096
 20
268.8494945114230177
 30
0.0
 11
4918.1432290559432658
 21
268.8565254225230206
 31
0.0
  0
LINE
  5
F345
  8
0
 10
4918.1432290559432658
 20
268.8565254225230206
 30
0.0
 11
4918.1697620411496246
 21
268.8565254225230206
 31
0.0
  0
LINE
  5
F346
  8
0
 10
4918.1723238726417549
 20
268.8472854305230157
 30
0.0
 11
4918.1741401899325865
 21
268.8480996632940787
 31
0.0
  0
LINE
  5
F347
  8
0
 10
4918.1723238726417549
 20
268.8472854305230157
 30
0.0
 11
4918.1455020884432088
 21
268.8472854305230157
 31
0.0
  0
LINE
  5
F348
  8
0
 10
4918.1455020884432088
 20
268.8472854305230157
 30
0.0
 11
4918.1340597002908908
 21
268.8524149128343765
 31
0.0
  0
ARC
  5
F349
  8
0
 10
4918.1795852762270442
 20
268.84735112165788
 30
0.0
 40
0.0072617007205678
 50
180.5183188159269037
 51
199.1677828318007073
  0
ARC
  5
F34A
  8
0
 10
4918.1382347954167926
 20
268.8473233777341989
 30
0.0
 40
0.007267392098845
 50
337.1109023596458201
 51
359.7008246014034967
  0
ARC
  5
F34B
  8
0
 10
4918.1407599094118268
 20
268.8462572939955066
 30
0.0
 40
0.0045264551738752
 50
303.0583139469659955
 51
337.1109023596458201
  0
LINE
  5
F34C
  8
0
 10
4918.1498803465401579
 20
268.8280422689161924
 30
0.0
 11
4918.1442455211581546
 21
268.8280422689161924
 31
0.0
  0
LINE
  5
F34D
  8
0
 10
4918.1442455211581546
 20
268.8280422689161924
 30
0.0
 11
4918.1285615964579847
 21
268.8350731800161952
 31
0.0
  0
LINE
  5
F34E
  8
0
 10
4918.1285615964579847
 20
268.8350731800161952
 30
0.0
 11
4918.1442455211581546
 21
268.8421040911161981
 31
0.0
  0
LINE
  5
F34F
  8
0
 10
4918.1442455211581546
 20
268.8421040911161981
 30
0.0
 11
4918.1699391009196916
 21
268.8421040911161981
 31
0.0
  0
LINE
  5
F350
  8
0
 10
4918.158404570735911
 20
268.8328640991161933
 30
0.0
 11
4918.1465185536580975
 21
268.8328640991161933
 31
0.0
  0
LINE
  5
F351
  8
0
 10
4918.1465185536580975
 20
268.8328640991161933
 30
0.0
 11
4918.1350761655057795
 21
268.8379935814276109
 31
0.0
  0
ARC
  5
F352
  8
0
 10
4918.1392512606307719
 20
268.8329020463274901
 30
0.0
 40
0.007267392098845
 50
337.1109023596458201
 51
359.7008246014034967
  0
ARC
  5
F353
  8
0
 10
4918.141776374627625
 20
268.8318359625886842
 30
0.0
 40
0.0045264551738752
 50
303.0583139469659955
 51
337.1109023596458201
  0
LINE
  5
F354
  8
0
 10
4918.1248174921429381
 20
268.8193329219229781
 30
0.0
 11
4918.1276536661362115
 21
268.8180614999042177
 31
0.0
  0
LINE
  5
F355
  8
0
 10
4918.0914777064890586
 20
268.8061550946522971
 30
0.0
 11
4918.0777657182434268
 21
268.8123020108229753
 31
0.0
  0
LINE
  5
F356
  8
0
 10
4918.0777657182434268
 20
268.8123020108229753
 30
0.0
 11
4918.0934496429426872
 21
268.8193329219229781
 31
0.0
  0
LINE
  5
F357
  8
0
 10
4918.0934496429426872
 20
268.8193329219229781
 30
0.0
 11
4918.1248174921429381
 21
268.8193329219229781
 31
0.0
  0
LINE
  5
F358
  8
0
 10
4918.1052552701048626
 20
268.8100929299229733
 30
0.0
 11
4918.0957226754426301
 21
268.8100929299229733
 31
0.0
  0
LINE
  5
F359
  8
0
 10
4918.0957226754426301
 20
268.8100929299229733
 30
0.0
 11
4918.0842802872921311
 21
268.815222412234391
 31
0.0
  0
ARC
  5
F35A
  8
0
 10
4918.0884553824171235
 20
268.8101308771342133
 30
0.0
 40
0.007267392098845
 50
337.1109023596458201
 51
359.7008246014034967
  0
ARC
  5
F35B
  8
0
 10
4918.0909804964121577
 20
268.8090647933955211
 30
0.0
 40
0.0045264551738752
 50
334.4592961664076824
 51
337.1109023596458201
  0
LINE
  5
F35C
  8
0
 10
4918.0750380791441785
 20
268.8118944218230126
 30
0.0
 11
4918.0891777894303232
 21
268.8055557631062129
 31
0.0
  0
LINE
  5
F35D
  8
0
 10
4918.0555913997131938
 20
268.7978325996230069
 30
0.0
 11
4918.0436702299430181
 21
268.7978325996230069
 31
0.0
  0
LINE
  5
F35E
  8
0
 10
4918.0436702299430181
 20
268.7978325996230069
 30
0.0
 11
4918.0279863052428482
 21
268.8048635107230098
 31
0.0
  0
LINE
  5
F35F
  8
0
 10
4918.0279863052428482
 20
268.8048635107230098
 30
0.0
 11
4918.0436702299430181
 21
268.8118944218230126
 31
0.0
  0
LINE
  5
F360
  8
0
 10
4918.0436702299430181
 20
268.8118944218230126
 30
0.0
 11
4918.0750380791441785
 21
268.8118944218230126
 31
0.0
  0
LINE
  5
F361
  8
0
 10
4918.0727650466442356
 20
268.8026544298230078
 30
0.0
 11
4918.0842074347947346
 21
268.8077839121344255
 31
0.0
  0
LINE
  5
F362
  8
0
 10
4918.0727650466442356
 20
268.8026544298230078
 30
0.0
 11
4918.045943262442961
 21
268.8026544298230078
 31
0.0
  0
LINE
  5
F363
  8
0
 10
4918.045943262442961
 20
268.8026544298230078
 30
0.0
 11
4918.0345008742897335
 21
268.8077839121344255
 31
0.0
  0
ARC
  5
F364
  8
0
 10
4918.0800264502286154
 20
268.802720120957872
 30
0.0
 40
0.0072617007205678
 50
180.5183188159269037
 51
189.1607058207538898
  0
ARC
  5
F365
  8
0
 10
4918.0386759694156353
 20
268.8026923770343046
 30
0.0
 40
0.007267392098845
 50
337.1109023596458201
 51
359.7008246014034967
  0
ARC
  5
F366
  8
0
 10
4918.041201083411579
 20
268.8016262932954987
 30
0.0
 40
0.0045264551738752
 50
303.0583139469659955
 51
337.1109023596458201
  0
LINE
  5
F367
  8
0
 10
4918.0252586662427348
 20
268.8044559217229903
 30
0.0
 11
4918.0409425909429046
 21
268.7974250106229874
 31
0.0
  0
LINE
  5
F368
  8
0
 10
4918.0409425909429046
 20
268.7974250106229874
 30
0.0
 11
4918.0324181629457598
 21
268.7936036141016984
 31
0.0
  0
LINE
  5
F369
  8
0
 10
4918.010587537371066
 20
268.7903940995229846
 30
0.0
 11
4917.9938908170443028
 21
268.7903940995229846
 31
0.0
  0
LINE
  5
F36A
  8
0
 10
4917.9938908170443028
 20
268.7903940995229846
 30
0.0
 11
4917.9782068923423139
 21
268.7974250106229874
 31
0.0
  0
LINE
  5
F36B
  8
0
 10
4917.9782068923423139
 20
268.7974250106229874
 30
0.0
 11
4917.9938908170443028
 21
268.8044559217229903
 31
0.0
  0
LINE
  5
F36C
  8
0
 10
4917.9938908170443028
 20
268.8044559217229903
 30
0.0
 11
4918.0252586662427348
 21
268.8044559217229903
 31
0.0
  0
LINE
  5
F36D
  8
0
 10
4918.0229856337427918
 20
268.7952159297229855
 30
0.0
 11
4918.0344280218951099
 21
268.8003454120344031
 31
0.0
  0
LINE
  5
F36E
  8
0
 10
4918.0229856337427918
 20
268.7952159297229855
 30
0.0
 11
4917.9961638495442457
 21
268.7952159297229855
 31
0.0
  0
LINE
  5
F36F
  8
0
 10
4917.9961638495442457
 20
268.7952159297229855
 30
0.0
 11
4917.9847214613910182
 21
268.8003454120344031
 31
0.0
  0
ARC
  5
F370
  8
0
 10
4918.0302470373289907
 20
268.7952816208579065
 30
0.0
 40
0.0072617007205678
 50
180.5183188159269037
 51
204.8162645561843931
  0
ARC
  5
F371
  8
0
 10
4917.9888965565169201
 20
268.7952538769342254
 30
0.0
 40
0.007267392098845
 50
337.1109023596458201
 51
359.7008246014034967
  0
ARC
  5
F372
  8
0
 10
4917.9914216705119543
 20
268.7941877931954764
 30
0.0
 40
0.0045264551738752
 50
303.0583139469659955
 51
337.1109023596458201
  0
LINE
  5
F373
  8
0
 10
4917.9754792532430656
 20
268.7970174216230248
 30
0.0
 11
4917.9911631779432355
 21
268.7899865105230219
 31
0.0
  0
LINE
  5
F374
  8
0
 10
4917.9911631779432355
 20
268.7899865105230219
 30
0.0
 11
4917.9851188851898769
 21
268.7872769282136005
 31
0.0
  0
LINE
  5
F375
  8
0
 10
4917.9430193534017235
 20
268.7834451523323764
 30
0.0
 11
4917.9284274793417353
 21
268.7899865105229082
 31
0.0
  0
LINE
  5
F376
  8
0
 10
4917.9284274793417353
 20
268.7899865105229082
 30
0.0
 11
4917.9441114040428147
 21
268.7970174216230248
 31
0.0
  0
LINE
  5
F377
  8
0
 10
4917.9441114040428147
 20
268.7970174216230248
 30
0.0
 11
4917.9754792532430656
 21
268.7970174216230248
 31
0.0
  0
LINE
  5
F378
  8
0
 10
4917.9732062207431227
 20
268.78777742962302
 30
0.0
 11
4917.9846486088963502
 21
268.7929069119343808
 31
0.0
  0
LINE
  5
F379
  8
0
 10
4917.9732062207431227
 20
268.78777742962302
 30
0.0
 11
4917.9463844365427576
 21
268.78777742962302
 31
0.0
  0
LINE
  5
F37A
  8
0
 10
4917.9463844365427576
 20
268.78777742962302
 30
0.0
 11
4917.9349420483904396
 21
268.7929069119343808
 31
0.0
  0
ARC
  5
F37B
  8
0
 10
4917.9804676243284121
 20
268.7878431207578842
 30
0.0
 40
0.0072617007205678
 50
180.5183188159269037
 51
194.3140069791359963
  0
ARC
  5
F37C
  8
0
 10
4917.939117143517251
 20
268.7878153768342031
 30
0.0
 40
0.007267392098845
 50
337.1109023596458201
 51
359.7008246014034967
  0
ARC
  5
F37D
  8
0
 10
4917.9416422575122851
 20
268.7867492930955109
 30
0.0
 40
0.0045264551738752
 50
315.5319633552032883
 51
337.1109023596458201
  0
LINE
  5
F37E
  8
0
 10
4917.9232001273439892
 20
268.7884583308230049
 30
0.0
 11
4917.9355120710488336
 21
268.7829390374495802
 31
0.0
  0
LINE
  5
F37F
  8
0
 10
4917.8774986256412376
 20
268.7808221092557233
 30
0.0
 11
4917.8761483534417494
 21
268.781427419723002
 31
0.0
  0
LINE
  5
F380
  8
0
 10
4917.8761483534417494
 20
268.781427419723002
 30
0.0
 11
4917.8918322781428287
 21
268.7884583308230049
 31
0.0
  0
LINE
  5
F381
  8
0
 10
4917.8918322781428287
 20
268.7884583308230049
 30
0.0
 11
4917.9232001273439892
 21
268.7884583308230049
 31
0.0
  0
LINE
  5
F382
  8
0
 10
4917.9282501728557691
 20
268.7825011849063799
 30
0.0
 11
4917.9323694829954547
 21
268.7843478211344177
 31
0.0
  0
LINE
  5
F383
  8
0
 10
4917.8900567939072062
 20
268.781033239236308
 30
0.0
 11
4917.8826629224904536
 21
268.7843478211344177
 31
0.0
  0
LINE
  5
F384
  8
0
 10
4917.8759204272428178
 20
268.9010222728230133
 30
0.0
 11
4917.8916043519429877
 21
268.8939913617230104
 31
0.0
  0
LINE
  5
F385
  8
0
 10
4917.8916043519429877
 20
268.8939913617230104
 30
0.0
 11
4917.8759204272073475
 21
268.8869604506230075
 31
0.0
  0
LINE
  5
F386
  8
0
 10
4917.8736473947428749
 20
268.8917822808230085
 30
0.0
 11
4917.8850897828951929
 21
268.8969117631344261
 31
0.0
  0
ARC
  5
F387
  8
0
 10
4917.8809087983281643
 20
268.8918479719578727
 30
0.0
 40
0.0072617007205678
 50
180.5183188159269037
 51
206.9273019277219134
  0
ARC
  5
F388
  8
0
 10
4917.8779700543991567
 20
268.8903553008848917
 30
0.0
 40
0.003965599567496
 50
206.9273019277248125
 51
238.8786889895480101
  0
LINE
  5
F389
  8
0
 10
4917.8759204408434016
 20
268.8862794229229962
 30
0.0
 11
4917.891604365542662
 21
268.8792485118229934
 31
0.0
  0
LINE
  5
F38A
  8
0
 10
4917.891604365542662
 20
268.8792485118229934
 30
0.0
 11
4917.8759204408070218
 21
268.8722176007229905
 31
0.0
  0
LINE
  5
F38B
  8
0
 10
4917.8736474083425492
 20
268.8770394309229914
 30
0.0
 11
4917.8850897964948672
 21
268.882168913234409
 31
0.0
  0
ARC
  5
F38C
  8
0
 10
4917.880908811928748
 20
268.8771051220579125
 30
0.0
 40
0.0072617007205678
 50
180.5183188159269037
 51
206.9273019277219134
  0
ARC
  5
F38D
  8
0
 10
4917.8779700679988309
 20
268.8756124509848746
 30
0.0
 40
0.003965599567496
 50
206.9273019277248125
 51
238.8786889895480101
  0
LINE
  5
F38E
  8
0
 10
4917.8759204408434016
 20
268.8563912722229929
 30
0.0
 11
4917.891604365542662
 21
268.8493603611229901
 31
0.0
  0
LINE
  5
F38F
  8
0
 10
4917.891604365542662
 20
268.8493603611229901
 30
0.0
 11
4917.8759204408070218
 21
268.8423294500229872
 31
0.0
  0
LINE
  5
F390
  8
0
 10
4917.8736474083425492
 20
268.8471512802229881
 30
0.0
 11
4917.8850897964948672
 21
268.8522807625344058
 31
0.0
  0
ARC
  5
F391
  8
0
 10
4917.880908811928748
 20
268.8472169713579092
 30
0.0
 40
0.0072617007205678
 50
180.5183188159269037
 51
206.9273019277219134
  0
ARC
  5
F392
  8
0
 10
4917.8779700679988309
 20
268.8457243002849282
 30
0.0
 40
0.003965599567496
 50
206.9273019277248125
 51
238.8786889895480101
  0
LINE
  5
F393
  8
0
 10
4917.8759204272428178
 20
268.8415142719230175
 30
0.0
 11
4917.8916043519429877
 21
268.8344833608230147
 31
0.0
  0
LINE
  5
F394
  8
0
 10
4917.8916043519429877
 20
268.8344833608230147
 30
0.0
 11
4917.8759204272073475
 21
268.8274524497230118
 31
0.0
  0
LINE
  5
F395
  8
0
 10
4917.8736473947428749
 20
268.8322742799230127
 30
0.0
 11
4917.8850897828951929
 21
268.8374037622343735
 31
0.0
  0
ARC
  5
F396
  8
0
 10
4917.8809087983281643
 20
268.8323399710578769
 30
0.0
 40
0.0072617007205678
 50
180.5183188159269037
 51
206.9273019277219134
  0
ARC
  5
F397
  8
0
 10
4917.8779700543991567
 20
268.8308472999848959
 30
0.0
 40
0.003965599567496
 50
206.9273019277248125
 51
238.8786889895480101
  0
LINE
  5
F398
  8
0
 10
4917.8759204272428178
 20
268.8266372717229729
 30
0.0
 11
4917.8916043519429877
 21
268.8196063606230268
 31
0.0
  0
LINE
  5
F399
  8
0
 10
4917.8916043519429877
 20
268.8196063606230268
 30
0.0
 11
4917.8759204272073475
 21
268.812575449523024
 31
0.0
  0
LINE
  5
F39A
  8
0
 10
4917.8736473947428749
 20
268.8173972797230249
 30
0.0
 11
4917.8850897828951929
 21
268.8225267620343857
 31
0.0
  0
ARC
  5
F39B
  8
0
 10
4917.8809087983281643
 20
268.8174629708578891
 30
0.0
 40
0.0072617007205678
 50
180.5183188159269037
 51
206.9273019277219134
  0
ARC
  5
F39C
  8
0
 10
4917.8779700543991567
 20
268.8159702997849081
 30
0.0
 40
0.003965599567496
 50
206.9273019277248125
 51
238.8786889895480101
  0
LINE
  5
F39D
  8
0
 10
4917.8759204408434016
 20
268.811760271522985
 30
0.0
 11
4917.891604365542662
 21
268.8047293604229822
 31
0.0
  0
LINE
  5
F39E
  8
0
 10
4917.891604365542662
 20
268.8047293604229822
 30
0.0
 11
4917.8759204408070218
 21
268.7976984493229793
 31
0.0
  0
LINE
  5
F39F
  8
0
 10
4917.8736474083425492
 20
268.8025202795229802
 30
0.0
 11
4917.8850897964948672
 21
268.8076497618343979
 31
0.0
  0
ARC
  5
F3A0
  8
0
 10
4917.880908811928748
 20
268.8025859706579013
 30
0.0
 40
0.0072617007205678
 50
180.5183188159269037
 51
206.9273019277219134
  0
ARC
  5
F3A1
  8
0
 10
4917.8779700679988309
 20
268.8010932995849203
 30
0.0
 40
0.003965599567496
 50
206.9273019277248125
 51
238.8786889895480101
  0
LINE
  5
F3A2
  8
0
 10
4917.8759204408434016
 20
268.7968832712230096
 30
0.0
 11
4917.891604365542662
 21
268.7898523601230067
 31
0.0
  0
LINE
  5
F3A3
  8
0
 10
4917.891604365542662
 20
268.7898523601230067
 30
0.0
 11
4917.8759204408070218
 21
268.7828214490230039
 31
0.0
  0
LINE
  5
F3A4
  8
0
 10
4917.8736474083425492
 20
268.7876432792230048
 30
0.0
 11
4917.8850897964948672
 21
268.7927727615344224
 31
0.0
  0
ARC
  5
F3A5
  8
0
 10
4917.880908811928748
 20
268.7877089703579259
 30
0.0
 40
0.0072617007205678
 50
180.5183188159269037
 51
206.9273019277219134
  0
ARC
  5
F3A6
  8
0
 10
4917.8779700679988309
 20
268.786216299284888
 30
0.0
 40
0.003965599567496
 50
206.9273019277248125
 51
238.8786889895480101
  0
ARC
  5
F3A7
  8
0
 10
4917.8980781129366733
 20
270.2698281309704953
 30
0.0
 40
1.5184911723146739
 50
274.8493301838827847
 51
279.2216542122741885
  0
LINE
  5
F3A8
  8
0
 10
4918.0037138449706617
 20
268.7669625465803733
 30
0.0
 11
4918.026444928543242
 21
268.756772480622999
 31
0.0
  0
LINE
  5
F3A9
  8
0
 10
4918.026444928543242
 20
268.756772480622999
 30
0.0
 11
4918.026444928543242
 21
268.711138189623
 31
0.0
  0
LINE
  5
F3AA
  8
0
 10
4918.026444928543242
 20
268.711138189623
 30
0.0
 11
4917.9607166916430288
 21
268.7406033521230029
 31
0.0
  0
LINE
  5
F3AB
  8
0
 10
4917.9607171005000055
 20
268.7405972399470784
 30
0.0
 11
4917.9607171005000055
 21
268.7624613684155861
 31
0.0
  0
ARC
  5
F3AC
  8
0
 10
4917.8602365026426924
 20
270.6784648601063736
 30
0.0
 40
1.9743351967778049
 50
270.0000003946826723
 51
274.8291322118673179
  0
ARC
  5
F3AD
  8
0
 10
4917.8602823465753318
 20
270.2411691025208142
 30
0.0
 40
1.5039292052965441
 50
269.9982539839094784
 51
273.8291519259078086
  0
ARC
  5
F3AE
  8
0
 10
4918.6944117599041419
 20
265.5680978832278925
 30
0.0
 40
0.012282122073562
 50
283.5631031050932052
 51
359.4002683719724018
  0
LINE
  5
F3AF
  8
0
 10
4919.8208168312439739
 20
265.0837173374230247
 30
0.0
 11
4919.3877955713433039
 21
265.0837173374230247
 31
0.0
  0
LINE
  5
F3B0
  8
0
 10
4919.305129429642875
 20
265.0837173374230247
 30
0.0
 11
4918.7296108106729662
 21
265.0837173374230247
 31
0.0
  0
LINE
  5
F3B1
  8
0
 10
4919.3169294296430962
 20
265.071917337422974
 30
0.0
 11
4919.3169294296430962
 21
263.4419740303230242
 31
0.0
  0
LINE
  5
F3B2
  8
0
 10
4919.3877955713433039
 20
265.0837173374230247
 30
0.0
 11
4919.3877955713433039
 21
264.4742055682306159
 31
0.0
  0
LINE
  5
F3B3
  8
0
 10
4920.1554821855443151
 20
263.4301740303229735
 30
0.0
 11
4920.0058884011550617
 21
263.4301740303229735
 31
0.0
  0
LINE
  5
F3B4
  8
0
 10
4919.7540105487014443
 20
263.4301740303229735
 30
0.0
 11
4919.5059058076431029
 21
263.4301740303229735
 31
0.0
  0
LINE
  5
F3B5
  8
0
 10
4919.305129429642875
 20
263.4301740303229735
 30
0.0
 11
4918.7848321256424242
 21
263.4301740303229735
 31
0.0
  0
LINE
  5
F3B6
  8
0
 10
4920.1554821855443151
 20
266.5010401720230107
 30
0.0
 11
4920.057116831242638
 21
266.5010401720230107
 31
0.0
  0
LINE
  5
F3B7
  8
0
 10
4920.017716831242069
 20
266.4616401720230101
 30
0.0
 11
4920.017716831242069
 21
264.9556952645230012
 31
0.0
  0
LINE
  5
F3B8
  8
0
 10
4920.1948821855430651
 20
266.4616401720230101
 30
0.0
 11
4920.1948821855430651
 21
263.4695740303229741
 31
0.0
  0
ARC
  5
F3B9
  8
0
 10
4920.1554821855443151
 20
266.4616401720230101
 30
0.0
 40
0.0394
 50
359.9999999999984084
 51
90.0
  0
ARC
  5
F3BA
  8
0
 10
4920.057116831242638
 20
266.4616401720230101
 30
0.0
 40
0.0394
 50
90.0
 51
180.0
  0
ARC
  5
F3BB
  8
0
 10
4919.8208168312439739
 20
265.2806173374229957
 30
0.0
 40
0.1969
 50
270.0
 51
0.0
  0
ARC
  5
F3BC
  8
0
 10
4920.1554821855443151
 20
263.4695740303229741
 30
0.0
 40
0.0394
 50
270.0
 51
0.0
  0
ARC
  5
F3BD
  8
0
 10
4919.879949474928253
 20
262.6136404643733044
 30
0.0
 40
0.826188645202521
 50
81.2320151495280243
 51
98.7679848504719757
  0
LINE
  5
F3BE
  8
0
 10
4918.7846742705187353
 20
264.5151050499229086
 30
0.0
 11
4919.3053279167079381
 21
264.5151050499229086
 31
0.0
  0
LINE
  5
F3BF
  8
0
 10
4919.3877955713433039
 20
264.5151050499229086
 30
0.0
 11
4919.8246530563783381
 21
264.5151050499229086
 31
0.0
  0
LINE
  5
F3C0
  8
0
 10
4918.7802757367644517
 20
263.9987862170555104
 30
0.0
 11
4919.3052413763380173
 21
263.9987864782652878
 31
0.0
  0
LINE
  5
F3C1
  8
0
 10
4919.5059058076431029
 20
263.9987865781109235
 30
0.0
 11
4920.1948821855430651
 21
263.9987869209284099
 31
0.0
  0
ARC
  5
F3C2
  8
0
 10
4918.7775713265209561
 20
265.136113709624226
 30
0.0
 40
0.0710323229261068
 50
183.7760542117584919
 51
227.5308728722968965
  0
ARC
  5
F3C3
  8
0
 10
4919.5090257814372308
 20
264.8171794863545756
 30
0.0
 40
0.8066400548613547
 50
185.9238350121154042
 51
194.4094728697328947
  0
ARC
  5
F3C4
  8
0
 10
4919.0939834519986107
 20
264.7105415815476022
 30
0.0
 40
0.3781172690403652
 50
194.4094728697328947
 51
205.8093192122375967
  0
ARC
  5
F3C5
  8
0
 10
4918.8379979256560546
 20
264.5867419725753962
 30
0.0
 40
0.0937672507912265
 50
205.8093192122375967
 51
219.9372089344842891
  0
ARC
  5
F3C6
  8
0
 10
4918.7980954757622385
 20
264.5533342921240205
 30
0.0
 40
0.0417261264695293
 50
219.9372089344842891
 51
240.4066038667849057
  0
ARC
  5
F3C7
  8
0
 10
4918.7840736678735993
 20
264.5286448209938044
 30
0.0
 40
0.0133327983594947
 50
240.4066038667849057
 51
260.9201587871335732
  0
ARC
  5
F3C8
  8
0
 10
4918.7922052629310201
 20
264.5795266930193748
 30
0.0
 40
0.0648603418581402
 50
260.9201587871335732
 51
263.3322960288422223
  0
ARC
  5
F3C9
  8
0
 10
4921.1993493973850491
 20
263.4144898394968095
 30
0.0
 40
2.5201084643314671
 50
169.79237717651651
 51
171.5352872718810033
  0
ARC
  5
F3CA
  8
0
 10
4919.1323640564432935
 20
263.7866831115863988
 30
0.0
 40
0.4198808025154047
 50
160.0509762113545946
 51
169.79237717651651
  0
ARC
  5
F3CB
  8
0
 10
4919.1166111303282378
 20
263.7924008408240866
 30
0.0
 40
0.4031223088826799
 50
153.6843346308625087
 51
160.050976211356101
  0
ARC
  5
F3CC
  8
0
 10
4918.8218584020223716
 20
263.9381770002199801
 30
0.0
 40
0.0742912588100813
 50
140.2251975360618133
 51
153.6843346308625087
  0
ARC
  5
F3CD
  8
0
 10
4918.8257146741270844
 20
263.9349669475392943
 30
0.0
 40
0.0793087554735778
 50
133.5561959852819882
 51
140.2251975360618133
  0
ARC
  5
F3CE
  8
0
 10
4918.795709730065937
 20
263.9665235168537833
 30
0.0
 40
0.035764367372762
 50
115.5657552081559061
 51
133.5561959852819882
  0
ARC
  5
F3CF
  8
0
 10
4918.7854373370028043
 20
263.3514322282460967
 30
0.0
 40
0.0787441278769692
 50
90.440368050357705
 51
179.998803373451608
  0
ARC
  5
F3D0
  8
0
 10
4919.3052231613755794
 20
264.480433072160281
 30
0.0
 40
0.0346721360123442
 50
81.6543318413786636
 51
89.8268913242060734
  0
ARC
  5
F3D1
  8
0
 10
4919.307044950001
 20
264.4928516763176276
 30
0.0
 40
0.0221206164623567
 50
71.9749375455546101
 51
81.6543318413786636
  0
ARC
  5
F3D2
  8
0
 10
4919.3112907623290084
 20
264.5058995201792982
 30
0.0
 40
0.0083993500571101
 50
56.3962610431240421
 51
71.9749375455546101
  0
ARC
  5
F3D3
  8
0
 10
4919.3145552732812575
 20
264.5108123085948932
 30
0.0
 40
0.0025008314486702
 50
18.3143492090415805
 51
56.3962610431240421
  0
ARC
  5
F3D4
  8
0
 10
4919.3051318474226719
 20
264.0355864002889916
 30
0.0
 40
0.0368000850207693
 50
270.1705309612220276
 51
275.2496582892409265
  0
ARC
  5
F3D5
  8
0
 10
4919.3058909161909469
 20
264.0273249737650758
 30
0.0
 40
0.0285038597582577
 50
275.2496582892409265
 51
283.8220477677908207
  0
ARC
  5
F3D6
  8
0
 10
4919.3096741016997839
 20
264.0119481473030874
 30
0.0
 40
0.0126684789724479
 50
283.8220477677908207
 51
294.6161862172634187
  0
ARC
  5
F3D7
  8
0
 10
4919.3125262609291894
 20
264.0057231380641838
 30
0.0
 40
0.0058211764165616
 50
294.6161862172634187
 51
311.1477885988587104
  0
ARC
  5
F3D8
  8
0
 10
4919.3151697405628511
 20
264.0026979577183965
 30
0.0
 40
0.0018037517817902
 50
311.1477885988597905
 51
347.3096710037572166
  0
LINE
  5
F3D9
  8
0
 10
4919.3169294296430962
 20
265.0187567074229946
 30
0.0
 11
4919.3371373775416941
 21
265.01858035522298
 31
0.0
  0
LINE
  5
F3DA
  8
0
 10
4919.3371373775416941
 20
265.01858035522298
 30
0.0
 11
4919.3877955713433039
 21
264.9995439064505831
 31
0.0
  0
ARC
  5
F3DB
  8
0
 10
4919.305129429642875
 20
265.071917337422974
 30
0.0
 40
0.0118
 50
0.0000000000016284
 51
90.0
  0
ARC
  5
F3DC
  8
0
 10
4919.3216588857485476
 20
264.9677890571928742
 30
0.0
 40
0.6961630005304688
 50
341.0004979901542015
 51
359.0046036125920068
  0
ARC
  5
F3DD
  8
0
 10
4919.1246127966378481
 20
265.0356355510775188
 30
0.0
 40
0.9045623958418534
 50
332.6285938637373079
 51
341.0004979901542015
  0
ARC
  5
F3DE
  8
0
 10
4919.5947597052117999
 20
264.7922321363419087
 30
0.0
 40
0.375144472129741
 50
321.2899669319356235
 51
332.6285938637373079
  0
ARC
  5
F3DF
  8
0
 10
4919.7563475166625722
 20
264.6627294246695783
 30
0.0
 40
0.1680658079956874
 50
305.7912859204026859
 51
321.2899669319356235
  0
ARC
  5
F3E0
  8
0
 10
4919.8195606064400636
 20
264.5750542113848951
 30
0.0
 40
0.0599786314030253
 50
284.2864332958426985
 51
305.7912859204026859
  0
ARC
  5
F3E1
  8
0
 10
4919.815151327446074
 20
264.5923696310433115
 30
0.0
 40
0.0778466335072039
 50
277.0108345716033114
 51
284.2864332958426985
  0
ARC
  5
F3E2
  8
0
 10
4919.5279011453749263
 20
264.4796518447903964
 30
0.0
 40
0.1402113897053484
 50
182.226118612433595
 51
203.8962386106634028
  0
LINE
  5
F3E3
  8
0
 10
4919.3997085988430626
 20
264.4228547954230066
 30
0.0
 11
4919.4936091226154531
 21
264.2109186579447169
 31
0.0
  0
ARC
  5
F3E4
  8
0
 10
4919.3622528411533494
 20
264.1527198827055258
 30
0.0
 40
0.1436717443305487
 50
0.9263593819744372
 51
23.8962386106634597
  0
LINE
  5
F3E5
  8
0
 10
4919.5059058076431029
 20
264.1550426693229952
 30
0.0
 11
4919.5059058076431029
 21
263.4301740303229735
 31
0.0
  0
LINE
  5
F3E6
  8
0
 10
4919.3169294296430962
 20
263.4993145777668246
 30
0.0
 11
4919.3371373773761661
 21
263.4991259203393952
 31
0.0
  0
LINE
  5
F3E7
  8
0
 10
4919.3371373773761661
 20
263.4991259203393952
 30
0.0
 11
4919.3492466090438029
 21
263.5031170248844887
 31
0.0
  0
LINE
  5
F3E8
  8
0
 10
4919.3492466090438029
 20
263.5031170248844887
 30
0.0
 11
4919.3493711169749076
 21
263.4995516033608283
 31
0.0
  0
ARC
  5
F3E9
  8
0
 10
4919.0799831599433674
 20
264.2569456838230053
 30
0.0
 40
0.8038754035999865
 50
289.5793232382055749
 51
301.99441832590378
  0
ARC
  5
F3EA
  8
0
 10
4919.305129429642875
 20
263.4419740303230242
 30
0.0
 40
0.0118
 50
270.0
 51
0.0
  0
LINE
  5
F3EB
  8
0
 10
4919.3371373775416941
 20
265.018580355423012
 30
0.0
 11
4919.3371373773761661
 21
263.4991259203393952
 31
0.0
  0
LINE
  5
F3ED
  8
0
 10
4925.131746270284566
 20
262.8002527704230147
 30
0.0
 11
4922.5966007780007203
 21
262.8002527704230147
 31
0.0
  0
LINE
  5
F3EE
  8
0
 10
4925.1333408195523589
 20
262.7018275736230066
 30
0.0
 11
4922.5950062287338369
 21
262.7018275736230066
 31
0.0
  0
LINE
  5
F3EF
  8
0
 10
4924.7419538688318426
 20
261.8668619934230151
 30
0.0
 11
4922.9863931794534437
 21
261.8668619934230151
 31
0.0
  0
LINE
  5
F3F0
  8
0
 10
4924.7338600935418071
 20
261.8514338728230086
 30
0.0
 11
4922.9944869547416602
 21
261.8514338728230086
 31
0.0
  0
LINE
  5
F3F1
  8
0
 10
4922.5890931344238197
 20
262.7079322880604195
 30
0.0
 11
4922.590601691829761
 21
262.7943574848604271
 31
0.0
  0
ARC
  5
F3F2
  8
0
 10
4922.5950922205956886
 20
262.7078275736229784
 30
0.0
 40
0.006
 50
179.0000000111757004
 51
270.0
  0
ARC
  5
F3F3
  8
0
 10
4922.5966007780007203
 20
262.794252770422986
 30
0.0
 40
0.006
 50
90.0
 51
179.0000000111838858
  0
ARC
  5
F3F4
  8
0
 10
4937.70565446364526
 20
263.4892015659493154
 30
0.0
 40
15.1374616733129201
 50
183.0055149945731046
 51
184.374410183932298
  0
ARC
  5
F3F5
  8
0
 10
4922.5950062287338369
 20
262.695827573622978
 30
0.0
 40
0.006
 50
90.0
 51
183.0055149945650044
  0
ARC
  5
F3F6
  8
0
 10
4924.084682809536389
 20
262.4612189276555227
 30
0.0
 40
1.4778266742920061
 50
184.9146437188377092
 51
191.0559659563307093
  0
ARC
  5
F3F7
  8
0
 10
4923.1137375710168271
 20
262.2559909034682732
 30
0.0
 40
0.4857843205467731
 50
189.2601875509940044
 51
212.6124875380008064
  0
ARC
  5
F3F8
  8
0
 10
4922.9262298894000196
 20
262.1445129114334804
 30
0.0
 40
0.2678541084193749
 50
214.1434452435321134
 51
238.3899543219338
  0
ARC
  5
F3F9
  8
0
 10
4922.9523852426409576
 20
262.1980270716080099
 30
0.0
 40
0.3271885340142453
 50
239.4010958110706042
 51
259.9040281806747998
  0
ARC
  5
F3FA
  8
0
 10
4922.9876379929446557
 20
262.3621203086564719
 30
0.0
 40
0.4949562551485335
 50
259.216199719391625
 51
265.8011972060313042
  0
ARC
  5
F3FB
  8
0
 10
4922.9973217291044421
 20
262.4777591362148996
 30
0.0
 40
0.6109948872689017
 50
265.689513913136409
 51
268.9751253627555911
  0
LINE
  5
F3FC
  8
0
 10
4922.9884869547431663
 20
261.8668619934230151
 30
0.0
 11
4922.9884869547431663
 21
261.8574338728229804
 31
0.0
  0
ARC
  5
F3FD
  8
0
 10
4922.9944869547416602
 20
261.8574338728229804
 30
0.0
 40
0.006
 50
179.9999999999917861
 51
270.0
  0
LINE
  5
F3FE
  8
0
 10
4925.1392539138623761
 20
262.7079322880604195
 30
0.0
 11
4925.1377453564564348
 21
262.7943574848604271
 31
0.0
  0
ARC
  5
F3FF
  8
0
 10
4925.1332548276914167
 20
262.7078275736229784
 30
0.0
 40
0.006
 50
270.0
 51
0.9999999888242697
  0
ARC
  5
F400
  8
0
 10
4925.131746270284566
 20
262.794252770422986
 30
0.0
 40
0.006
 50
0.9999999888161287
 51
90.0
  0
ARC
  5
F401
  8
0
 10
4910.0226925846391168
 20
263.4892015659493154
 30
0.0
 40
15.1374616733129201
 50
355.625589816067702
 51
356.9944850054267818
  0
ARC
  5
F402
  8
0
 10
4925.1333408195523589
 20
262.695827573622978
 30
0.0
 40
0.006
 50
356.994485005435024
 51
90.0
  0
ARC
  5
F403
  8
0
 10
4923.6436642387488973
 20
262.4612189276555227
 30
0.0
 40
1.4778266742920061
 50
348.9440340436692054
 51
355.0853562811623192
  0
ARC
  5
F404
  8
0
 10
4924.6146094772675497
 20
262.2559909034682732
 30
0.0
 40
0.4857843205467731
 50
327.3875124619991084
 51
350.7398124490060241
  0
ARC
  5
F405
  8
0
 10
4924.8021171588852667
 20
262.1445129114334804
 30
0.0
 40
0.2678541084193749
 50
301.6100456780661716
 51
325.8565547564664939
  0
ARC
  5
F406
  8
0
 10
4924.7759618056443287
 20
262.1980270716080099
 30
0.0
 40
0.3271885340142453
 50
280.0959718193250865
 51
300.5989041889293958
  0
ARC
  5
F407
  8
0
 10
4924.7407090553424496
 20
262.3621203086564719
 30
0.0
 40
0.4949562551485335
 50
274.1988027939686958
 51
280.783800280608375
  0
ARC
  5
F408
  8
0
 10
4924.7310253191817537
 20
262.4777591362148996
 30
0.0
 40
0.6109948872689017
 50
271.0248746372442952
 51
274.3104860868634773
  0
LINE
  5
F409
  8
0
 10
4924.7398600935430295
 20
261.8668619934230151
 30
0.0
 11
4924.7398600935430295
 21
261.8574338728229804
 31
0.0
  0
ARC
  5
F40A
  8
0
 10
4924.7338600935418071
 20
261.8574338728229804
 30
0.0
 40
0.006
 50
270.0
 51
0.0000000000081422
  0
ENDSEC
  0
EOF
